  0
SECTION
  2
HEADER
  9
$ACADVER
  1
AC1024
  9
$ACADMAINTVER
 70
     6
  9
$DWGCODEPAGE
  3
ANSI_1252
  9
$INSBASE
 10
0.0
 20
0.0
 30
0.0
  9
$EXTMIN
 10
-140.65
 20
-97.11000000000001
 30
0.0
  9
$EXTMAX
 10
141.4571075439453
 20
97.11000000000001
 30
0.0
  9
$LIMMIN
 10
0.0
 20
0.0
  9
$LIMMAX
 10
420.0
 20
297.0
  9
$ORTHOMODE
 70
     0
  9
$REGENMODE
 70
     1
  9
$FILLMODE
 70
     1
  9
$QTEXTMODE
 70
     0
  9
$MIRRTEXT
 70
     1
  9
$LTSCALE
 40
1.0
  9
$ATTMODE
 70
     1
  9
$TEXTSIZE
 40
1.0
  9
$TRACEWID
 40
1.0
  9
$TEXTSTYLE
  7
Standard
  9
$CLAYER
  8
0
  9
$CELTYPE
  6
ByLayer
  9
$CECOLOR
 62
   256
  9
$CELTSCALE
 40
1.0
  9
$DISPSILH
 70
     0
  9
$DIMSCALE
 40
1.0
  9
$DIMASZ
 40
2.5
  9
$DIMEXO
 40
0.625
  9
$DIMDLI
 40
3.75
  9
$DIMRND
 40
0.0
  9
$DIMDLE
 40
0.0
  9
$DIMEXE
 40
1.25
  9
$DIMTP
 40
0.0
  9
$DIMTM
 40
0.0
  9
$DIMTXT
 40
2.5
  9
$DIMCEN
 40
2.5
  9
$DIMTSZ
 40
0.0
  9
$DIMTOL
 70
     0
  9
$DIMLIM
 70
     0
  9
$DIMTIH
 70
     0
  9
$DIMTOH
 70
     0
  9
$DIMSE1
 70
     0
  9
$DIMSE2
 70
     0
  9
$DIMTAD
 70
     1
  9
$DIMZIN
 70
     8
  9
$DIMBLK
  1

  9
$DIMASO
 70
     1
  9
$DIMSHO
 70
     1
  9
$DIMPOST
  1

  9
$DIMAPOST
  1

  9
$DIMALT
 70
     0
  9
$DIMALTD
 70
     3
  9
$DIMALTF
 40
0.03937007874016
  9
$DIMLFAC
 40
1.0
  9
$DIMTOFL
 70
     1
  9
$DIMTVP
 40
0.0
  9
$DIMTIX
 70
     0
  9
$DIMSOXD
 70
     0
  9
$DIMSAH
 70
     0
  9
$DIMBLK1
  1

  9
$DIMBLK2
  1

  9
$DIMSTYLE
  2
ISO-25
  9
$DIMCLRD
 70
     0
  9
$DIMCLRE
 70
     0
  9
$DIMCLRT
 70
     0
  9
$DIMTFAC
 40
1.0
  9
$DIMGAP
 40
0.625
  9
$DIMJUST
 70
     0
  9
$DIMSD1
 70
     0
  9
$DIMSD2
 70
     0
  9
$DIMTOLJ
 70
     0
  9
$DIMTZIN
 70
     8
  9
$DIMALTZ
 70
     0
  9
$DIMALTTZ
 70
     0
  9
$DIMUPT
 70
     0
  9
$DIMDEC
 70
     2
  9
$DIMTDEC
 70
     2
  9
$DIMALTU
 70
     2
  9
$DIMALTTD
 70
     3
  9
$DIMTXSTY
  7
Standard
  9
$DIMAUNIT
 70
     0
  9
$DIMADEC
 70
     0
  9
$DIMALTRND
 40
0.0
  9
$DIMAZIN
 70
     0
  9
$DIMDSEP
 70
    44
  9
$DIMATFIT
 70
     3
  9
$DIMFRAC
 70
     0
  9
$DIMLDRBLK
  1

  9
$DIMLUNIT
 70
     2
  9
$DIMLWD
 70
    -2
  9
$DIMLWE
 70
    -2
  9
$DIMTMOVE
 70
     0
  9
$DIMFXL
 40
1.0
  9
$DIMFXLON
 70
     0
  9
$DIMJOGANG
 40
0.7853981633974483
  9
$DIMTFILL
 70
     0
  9
$DIMTFILLCLR
 70
     0
  9
$DIMARCSYM
 70
     0
  9
$DIMLTYPE
  6

  9
$DIMLTEX1
  6

  9
$DIMLTEX2
  6

  9
$DIMTXTDIRECTION
 70
     0
  9
$LUNITS
 70
     2
  9
$LUPREC
 70
     4
  9
$SKETCHINC
 40
1.0
  9
$FILLETRAD
 40
10.0
  9
$AUNITS
 70
     0
  9
$AUPREC
 70
     0
  9
$MENU
  1
.
  9
$ELEVATION
 40
0.0
  9
$PELEVATION
 40
0.0
  9
$THICKNESS
 40
0.0
  9
$LIMCHECK
 70
     0
  9
$CHAMFERA
 40
0.0
  9
$CHAMFERB
 40
0.0
  9
$CHAMFERC
 40
0.0
  9
$CHAMFERD
 40
0.0
  9
$SKPOLY
 70
     0
  9
$TDCREATE
 40
2458712.56176868
  9
$TDUCREATE
 40
2458712.520102014
  9
$TDUPDATE
 40
2458712.561769757
  9
$TDUUPDATE
 40
2458712.52010309
  9
$TDINDWG
 40
0.0000000116
  9
$TDUSRTIMER
 40
0.0000000116
  9
$USRTIMER
 70
     1
  9
$ANGBASE
 50
0.0
  9
$ANGDIR
 70
     0
  9
$PDMODE
 70
     0
  9
$PDSIZE
 40
0.0
  9
$PLINEWID
 40
0.0
  9
$SPLFRAME
 70
     0
  9
$SPLINETYPE
 70
     6
  9
$SPLINESEGS
 70
     8
  9
$HANDSEED
  5
37A
  9
$SURFTAB1
 70
     6
  9
$SURFTAB2
 70
     6
  9
$SURFTYPE
 70
     6
  9
$SURFU
 70
     6
  9
$SURFV
 70
     6
  9
$UCSBASE
  2

  9
$UCSNAME
  2

  9
$UCSORG
 10
0.0
 20
0.0
 30
0.0
  9
$UCSXDIR
 10
1.0
 20
0.0
 30
0.0
  9
$UCSYDIR
 10
0.0
 20
1.0
 30
0.0
  9
$UCSORTHOREF
  2

  9
$UCSORTHOVIEW
 70
     0
  9
$UCSORGTOP
 10
0.0
 20
0.0
 30
0.0
  9
$UCSORGBOTTOM
 10
0.0
 20
0.0
 30
0.0
  9
$UCSORGLEFT
 10
0.0
 20
0.0
 30
0.0
  9
$UCSORGRIGHT
 10
0.0
 20
0.0
 30
0.0
  9
$UCSORGFRONT
 10
0.0
 20
0.0
 30
0.0
  9
$UCSORGBACK
 10
0.0
 20
0.0
 30
0.0
  9
$PUCSBASE
  2

  9
$PUCSNAME
  2

  9
$PUCSORG
 10
0.0
 20
0.0
 30
0.0
  9
$PUCSXDIR
 10
1.0
 20
0.0
 30
0.0
  9
$PUCSYDIR
 10
0.0
 20
1.0
 30
0.0
  9
$PUCSORTHOREF
  2

  9
$PUCSORTHOVIEW
 70
     0
  9
$PUCSORGTOP
 10
0.0
 20
0.0
 30
0.0
  9
$PUCSORGBOTTOM
 10
0.0
 20
0.0
 30
0.0
  9
$PUCSORGLEFT
 10
0.0
 20
0.0
 30
0.0
  9
$PUCSORGRIGHT
 10
0.0
 20
0.0
 30
0.0
  9
$PUCSORGFRONT
 10
0.0
 20
0.0
 30
0.0
  9
$PUCSORGBACK
 10
0.0
 20
0.0
 30
0.0
  9
$USERI1
 70
     0
  9
$USERI2
 70
     0
  9
$USERI3
 70
     0
  9
$USERI4
 70
     0
  9
$USERI5
 70
     0
  9
$USERR1
 40
0.0
  9
$USERR2
 40
0.0
  9
$USERR3
 40
0.0
  9
$USERR4
 40
0.0
  9
$USERR5
 40
0.0
  9
$WORLDVIEW
 70
     1
  9
$SHADEDGE
 70
     3
  9
$SHADEDIF
 70
    70
  9
$TILEMODE
 70
     0
  9
$MAXACTVP
 70
    64
  9
$PINSBASE
 10
0.0
 20
0.0
 30
0.0
  9
$PLIMCHECK
 70
     0
  9
$PEXTMIN
 10
0.0
 20
0.0
 30
0.0
  9
$PEXTMAX
 10
0.0
 20
0.0
 30
0.0
  9
$PLIMMIN
 10
-20.0
 20
-7.5
  9
$PLIMMAX
 10
277.0
 20
202.5
  9
$UNITMODE
 70
     0
  9
$VISRETAIN
 70
     1
  9
$PLINEGEN
 70
     0
  9
$PSLTSCALE
 70
     1
  9
$TREEDEPTH
 70
  3020
  9
$CMLSTYLE
  2
Standard
  9
$CMLJUST
 70
     0
  9
$CMLSCALE
 40
20.0
  9
$PROXYGRAPHICS
 70
     1
  9
$MEASUREMENT
 70
     1
  9
$CELWEIGHT
370
    -1
  9
$ENDCAPS
280
     0
  9
$JOINSTYLE
280
     0
  9
$LWDISPLAY
290
     0
  9
$INSUNITS
 70
     4
  9
$HYPERLINKBASE
  1

  9
$STYLESHEET
  1

  9
$XEDIT
290
     1
  9
$CEPSNTYPE
380
     0
  9
$PSTYLEMODE
290
     1
  9
$FINGERPRINTGUID
  2
{F5CD7899-A87A-4CB2-ABB0-1966B6C74B7D}
  9
$VERSIONGUID
  2
{FAEB1C32-E019-11D5-929B-00C0DF256EC4}
  9
$EXTNAMES
290
     1
  9
$PSVPSCALE
 40
0.0
  9
$OLESTARTUP
290
     0
  9
$SORTENTS
280
   127
  9
$INDEXCTL
280
     0
  9
$HIDETEXT
280
     1
  9
$XCLIPFRAME
280
     2
  9
$HALOGAP
280
     0
  9
$OBSCOLOR
 70
   257
  9
$OBSLTYPE
280
     0
  9
$INTERSECTIONDISPLAY
280
     0
  9
$INTERSECTIONCOLOR
 70
   257
  9
$DIMASSOC
280
     2
  9
$PROJECTNAME
  1

  9
$CAMERADISPLAY
290
     0
  9
$LENSLENGTH
 40
50.0
  9
$CAMERAHEIGHT
 40
0.0
  9
$STEPSPERSEC
 40
2.0
  9
$STEPSIZE
 40
6.0
  9
$3DDWFPREC
 40
2.0
  9
$PSOLWIDTH
 40
5.0
  9
$PSOLHEIGHT
 40
80.0
  9
$LOFTANG1
 40
1.570796326794897
  9
$LOFTANG2
 40
1.570796326794897
  9
$LOFTMAG1
 40
0.0
  9
$LOFTMAG2
 40
0.0
  9
$LOFTPARAM
 70
     7
  9
$LOFTNORMALS
280
     1
  9
$LATITUDE
 40
37.795
  9
$LONGITUDE
 40
-122.394
  9
$NORTHDIRECTION
 40
0.0
  9
$TIMEZONE
 70
 -8000
  9
$LIGHTGLYPHDISPLAY
280
     1
  9
$TILEMODELIGHTSYNCH
280
     1
  9
$CMATERIAL
347
44
  9
$SOLIDHIST
280
     1
  9
$SHOWHIST
280
     1
  9
$DWFFRAME
280
     2
  9
$DGNFRAME
280
     2
  9
$REALWORLDSCALE
290
     1
  9
$INTERFERECOLOR
 62
   256
  9
$CSHADOW
280
     0
  9
$SHADOWPLANELOCATION
 40
0.0
  0
ENDSEC
  0
SECTION
  2
CLASSES
  0
CLASS
  1
ACDBDICTIONARYWDFLT
  2
AcDbDictionaryWithDefault
  3
ObjectDBX Classes
 90
        0
 91
        4
280
     0
281
     0
  0
CLASS
  1
VISUALSTYLE
  2
AcDbVisualStyle
  3
ObjectDBX Classes
 90
     4095
 91
        4
280
     0
281
     0
  0
CLASS
  1
MATERIAL
  2
AcDbMaterial
  3
ObjectDBX Classes
 90
     1153
 91
        4
280
     0
281
     0
  0
CLASS
  1
SCALE
  2
AcDbScale
  3
ObjectDBX Classes
 90
     1153
 91
        4
280
     0
281
     0
  0
CLASS
  1
SUN
  2
AcDbSun
  3
SCENEOE
 90
     1153
 91
        4
280
     0
281
     0
  0
CLASS
  1
DICTIONARYVAR
  2
AcDbDictionaryVar
  3
ObjectDBX Classes
 90
        0
 91
        4
280
     0
281
     0
  0
ENDSEC
  0
SECTION
  2
TABLES
  0
TABLE
  2
VPORT
  5
8
330
0
100
AcDbSymbolTable
 70
     1
  0
VPORT
  5
29
330
8
100
AcDbSymbolTableRecord
100
AcDbViewportTableRecord
  2
*Active
 70
     0
 10
0.0
 20
0.0
 11
1.0
 21
1.0
 12
344.1869158878504
 22
148.5
 13
0.0
 23
0.0
 14
10.0
 24
10.0
 15
10.0
 25
10.0
 16
0.0
 26
0.0
 36
1.0
 17
0.0
 27
0.0
 37
0.0
 40
297.0
 41
1.972972972850329
 42
50.0
 43
0.0
 44
0.0
 50
0.0
 51
0.0
 71
     0
 72
   100
 73
     1
 74
     3
 75
     0
 76
     0
 77
     0
 78
     0
281
     0
 65
     1
110
0.0
120
0.0
130
0.0
111
1.0
121
0.0
131
0.0
112
0.0
122
1.0
132
0.0
 79
     0
146
0.0
 60
     3
 61
     5
292
     1
282
     1
141
0.0
142
0.0
 63
   250
361
69
  0
ENDTAB
  0
TABLE
  2
LTYPE
  5
5
330
0
100
AcDbSymbolTable
 70
     9
  0
LTYPE
  5
14
330
5
100
AcDbSymbolTableRecord
100
AcDbLinetypeTableRecord
  2
ByBlock
 70
     0
  3

 72
    65
 73
     0
 40
0.0
  0
LTYPE
  5
15
330
5
100
AcDbSymbolTableRecord
100
AcDbLinetypeTableRecord
  2
ByLayer
 70
     0
  3

 72
    65
 73
     0
 40
0.0
  0
LTYPE
  5
16
330
5
100
AcDbSymbolTableRecord
100
AcDbLinetypeTableRecord
  2
Continuous
 70
     0
  3
Solid line
 72
    65
 73
     0
 40
0.0
  0
LTYPE
  5
6A
330
5
100
AcDbSymbolTableRecord
100
AcDbLinetypeTableRecord
  2
DOT
 70
     0
  3
____    ____    
 72
    65
 73
     4
 40
16.0
 49
4.0
 74
     0
 49
-4.0
 74
     0
 49
4.0
 74
     0
 49
-4.0
 74
     0
  0
LTYPE
  5
6B
330
5
100
AcDbSymbolTableRecord
100
AcDbLinetypeTableRecord
  2
HIDDEN
 70
     0
  3
__  __  __  __  
 72
    65
 73
     8
 40
16.0
 49
2.0
 74
     0
 49
-2.0
 74
     0
 49
2.0
 74
     0
 49
-2.0
 74
     0
 49
2.0
 74
     0
 49
-2.0
 74
     0
 49
2.0
 74
     0
 49
-2.0
 74
     0
  0
LTYPE
  5
6C
330
5
100
AcDbSymbolTableRecord
100
AcDbLinetypeTableRecord
  2
DASHED
 70
     0
  3
________        
 72
    65
 73
     2
 40
16.0
 49
8.0
 74
     0
 49
-8.0
 74
     0
  0
LTYPE
  5
6D
330
5
100
AcDbSymbolTableRecord
100
AcDbLinetypeTableRecord
  2
DASHDOT
 70
     0
  3
____________    
 72
    65
 73
     2
 40
16.0
 49
12.0
 74
     0
 49
-4.0
 74
     0
  0
LTYPE
  5
6E
330
5
100
AcDbSymbolTableRecord
100
AcDbLinetypeTableRecord
  2
BORDER
 70
     0
  3
_____________ _ 
 72
    65
 73
     4
 40
16.0
 49
13.0
 74
     0
 49
-1.0
 74
     0
 49
1.0
 74
     0
 49
-1.0
 74
     0
  0
LTYPE
  5
6F
330
5
100
AcDbSymbolTableRecord
100
AcDbLinetypeTableRecord
  2
CENTER
 70
     0
  3
_________  ___  
 72
    65
 73
     4
 40
16.0
 49
9.0
 74
     0
 49
-2.0
 74
     0
 49
3.0
 74
     0
 49
-2.0
 74
     0
  0
LTYPE
  5
70
330
5
100
AcDbSymbolTableRecord
100
AcDbLinetypeTableRecord
  2
PHANTOM
 70
     0
  3
_______   ___   
 72
    65
 73
     4
 40
16.0
 49
7.0
 74
     0
 49
-3.0
 74
     0
 49
3.0
 74
     0
 49
-3.0
 74
     0
  0
LTYPE
  5
71
330
5
100
AcDbSymbolTableRecord
100
AcDbLinetypeTableRecord
  2
DIVIDE
 70
     0
  3
_______  __ __  
 72
    65
 73
     6
 40
16.0
 49
7.0
 74
     0
 49
-2.0
 74
     0
 49
2.0
 74
     0
 49
-1.0
 74
     0
 49
2.0
 74
     0
 49
-2.0
 74
     0
  0
ENDTAB
  0
TABLE
  2
LAYER
  5
2
330
0
100
AcDbSymbolTable
 70
     2
  0
LAYER
  5
10
330
2
100
AcDbSymbolTableRecord
100
AcDbLayerTableRecord
  2
0
 70
     0
 62
     7
  6
Continuous
370
    -3
390
F
347
46
  0
LAYER
  5
72
330
2
100
AcDbSymbolTableRecord
100
AcDbLayerTableRecord
  2
1
 70
     0
 62
     7
420
 16777215
  6
Continuous
370
    -3
390
F
347
46
  0
ENDTAB
  0
TABLE
  2
STYLE
  5
3
330
0
100
AcDbSymbolTable
 70
     1
  0
STYLE
  5
11
330
3
100
AcDbSymbolTableRecord
100
AcDbTextStyleTableRecord
  2
Standard
 70
     0
 40
0.0
 41
1.0
 50
0.0
 71
     0
 42
1.0
  3
txt
  4

  0
ENDTAB
  0
TABLE
  2
VIEW
  5
6
330
0
100
AcDbSymbolTable
 70
     0
  0
ENDTAB
  0
TABLE
  2
UCS
  5
7
330
0
100
AcDbSymbolTable
 70
     0
  0
ENDTAB
  0
TABLE
  2
APPID
  5
9
330
0
100
AcDbSymbolTable
 70
     1
  0
APPID
  5
12
330
9
100
AcDbSymbolTableRecord
100
AcDbRegAppTableRecord
  2
ACAD
 70
     0
  0
ENDTAB
  0
TABLE
  2
DIMSTYLE
  5
A
330
0
100
AcDbSymbolTable
 70
     1
100
AcDbDimStyleTable
  0
DIMSTYLE
105
27
330
A
100
AcDbSymbolTableRecord
100
AcDbDimStyleTableRecord
  2
ISO-25
 70
     0
 41
2.5
 42
0.625
 43
3.75
 44
1.25
 73
     0
 74
     0
 77
     1
 78
     8
140
2.5
141
2.5
143
0.03937007874016
147
0.625
171
     3
172
     1
178
     0
271
     2
272
     2
274
     3
278
    44
283
     0
284
     8
340
11
  0
ENDTAB
  0
TABLE
  2
BLOCK_RECORD
  5
1
330
0
100
AcDbSymbolTable
 70
     7
  0
BLOCK_RECORD
  5
1F
330
1
100
AcDbSymbolTableRecord
100
AcDbBlockTableRecord
  2
*Model_Space
340
22
 70
     0
280
     1
281
     0
  0
BLOCK_RECORD
  5
33A
330
1
100
AcDbSymbolTableRecord
100
AcDbBlockTableRecord
  2
*Paper_Space
340
33B
 70
     0
280
     1
281
     0
  0
BLOCK_RECORD
  5
23
330
1
100
AcDbSymbolTableRecord
100
AcDbBlockTableRecord
  2
*Paper_Space0
340
26
 70
     0
280
     1
281
     0
  0
BLOCK_RECORD
  5
73
330
1
100
AcDbSymbolTableRecord
100
AcDbBlockTableRecord
  2
_RASTER_[X__IMAGES_LOGO_JPG]
340
0
102
{BLKREFS
331
78
102
}
 70
     0
280
     1
281
     0
  0
BLOCK_RECORD
  5
7C
330
1
100
AcDbSymbolTableRecord
100
AcDbBlockTableRecord
  2
PROTO
340
0
102
{BLKREFS
331
80
102
}
 70
     0
280
     1
281
     0
  0
BLOCK_RECORD
  5
DC
330
1
100
AcDbSymbolTableRecord
100
AcDbBlockTableRecord
  2
GEN_BLOCK
340
0
102
{BLKREFS
331
DF
102
}
 70
     0
280
     1
281
     0
  0
BLOCK_RECORD
  5
18D
330
1
100
AcDbSymbolTableRecord
100
AcDbBlockTableRecord
  2
GEN_BLOCK00000
340
0
102
{BLKREFS
331
190
102
}
 70
     0
280
     1
281
     0
  0
BLOCK_RECORD
  5
329
330
1
100
AcDbSymbolTableRecord
100
AcDbBlockTableRecord
  2
GEN_BLOCK00001
340
0
102
{BLKREFS
331
32C
102
}
 70
     0
280
     1
281
     0
  0
BLOCK_RECORD
  5
1B
330
1
100
AcDbSymbolTableRecord
100
AcDbBlockTableRecord
  2
*Paper_Space6
340
1E
 70
     0
280
     1
281
     0
  0
ENDTAB
  0
ENDSEC
  0
SECTION
  2
BLOCKS
  0
BLOCK
  5
20
330
1F
100
AcDbEntity
  8
0
100
AcDbBlockBegin
  2
*Model_Space
 70
     0
 10
0.0
 20
0.0
 30
0.0
  3
*Model_Space
  1
*Model_Space
  0
ENDBLK
  5
21
330
1F
100
AcDbEntity
  8
0
100
AcDbBlockEnd
  0
BLOCK
  5
33C
330
33A
100
AcDbEntity
 67
     1
  8
0
100
AcDbBlockBegin
  2
*Paper_Space
 70
     0
 10
0.0
 20
0.0
 30
0.0
  3
*Paper_Space
  1
*Paper_Space
  0
ENDBLK
  5
33D
330
33A
100
AcDbEntity
 67
     1
  8
0
100
AcDbBlockEnd
  0
BLOCK
  5
24
330
23
100
AcDbEntity
  8
0
100
AcDbBlockBegin
  2
*Paper_Space0
 70
     0
 10
0.0
 20
0.0
 30
0.0
  3
*Paper_Space0
  1
*Paper_Space0
  0
ENDBLK
  5
25
330
23
100
AcDbEntity
  8
0
100
AcDbBlockEnd
  0
BLOCK
  5
74
330
73
100
AcDbEntity
  8
0
100
AcDbBlockBegin
  2
_RASTER_[X__IMAGES_LOGO_JPG]
 70
     2
 10
0.0
 20
0.0
 30
0.0
  3
_RASTER_[X__IMAGES_LOGO_JPG]
  1
_RASTER_[X__IMAGES_LOGO_JPG]
  0
ATTDEF
  5
76
330
73
100
AcDbEntity
  8
1
100
AcDbText
 10
0.0
 20
0.0
 30
0.0
 40
1.0
  1

100
AcDbAttributeDefinition
  3
Enter PAT_NAME
  2
PAT_NAME
 70
     0
280
     0
  0
ATTDEF
  5
77
330
73
100
AcDbEntity
  8
1
100
AcDbText
 10
0.0
 20
0.0
 30
0.0
 40
1.0
  1

100
AcDbAttributeDefinition
  3
Enter Symbol_Description
  2
Symbol_Description
 70
     0
280
     0
  0
ENDBLK
  5
75
330
73
100
AcDbEntity
  8
0
100
AcDbBlockEnd
  0
BLOCK
  5
7D
330
7C
100
AcDbEntity
  8
0
100
AcDbBlockBegin
  2
PROTO
 70
     2
 10
0.0
 20
0.0
 30
0.0
  3
PROTO
  1
PROTO
  0
ATTDEF
  5
7F
330
7C
100
AcDbEntity
  8
0
100
AcDbText
 10
0.0
 20
0.0
 30
0.0
 40
1.0
  1

100
AcDbAttributeDefinition
  3
Enter PAT_NAME
  2
PAT_NAME
 70
     0
280
     0
  0
TEXT
  5
83
330
7C
100
AcDbEntity
  8
0
 62
    15
100
AcDbText
 10
37.52283264570863
 20
11.5
 30
0.0
 40
2.259999990463257
  1
Mountpleasant, Dundalk, Ireland
100
AcDbText
  0
TEXT
  5
84
330
7C
100
AcDbEntity
  8
0
 62
    15
100
AcDbText
 10
39.64518013372943
 20
7.657999515533447
 30
0.0
 40
2.259999990463257
  1
Telephone (353/42) 9371244
100
AcDbText
  0
TEXT
  5
85
330
7C
100
AcDbEntity
  8
0
 62
    15
100
AcDbText
 10
44.78349510472715
 20
3.815999031066895
 30
0.0
 40
2.259999990463257
  1
Fax (353/42) 9371221
100
AcDbText
  0
TEXT
  5
86
330
7C
100
AcDbEntity
  8
0
 62
    15
100
AcDbText
 10
86.31014251708984
 20
5.490000009536743
 30
0.0
 40
2.509999990463257
  1
DESCRIPTION
100
AcDbText
  0
TEXT
  5
87
330
7C
100
AcDbEntity
  8
0
 62
    15
100
AcDbText
 10
86.31014251708984
 20
14.49000000953674
 30
0.0
 40
2.509999990463257
  1
CODE
100
AcDbText
  0
TEXT
  5
88
330
7C
100
AcDbEntity
  8
0
 62
    15
100
AcDbText
 10
178.299991607666
 20
5.490000009536743
 30
0.0
 40
2.509999990463257
  1
DRAWN
100
AcDbText
  0
TEXT
  5
89
330
7C
100
AcDbEntity
  8
0
 62
    15
100
AcDbText
 10
210.2999954223633
 20
14.49000000953674
 30
0.0
 40
2.509999990463257
  1
SCALE
100
AcDbText
  0
TEXT
  5
8A
330
7C
100
AcDbEntity
  8
0
 62
    15
100
AcDbText
 10
112.4369713596958
 20
191.9650012254715
 30
0.0
 40
1.509999990463257
  1
DATE
100
AcDbText
  0
TEXT
  5
8B
330
7C
100
AcDbEntity
  8
0
 62
    15
100
AcDbText
 10
122.048675766414
 20
191.9650012254715
 30
0.0
 40
1.509999990463257
  1
ISSUE
100
AcDbText
  0
TEXT
  5
8C
330
7C
100
AcDbEntity
  8
0
 62
    15
100
AcDbText
 10
196.0493249518564
 20
191.9650012254715
 30
0.0
 40
1.509999990463257
  1
CHANGE
100
AcDbText
  0
TEXT
  5
8D
330
7C
100
AcDbEntity
  8
0
 62
    15
100
AcDbText
 10
273.0606305700418
 20
191.9650012254715
 30
0.0
 40
1.509999990463257
  1
SIGNED
100
AcDbText
  0
TEXT
  5
8E
330
7C
100
AcDbEntity
  8
0
 62
    15
100
AcDbText
 10
1.999984741210938
 20
189.7100012302399
 30
0.0
 40
1.509999990463257
  1
THIS DRAWING IS THE PROPERTY OF EXITEX LTD AND MUST
100
AcDbText
  0
TEXT
  5
8F
330
7C
100
AcDbEntity
  8
0
 62
    15
100
AcDbText
 10
1.999984741210938
 20
187.1430008411407
 30
0.0
 40
1.509999990463257
  1
NOT BE REPRODUCED IN WHOLE OR IN PART WITHOUT CONSENT
100
AcDbText
  0
TEXT
  5
90
330
7C
100
AcDbEntity
  8
0
 62
    15
100
AcDbText
 10
1.999984741210938
 20
184.5760004520416
 30
0.0
 40
1.509999990463257
  1
C  COPYRIGHT EXITEX.
100
AcDbText
  0
TEXT
  5
91
330
7C
100
AcDbEntity
  8
0
 62
    15
100
AcDbText
 10
86.31014251708984
 20
10.49000000953674
 30
0.0
 40
2.509999990463257
  1
75mm floor ramp v.1
100
AcDbText
  0
TEXT
  5
92
330
7C
100
AcDbEntity
  8
0
 62
    15
100
AcDbText
 10
86.31014251708984
 20
1.490000009536743
 30
0.0
 40
2.509999990463257
  1
Stand-alone 75mm long ramp
100
AcDbText
  0
TEXT
  5
93
330
7C
100
AcDbEntity
  8
0
 62
    15
100
AcDbText
 10
210.2999954223633
 20
10.49000000953674
 30
0.0
 40
2.509999990463257
  1
1:1 2:1 4:1
100
AcDbText
  0
TEXT
  5
94
330
7C
100
AcDbEntity
  8
0
 62
    15
100
AcDbText
 10
178.299991607666
 20
1.490000009536743
 30
0.0
 40
2.509999990463257
  1
SBG
100
AcDbText
  0
TEXT
  5
95
330
7C
100
AcDbEntity
  8
0
 62
    15
100
AcDbText
 10
242.2999954223633
 20
1.490000009536743
 30
0.0
 40
2.509999990463257
  1
07/08/19
100
AcDbText
  0
TEXT
  5
96
330
7C
100
AcDbEntity
  8
0
 62
    15
100
AcDbText
 10
96.40379333496094
 20
189.2220687866211
 30
0.0
 40
1.509999990463257
  1
First angle
100
AcDbText
  0
TEXT
  5
97
330
7C
100
AcDbEntity
  8
0
 62
    15
100
AcDbText
 10
96.40379333496094
 20
186.655068397522
 30
0.0
 40
1.509999990463257
  1
projection
100
AcDbText
  0
TEXT
  5
98
330
7C
100
AcDbEntity
  8
0
 62
    15
100
AcDbText
 10
178.299991607666
 20
10.49000000953674
 30
0.0
 40
2.509999990463257
  1
XX
100
AcDbText
  0
TEXT
  5
99
330
7C
100
AcDbEntity
  8
0
 62
    15
100
AcDbText
 10
210.2999954223633
 20
1.490000009536743
 30
0.0
 40
2.509999990463257
  1
XX
100
AcDbText
  0
TEXT
  5
9A
330
7C
100
AcDbEntity
  8
0
 62
    15
100
AcDbText
 10
110.6497313697836
 20
188.9650012254715
 30
0.0
 40
1.509999990463257
  1
07/08/19
100
AcDbText
  0
TEXT
  5
9B
330
7C
100
AcDbEntity
  8
0
 62
    15
100
AcDbText
 10
110.6497313697836
 20
186.9650012254715
 30
0.0
 40
1.509999990463257
  1
XX/XX/XX
100
AcDbText
  0
TEXT
  5
9C
330
7C
100
AcDbEntity
  8
0
 62
    15
100
AcDbText
 10
110.6497313697836
 20
184.9650012254715
 30
0.0
 40
1.509999990463257
  1
XX/XX/XX
100
AcDbText
  0
TEXT
  5
9D
330
7C
100
AcDbEntity
  8
0
 62
    15
100
AcDbText
 10
110.6497313697836
 20
182.9650012254715
 30
0.0
 40
1.509999990463257
  1
XX/XX/XX
100
AcDbText
  0
TEXT
  5
9E
330
7C
100
AcDbEntity
  8
0
 62
    15
100
AcDbText
 10
123.8359157563262
 20
188.9650012254715
 30
0.0
 40
1.509999990463257
  1
1
100
AcDbText
  0
TEXT
  5
9F
330
7C
100
AcDbEntity
  8
0
 62
    15
100
AcDbText
 10
123.8359157563262
 20
186.9650012254715
 30
0.0
 40
1.509999990463257
  1
2
100
AcDbText
  0
TEXT
  5
A0
330
7C
100
AcDbEntity
  8
0
 62
    15
100
AcDbText
 10
123.8359157563262
 20
184.9650012254715
 30
0.0
 40
1.509999990463257
  1
3
100
AcDbText
  0
TEXT
  5
A1
330
7C
100
AcDbEntity
  8
0
 62
    15
100
AcDbText
 10
123.8359157563262
 20
182.9650012254715
 30
0.0
 40
1.509999990463257
  1
4
100
AcDbText
  0
TEXT
  5
A2
330
7C
100
AcDbEntity
  8
0
 62
    15
100
AcDbText
 10
192.6982499707709
 20
188.9650012254715
 30
0.0
 40
1.509999990463257
  1
Original drawing
100
AcDbText
  0
TEXT
  5
A3
330
7C
100
AcDbEntity
  8
0
 62
    15
100
AcDbText
 10
198.7301849367248
 20
186.9650012254715
 30
0.0
 40
1.509999990463257
  1
XX
100
AcDbText
  0
TEXT
  5
A4
330
7C
100
AcDbEntity
  8
0
 62
    15
100
AcDbText
 10
198.7301849367248
 20
184.9650012254715
 30
0.0
 40
1.509999990463257
  1
XX
100
AcDbText
  0
TEXT
  5
A5
330
7C
100
AcDbEntity
  8
0
 62
    15
100
AcDbText
 10
198.7301849367248
 20
182.9650012254715
 30
0.0
 40
1.509999990463257
  1
XX
100
AcDbText
  0
TEXT
  5
A6
330
7C
100
AcDbEntity
  8
0
 62
    15
100
AcDbText
 10
274.6244655612151
 20
188.9650012254715
 30
0.0
 40
1.509999990463257
  1
SBG
100
AcDbText
  0
TEXT
  5
A7
330
7C
100
AcDbEntity
  8
0
 62
    15
100
AcDbText
 10
275.1829780580626
 20
186.9650012254715
 30
0.0
 40
1.509999990463257
  1
XX
100
AcDbText
  0
TEXT
  5
A8
330
7C
100
AcDbEntity
  8
0
 62
    15
100
AcDbText
 10
242.2999954223633
 20
14.49000000953674
 30
0.0
 40
2.509999990463257
  1
ORIGINAL DRAW DATE
100
AcDbText
  0
TEXT
  5
A9
330
7C
100
AcDbEntity
  8
0
 62
    15
100
AcDbText
 10
242.2999954223633
 20
5.490000009536743
 30
0.0
 40
2.509999990463257
  1
DATE OF LAST REV.
100
AcDbText
  0
TEXT
  5
AA
330
7C
100
AcDbEntity
  8
0
 62
    15
100
AcDbText
 10
210.2999954223633
 20
5.490000009536743
 30
0.0
 40
2.509999990463257
  1
TOLERANCE
100
AcDbText
  0
TEXT
  5
AB
330
7C
100
AcDbEntity
  8
0
 62
    15
100
AcDbText
 10
178.299991607666
 20
14.49000000953674
 30
0.0
 40
2.509999990463257
  1
APPROVED
100
AcDbText
  0
TEXT
  5
AC
330
7C
100
AcDbEntity
  8
0
 62
    15
100
AcDbText
 10
210.2999954223633
 20
23.49000000953674
 30
0.0
 40
2.509999990463257
  1
DRAWING No
100
AcDbText
  0
TEXT
  5
AD
330
7C
100
AcDbEntity
  8
0
 62
    15
100
AcDbText
 10
210.2999954223633
 20
19.74000000953674
 30
0.0
 40
2.259999990463257
  1
[Cust. no.] - [proj. no.] - [prod. type] - [dwg no.]
100
AcDbText
  0
TEXT
  5
AE
330
7C
100
AcDbEntity
  8
0
 62
    15
100
AcDbText
 10
242.2999954223633
 20
10.49000000953674
 30
0.0
 40
2.509999990463257
  1
07/08/19
100
AcDbText
  0
TEXT
  5
AF
330
7C
100
AcDbEntity
  8
0
 62
    15
100
AcDbText
 10
275.1829780580626
 20
184.9650012254715
 30
0.0
 40
1.509999990463257
  1
XX
100
AcDbText
  0
TEXT
  5
B0
330
7C
100
AcDbEntity
  8
0
 62
    15
100
AcDbText
 10
275.1829780580626
 20
182.9650012254715
 30
0.0
 40
1.509999990463257
  1
XX
100
AcDbText
  0
LINE
  5
B1
330
7C
100
AcDbEntity
  8
0
  6
Continuous
 62
     9
100
AcDbLine
 10
-0.0000061035156307
 20
0.0000006103515915
 30
0.0
 11
281.2999938964844
 21
0.0000006103515631
 31
0.0
  0
LINE
  5
B2
330
7C
100
AcDbEntity
  8
0
  6
Continuous
 62
     9
100
AcDbLine
 10
-0.0000061035156307
 20
18.00000061035161
 30
0.0
 11
281.2999938964844
 21
18.00000061035158
 31
0.0
  0
LINE
  5
B3
330
7C
100
AcDbEntity
  8
0
  6
Continuous
 62
     9
100
AcDbLine
 10
-0.0000061035156307
 20
194.2200006103516
 30
0.0
 11
281.2999938964844
 21
194.2200006103515
 31
0.0
  0
LINE
  5
B4
330
7C
100
AcDbEntity
  8
0
  6
Continuous
 62
     9
100
AcDbLine
 10
281.2999938964844
 20
0.0000006103515631
 30
0.0
 11
281.2999938964844
 21
194.2200006103515
 31
0.0
  0
LINE
  5
B5
330
7C
100
AcDbEntity
  8
0
  6
Continuous
 62
     9
100
AcDbLine
 10
-0.0000061035156307
 20
0.0000006103515631
 30
0.0
 11
-0.0000061035156307
 21
194.2200006103515
 31
0.0
  0
CIRCLE
  5
B6
330
7C
100
AcDbEntity
  8
0
  6
Continuous
 62
     1
100
AcDbCircle
 10
2.799993896484381
 20
185.2635328862652
 30
0.0
 40
1.0
  0
ARC
  5
B7
330
7C
100
AcDbEntity
  8
0
  6
Continuous
 62
     1
100
AcDbCircle
 10
2.799993896484381
 20
185.2635328862652
 30
0.0
 40
1.0
100
AcDbArc
 50
0.0
 51
0.0
  0
LINE
  5
B8
330
7C
100
AcDbEntity
  8
0
  6
Continuous
 62
     9
100
AcDbLine
 10
85.31014389648439
 20
18.00000061035161
 30
0.0
 11
85.31014389648439
 21
9.000000610351549
 31
0.0
  0
LINE
  5
B9
330
7C
100
AcDbEntity
  8
0
  6
Continuous
 62
     9
100
AcDbLine
 10
85.31014389648439
 20
9.000000610351549
 30
0.0
 11
85.31014389648439
 21
0.0000006103515489
 31
0.0
  0
LINE
  5
BA
330
7C
100
AcDbEntity
  8
0
  6
Continuous
 62
     9
100
AcDbLine
 10
85.31014389648439
 20
9.000000610351549
 30
0.0
 11
177.2999938964844
 21
9.000000610351549
 31
0.0
  0
LINE
  5
BB
330
7C
100
AcDbEntity
  8
0
  6
Continuous
 62
     9
100
AcDbLine
 10
177.2999938964844
 20
9.000000610351549
 30
0.0
 11
209.2999938964844
 21
9.000000610351549
 31
0.0
  0
LINE
  5
BC
330
7C
100
AcDbEntity
  8
0
  6
Continuous
 62
     9
100
AcDbLine
 10
209.2999938964844
 20
9.000000610351549
 30
0.0
 11
241.2999938964844
 21
9.000000610351549
 31
0.0
  0
LINE
  5
BD
330
7C
100
AcDbEntity
  8
0
  6
Continuous
 62
     9
100
AcDbLine
 10
241.2999938964844
 20
9.000000610351549
 30
0.0
 11
281.2999938964844
 21
9.000000610351549
 31
0.0
  0
LINE
  5
BE
330
7C
100
AcDbEntity
  8
0
  6
Continuous
 62
     9
100
AcDbLine
 10
177.2999938964844
 20
18.00000061035161
 30
0.0
 11
177.2999938964844
 21
9.000000610351549
 31
0.0
  0
LINE
  5
BF
330
7C
100
AcDbEntity
  8
0
  6
Continuous
 62
     9
100
AcDbLine
 10
177.2999938964844
 20
9.000000610351549
 30
0.0
 11
177.2999938964844
 21
0.0000006103515489
 31
0.0
  0
LINE
  5
C0
330
7C
100
AcDbEntity
  8
0
  6
Continuous
 62
     9
100
AcDbLine
 10
209.2999938964844
 20
18.00000061035158
 30
0.0
 11
209.2999938964844
 21
9.000000610351549
 31
0.0
  0
LINE
  5
C1
330
7C
100
AcDbEntity
  8
0
  6
Continuous
 62
     9
100
AcDbLine
 10
209.2999938964844
 20
9.000000610351549
 30
0.0
 11
209.2999938964844
 21
0.0000006103515915
 31
0.0
  0
LINE
  5
C2
330
7C
100
AcDbEntity
  8
0
  6
Continuous
 62
     9
100
AcDbLine
 10
241.2999938964844
 20
18.00000061035158
 30
0.0
 11
241.2999938964844
 21
0.0000006103515489
 31
0.0
  0
LINE
  5
C3
330
7C
100
AcDbEntity
  8
0
  6
Continuous
 62
     9
100
AcDbLine
 10
209.2999938964844
 20
18.00000061035158
 30
0.0
 11
209.2999938964844
 21
27.00000061035161
 31
0.0
  0
LINE
  5
C4
330
7C
100
AcDbEntity
  8
0
  6
Continuous
 62
     9
100
AcDbLine
 10
209.2999938964844
 20
27.00000061035161
 30
0.0
 11
281.2999938964844
 21
27.00000061035161
 31
0.0
  0
LINE
  5
C5
330
7C
100
AcDbEntity
  8
0
  6
Continuous
 62
     1
100
AcDbLine
 10
75.64442652442855
 20
189.9603816671182
 30
0.0
 11
75.64442652442855
 21
186.479619553585
 31
0.0
  0
LINE
  5
C6
330
7C
100
AcDbEntity
  8
0
  6
Continuous
 62
     1
100
AcDbLine
 10
83.14442652442855
 20
191.9700006103516
 30
0.0
 11
83.14442652442855
 21
184.4700006103516
 31
0.0
  0
LINE
  5
C7
330
7C
100
AcDbEntity
  8
0
  6
Continuous
 62
     1
100
AcDbLine
 10
83.14442652442855
 20
184.4700006103516
 30
0.0
 11
75.64442652442855
 21
186.479619553585
 31
0.0
  0
LINE
  5
C8
330
7C
100
AcDbEntity
  8
0
  6
Continuous
 62
     1
100
AcDbLine
 10
83.14442652442855
 20
191.9700006103516
 30
0.0
 11
75.64442652442855
 21
189.9603816671182
 31
0.0
  0
ARC
  5
C9
330
7C
100
AcDbEntity
  8
0
  6
Continuous
 62
     1
100
AcDbCircle
 10
89.39442652442855
 20
188.2200006103516
 30
0.0
 40
3.75
100
AcDbArc
 50
180.0
 51
0.0
  0
ARC
  5
CA
330
7C
100
AcDbEntity
  8
0
  6
Continuous
 62
     1
100
AcDbCircle
 10
89.39442652442855
 20
188.2200006103516
 30
0.0
 40
3.75
100
AcDbArc
 50
180.0
 51
0.0
  0
ARC
  5
CB
330
7C
100
AcDbEntity
  8
0
  6
Continuous
 62
     1
100
AcDbCircle
 10
89.39442652442855
 20
188.2200006103516
 30
0.0
 40
3.75
100
AcDbArc
 50
0.0
 51
180.0
  0
ARC
  5
CC
330
7C
100
AcDbEntity
  8
0
  6
Continuous
 62
     1
100
AcDbCircle
 10
89.39442652442855
 20
188.2200006103516
 30
0.0
 40
3.75
100
AcDbArc
 50
0.0
 51
180.0
  0
ARC
  5
CD
330
7C
100
AcDbEntity
  8
0
  6
Continuous
 62
     1
100
AcDbCircle
 10
89.39442652442855
 20
188.2200006103516
 30
0.0
 40
1.740381057
100
AcDbArc
 50
180.0
 51
0.0
  0
ARC
  5
CE
330
7C
100
AcDbEntity
  8
0
  6
Continuous
 62
     1
100
AcDbCircle
 10
89.39442652442855
 20
188.2200006103516
 30
0.0
 40
1.740381057
100
AcDbArc
 50
180.0
 51
0.0
  0
ARC
  5
CF
330
7C
100
AcDbEntity
  8
0
  6
Continuous
 62
     1
100
AcDbCircle
 10
89.39442652442855
 20
188.2200006103516
 30
0.0
 40
1.740381057
100
AcDbArc
 50
0.0
 51
180.0
  0
ARC
  5
D0
330
7C
100
AcDbEntity
  8
0
  6
Continuous
 62
     1
100
AcDbCircle
 10
89.39442652442855
 20
188.2200006103516
 30
0.0
 40
1.740381057
100
AcDbArc
 50
0.0
 51
180.0
  0
LINE
  5
D1
330
7C
100
AcDbEntity
  8
0
  6
Continuous
 62
     1
100
AcDbLine
 10
89.39442652442855
 20
188.7200006103516
 30
0.0
 11
89.39442652442855
 21
187.7200006103516
 31
0.0
  0
LINE
  5
D2
330
7C
100
AcDbEntity
  8
0
  6
Continuous
 62
     1
100
AcDbLine
 10
88.89442652442855
 20
188.2200006103516
 30
0.0
 11
89.89442652442855
 21
188.2200006103516
 31
0.0
  0
LINE
  5
D3
330
7C
100
AcDbEntity
  8
0
  6
DOT
 62
     1
100
AcDbLine
 10
88.39442652442855
 20
188.2200006103516
 30
0.0
 11
72.1374692456863
 21
188.2200006103516
 31
0.0
  0
LINE
  5
D4
330
7C
100
AcDbEntity
  8
0
  6
DOT
 62
     1
100
AcDbLine
 10
90.39442652442855
 20
188.2200006103516
 30
0.0
 11
96.40379684897243
 21
188.2200006103516
 31
0.0
  0
LINE
  5
D5
330
7C
100
AcDbEntity
  8
0
  6
DOT
 62
     1
100
AcDbLine
 10
89.39442652442855
 20
187.2200006103516
 30
0.0
 11
89.39442652442855
 21
183.2200006103516
 31
0.0
  0
LINE
  5
D6
330
7C
100
AcDbEntity
  8
0
  6
DOT
 62
     1
100
AcDbLine
 10
89.39442652442855
 20
189.2200006103516
 30
0.0
 11
89.39442652442855
 21
193.2200006103516
 31
0.0
  0
LINE
  5
D7
330
7C
100
AcDbEntity
  8
0
  6
Continuous
 62
     2
100
AcDbLine
 10
109.3944265244286
 20
194.2200006103515
 30
0.0
 11
109.3944265244286
 21
182.2200006103516
 31
0.0
  0
LINE
  5
D8
330
7C
100
AcDbEntity
  8
0
  6
Continuous
 62
     2
100
AcDbLine
 10
281.2999938964844
 20
191.2200006103515
 30
0.0
 11
109.3944265244286
 21
191.2200006103515
 31
0.0
  0
LINE
  5
D9
330
7C
100
AcDbEntity
  8
0
  6
Continuous
 62
     2
100
AcDbLine
 10
120.3944265244285
 20
194.2200006103515
 30
0.0
 11
120.3944265244285
 21
182.2200006103516
 31
0.0
  0
LINE
  5
DA
330
7C
100
AcDbEntity
  8
0
  6
Continuous
 62
     2
100
AcDbLine
 10
128.3944265244285
 20
194.2200006103515
 30
0.0
 11
128.3944265244285
 21
182.2200006103516
 31
0.0
  0
LINE
  5
DB
330
7C
100
AcDbEntity
  8
0
  6
Continuous
 62
     2
100
AcDbLine
 10
271.2999938964844
 20
194.2200006103515
 30
0.0
 11
271.2999938964844
 21
182.2200006103516
 31
0.0
  0
ENDBLK
  5
7E
330
7C
100
AcDbEntity
  8
0
100
AcDbBlockEnd
  0
BLOCK
  5
DD
330
DC
100
AcDbEntity
  8
0
100
AcDbBlockBegin
  2
GEN_BLOCK
 70
     0
 10
0.0
 20
0.0
 30
0.0
  3
GEN_BLOCK
  1
GEN_BLOCK
  0
LINE
  5
E0
330
DC
100
AcDbEntity
  8
1
  6
Continuous
 62
     1
100
AcDbLine
 10
74.99999826561915
 20
12.29423541246585
 30
0.0
 11
74.99999826561915
 21
0.4999983658835987
 31
0.0
  0
LINE
  5
E1
330
DC
100
AcDbEntity
  8
1
  6
Continuous
 62
     1
100
AcDbLine
 10
37.04999826561917
 20
-0.0000016341164013
 30
0.0
 11
37.94999826561916
 21
-0.0000016341164013
 31
0.0
  0
LINE
  5
E2
330
DC
100
AcDbEntity
  8
1
  6
Continuous
 62
     1
100
AcDbLine
 10
73.59999826561915
 20
-0.0000016341164013
 30
0.0
 11
74.49999826561915
 21
-0.0000016341164013
 31
0.0
  0
ARC
  5
E3
330
DC
100
AcDbEntity
  8
1
  6
Continuous
 62
     1
100
AcDbCircle
 10
74.49999826561915
 20
0.4999983658835987
 30
0.0
 40
0.5
100
AcDbArc
 50
270.0
 51
0.0
  0
ARC
  5
E4
330
DC
100
AcDbEntity
  8
1
  6
Continuous
 62
     1
100
AcDbCircle
 10
74.49999826561915
 20
0.4999983658835987
 30
0.0
 40
0.5
100
AcDbArc
 50
270.0
 51
0.0
  0
ARC
  5
E5
330
DC
100
AcDbEntity
  8
1
  6
Continuous
 62
     1
100
AcDbCircle
 10
71.99999826561915
 20
12.29423541246585
 30
0.0
 40
3.0
100
AcDbArc
 50
0.0
 51
73.78423394794189
  0
ARC
  5
E6
330
DC
100
AcDbEntity
  8
1
  6
Continuous
 62
     1
100
AcDbCircle
 10
71.99999826561915
 20
12.29423541246585
 30
0.0
 40
3.0
100
AcDbArc
 50
0.0
 51
73.78423394794189
  0
LINE
  5
E7
330
DC
100
AcDbEntity
  8
1
  6
Continuous
 62
     1
100
AcDbLine
 10
36.54999826561917
 20
19.15415742328159
 30
0.0
 11
36.54999826561917
 21
0.4999983658835987
 31
0.0
  0
LINE
  5
E8
330
DC
100
AcDbEntity
  8
1
  6
Continuous
 62
     1
100
AcDbLine
 10
38.44999826561916
 20
18.43105594318666
 30
0.0
 11
38.44999826561916
 21
0.4999983658835987
 31
0.0
  0
ARC
  5
E9
330
DC
100
AcDbEntity
  8
1
  6
Continuous
 62
     1
100
AcDbCircle
 10
37.04999826561917
 20
0.4999983658835987
 30
0.0
 40
0.5
100
AcDbArc
 50
180.0
 51
270.0
  0
ARC
  5
EA
330
DC
100
AcDbEntity
  8
1
  6
Continuous
 62
     1
100
AcDbCircle
 10
37.04999826561917
 20
0.4999983658835987
 30
0.0
 40
0.5
100
AcDbArc
 50
180.0
 51
270.0
  0
ARC
  5
EB
330
DC
100
AcDbEntity
  8
1
  6
Continuous
 62
     1
100
AcDbCircle
 10
37.94999826561916
 20
0.4999983658835987
 30
0.0
 40
0.5
100
AcDbArc
 50
270.0
 51
0.0
  0
ARC
  5
EC
330
DC
100
AcDbEntity
  8
1
  6
Continuous
 62
     1
100
AcDbCircle
 10
37.94999826561916
 20
0.4999983658835987
 30
0.0
 40
0.5
100
AcDbArc
 50
270.0
 51
0.0
  0
LINE
  5
ED
330
DC
100
AcDbEntity
  8
1
  6
Continuous
 62
     1
100
AcDbLine
 10
73.09999826561915
 20
12.37739868034058
 30
0.0
 11
73.09999826561915
 21
0.4999983658835987
 31
0.0
  0
ARC
  5
EE
330
DC
100
AcDbEntity
  8
1
  6
Continuous
 62
     1
100
AcDbCircle
 10
73.59999826561915
 20
0.4999983658835987
 30
0.0
 40
0.5
100
AcDbArc
 50
180.0
 51
270.0
  0
ARC
  5
EF
330
DC
100
AcDbEntity
  8
1
  6
Continuous
 62
     1
100
AcDbCircle
 10
73.59999826561915
 20
0.4999983658835987
 30
0.0
 40
0.5
100
AcDbArc
 50
180.0
 51
270.0
  0
LINE
  5
F0
330
DC
100
AcDbEntity
  8
1
  6
Continuous
 62
     1
100
AcDbLine
 10
-0.0000017343808452
 20
0.4999983658835916
 30
0.0
 11
-0.0000017343808452
 21
26.29002324165938
 31
0.0
  0
LINE
  5
F1
330
DC
100
AcDbEntity
  8
1
  6
Continuous
 62
     1
100
AcDbLine
 10
0.4999982656191548
 20
-0.0000016341164084
 30
0.0
 11
5.049998265619166
 21
-0.0000016341163871
 31
0.0
  0
ARC
  5
F2
330
DC
100
AcDbEntity
  8
1
  6
Continuous
 62
     1
100
AcDbCircle
 10
0.4999982656191548
 20
0.4999983658835916
 30
0.0
 40
0.5
100
AcDbArc
 50
180.0
 51
270.0
  0
ARC
  5
F3
330
DC
100
AcDbEntity
  8
1
  6
Continuous
 62
     1
100
AcDbCircle
 10
0.4999982656191548
 20
0.4999983658835916
 30
0.0
 40
0.5
100
AcDbArc
 50
180.0
 51
270.0
  0
ARC
  5
F4
330
DC
100
AcDbEntity
  8
1
  6
Continuous
 62
     1
100
AcDbCircle
 10
1.999998265619155
 20
26.29002324165938
 30
0.0
 40
2.0
100
AcDbArc
 50
79.49603441123347
 51
180.0
  0
ARC
  5
F5
330
DC
100
AcDbEntity
  8
1
  6
Continuous
 62
     1
100
AcDbCircle
 10
1.999998265619155
 20
26.29002324165938
 30
0.0
 40
2.0
100
AcDbArc
 50
79.49603441123347
 51
180.0
  0
LINE
  5
F6
330
DC
100
AcDbEntity
  8
1
  6
Continuous
 62
     1
100
AcDbLine
 10
1.899998265619161
 20
2.39999836588359
 30
0.0
 11
1.899998265619161
 21
25.20781468612768
 31
0.0
  0
LINE
  5
F7
330
DC
100
AcDbEntity
  8
1
  6
Continuous
 62
     1
100
AcDbLine
 10
2.399998265619161
 20
1.89999836588359
 30
0.0
 11
5.049998265619166
 21
1.89999836588359
 31
0.0
  0
ARC
  5
F8
330
DC
100
AcDbEntity
  8
1
  6
Continuous
 62
     1
100
AcDbCircle
 10
2.399998265619161
 20
2.39999836588359
 30
0.0
 40
0.5
100
AcDbArc
 50
180.0
 51
270.0
  0
ARC
  5
F9
330
DC
100
AcDbEntity
  8
1
  6
Continuous
 62
     1
100
AcDbCircle
 10
2.399998265619161
 20
2.39999836588359
 30
0.0
 40
0.5
100
AcDbArc
 50
180.0
 51
270.0
  0
ARC
  5
FA
330
DC
100
AcDbEntity
  8
1
  6
Continuous
 62
     1
100
AcDbCircle
 10
5.049998265619166
 20
0.9499983658836015
 30
0.0
 40
0.9499999999999886
100
AcDbArc
 50
270.0
 51
90.0
  0
ARC
  5
FB
330
DC
100
AcDbEntity
  8
1
  6
Continuous
 62
     1
100
AcDbCircle
 10
5.049998265619166
 20
0.9499983658836015
 30
0.0
 40
0.9499999999999886
100
AcDbArc
 50
270.0
 51
90.0
  0
LINE
  5
FC
330
DC
100
AcDbEntity
  8
1
  6
Continuous
 62
     1
100
AcDbLine
 10
2.364605422949751
 20
28.2565078260951
 30
0.0
 11
2.835239424505772
 21
28.16924727658018
 31
0.0
  0
LINE
  5
FD
330
DC
100
AcDbEntity
  8
1
  6
Continuous
 62
     1
100
AcDbLine
 10
4.022117862991323
 20
27.94918739053873
 30
0.0
 11
7.75145088559502
 21
27.25772938325368
 31
0.0
  0
LINE
  5
FE
330
DC
100
AcDbEntity
  8
1
  6
Continuous
 62
     1
100
AcDbLine
 10
8.938329324080584
 20
27.03766949721222
 30
0.0
 11
12.66766234668431
 21
26.3462114899272
 31
0.0
  0
LINE
  5
FF
330
DC
100
AcDbEntity
  8
1
  6
Continuous
 62
     1
100
AcDbLine
 10
13.85454078516987
 20
26.12615160388575
 30
0.0
 11
17.5838738077736
 21
25.4346935966007
 31
0.0
  0
LINE
  5
100
330
DC
100
AcDbEntity
  8
1
  6
Continuous
 62
     1
100
AcDbLine
 10
18.77075224625915
 20
25.21463371055924
 30
0.0
 11
22.50008526886288
 21
24.52317570327421
 31
0.0
  0
LINE
  5
101
330
DC
100
AcDbEntity
  8
1
  6
Continuous
 62
     1
100
AcDbLine
 10
23.68696370734844
 20
24.30311581723275
 30
0.0
 11
27.41629672995217
 21
23.6116578099477
 31
0.0
  0
LINE
  5
102
330
DC
100
AcDbEntity
  8
1
  6
Continuous
 62
     1
100
AcDbLine
 10
28.60317516843772
 20
23.39159792390625
 30
0.0
 11
32.33250819104144
 21
22.70013991662118
 31
0.0
  0
LINE
  5
103
330
DC
100
AcDbEntity
  8
1
  6
Continuous
 62
     1
100
AcDbLine
 10
33.51938662952701
 20
22.48008003057973
 30
0.0
 11
37.24871965213072
 21
21.78862202329469
 31
0.0
  0
LINE
  5
104
330
DC
100
AcDbEntity
  8
1
  6
Continuous
 62
     1
100
AcDbLine
 10
38.43559809061628
 20
21.56856213725324
 30
0.0
 11
42.16493111322001
 21
20.87710412996819
 31
0.0
  0
LINE
  5
105
330
DC
100
AcDbEntity
  8
1
  6
Continuous
 62
     1
100
AcDbLine
 10
43.35180955170556
 20
20.65704424392673
 30
0.0
 11
47.08114257430928
 21
19.9655862366417
 31
0.0
  0
LINE
  5
106
330
DC
100
AcDbEntity
  8
1
  6
Continuous
 62
     1
100
AcDbLine
 10
48.26802101279485
 20
19.74552635060024
 30
0.0
 11
51.99735403539857
 21
19.05406834331519
 31
0.0
  0
LINE
  5
107
330
DC
100
AcDbEntity
  8
1
  6
Continuous
 62
     1
100
AcDbLine
 10
53.18423247388412
 20
18.83400845727374
 30
0.0
 11
56.91356549648785
 21
18.14255044998869
 31
0.0
  0
LINE
  5
108
330
DC
100
AcDbEntity
  8
1
  6
Continuous
 62
     1
100
AcDbLine
 10
58.10044393497341
 20
17.92249056394724
 30
0.0
 11
61.82977695757714
 21
17.2310325566622
 31
0.0
  0
LINE
  5
109
330
DC
100
AcDbEntity
  8
1
  6
Continuous
 62
     1
100
AcDbLine
 10
63.0166553960627
 20
17.01097267062075
 30
0.0
 11
66.74598841866643
 21
16.3195146633357
 31
0.0
  0
LINE
  5
10A
330
DC
100
AcDbEntity
  8
1
  6
Continuous
 62
     1
100
AcDbLine
 10
67.93286685715196
 20
16.09945477729424
 30
0.0
 11
71.66219987975569
 21
15.40799677000921
 31
0.0
  0
LINE
  5
10B
330
DC
100
AcDbEntity
  8
1
  6
Continuous
 62
     1
100
AcDbLine
 10
3.082301844284459
 20
26.19105697834553
 30
0.0
 11
35.73230184428446
 21
20.13739971549945
 31
0.0
  0
LINE
  5
10C
330
DC
100
AcDbEntity
  8
1
  6
Continuous
 62
     1
100
AcDbLine
 10
39.63230184428446
 20
19.41429823540451
 30
0.0
 11
72.28230184428446
 21
13.36064097255844
 31
0.0
  0
ARC
  5
10D
330
DC
100
AcDbEntity
  8
1
  6
Continuous
 62
     1
100
AcDbCircle
 10
2.899998265619161
 20
25.20781468612768
 30
0.0
 40
1.0
100
AcDbArc
 50
79.49603441123345
 51
180.0
  0
ARC
  5
10E
330
DC
100
AcDbEntity
  8
1
  6
Continuous
 62
     1
100
AcDbCircle
 10
2.899998265619161
 20
25.20781468612768
 30
0.0
 40
1.0
100
AcDbArc
 50
79.49603441123345
 51
180.0
  0
ARC
  5
10F
330
DC
100
AcDbEntity
  8
1
  6
Continuous
 62
     1
100
AcDbCircle
 10
35.54999826561917
 20
19.15415742328159
 30
0.0
 40
1.0
100
AcDbArc
 50
0.0
 51
79.49603441123331
  0
ARC
  5
110
330
DC
100
AcDbEntity
  8
1
  6
Continuous
 62
     1
100
AcDbCircle
 10
35.54999826561917
 20
19.15415742328159
 30
0.0
 40
1.0
100
AcDbArc
 50
0.0
 51
79.49603441123331
  0
ARC
  5
111
330
DC
100
AcDbEntity
  8
1
  6
Continuous
 62
     1
100
AcDbCircle
 10
39.44999826561916
 20
18.43105594318666
 30
0.0
 40
1.0
100
AcDbArc
 50
79.49603441123334
 51
180.0
  0
ARC
  5
112
330
DC
100
AcDbEntity
  8
1
  6
Continuous
 62
     1
100
AcDbCircle
 10
39.44999826561916
 20
18.43105594318666
 30
0.0
 40
1.0
100
AcDbArc
 50
79.49603441123334
 51
180.0
  0
ARC
  5
113
330
DC
100
AcDbEntity
  8
1
  6
Continuous
 62
     1
100
AcDbCircle
 10
72.09999826561915
 20
12.37739868034058
 30
0.0
 40
1.0
100
AcDbArc
 50
0.0
 51
79.49603441123347
  0
ARC
  5
114
330
DC
100
AcDbEntity
  8
1
  6
Continuous
 62
     1
100
AcDbCircle
 10
72.09999826561915
 20
12.37739868034058
 30
0.0
 40
1.0
100
AcDbArc
 50
0.0
 51
79.49603441123347
  0
LINE
  5
115
330
DC
100
AcDbEntity
  8
1
  6
Continuous
 62
     1
100
AcDbLine
 10
3.02240261808906
 20
28.20901650236328
 30
0.0
 11
3.313789085809816
 21
28.40925118075143
 31
0.0
  0
LINE
  5
116
330
DC
100
AcDbEntity
  8
1
  6
Continuous
 62
     1
100
AcDbLine
 10
3.661417731998142
 20
28.34479713239702
 30
0.0
 11
3.861652410386284
 21
28.05341066467624
 31
0.0
  0
ARC
  5
117
330
DC
100
AcDbEntity
  8
1
  6
Continuous
 62
     1
100
AcDbCircle
 10
2.880815319172086
 20
28.41505784963465
 30
0.0
 40
0.25
100
AcDbArc
 50
259.4960344112326
 51
304.4960344112353
  0
ARC
  5
118
330
DC
100
AcDbEntity
  8
1
  6
Continuous
 62
     1
100
AcDbCircle
 10
2.880815319172086
 20
28.41505784963465
 30
0.0
 40
0.25
100
AcDbArc
 50
259.4960344112326
 51
304.4960344112353
  0
ARC
  5
119
330
DC
100
AcDbEntity
  8
1
  6
Continuous
 62
     1
100
AcDbCircle
 10
3.455376384726776
 20
28.20320983348006
 30
0.0
 40
0.25
100
AcDbArc
 50
34.49603441123307
 51
124.4960344112354
  0
ARC
  5
11A
330
DC
100
AcDbEntity
  8
1
  6
Continuous
 62
     1
100
AcDbCircle
 10
3.455376384726776
 20
28.20320983348006
 30
0.0
 40
0.25
100
AcDbArc
 50
34.49603441123307
 51
124.4960344112354
  0
ARC
  5
11B
330
DC
100
AcDbEntity
  8
1
  6
Continuous
 62
     1
100
AcDbCircle
 10
4.067693757657651
 20
28.19499796359318
 30
0.0
 40
0.25
100
AcDbArc
 50
214.4960344112327
 51
259.4960344112327
  0
ARC
  5
11C
330
DC
100
AcDbEntity
  8
1
  6
Continuous
 62
     1
100
AcDbCircle
 10
4.067693757657651
 20
28.19499796359318
 30
0.0
 40
0.25
100
AcDbArc
 50
214.4960344112327
 51
259.4960344112327
  0
LINE
  5
11D
330
DC
100
AcDbEntity
  8
1
  6
Continuous
 62
     1
100
AcDbLine
 10
27.60345992353545
 20
23.6514270357308
 30
0.0
 11
27.89484639125621
 21
23.85166171411895
 31
0.0
  0
LINE
  5
11E
330
DC
100
AcDbEntity
  8
1
  6
Continuous
 62
     1
100
AcDbLine
 10
28.24247503744454
 20
23.78720766576454
 30
0.0
 11
28.44270971583268
 21
23.49582119804376
 31
0.0
  0
ARC
  5
11F
330
DC
100
AcDbEntity
  8
1
  6
Continuous
 62
     1
100
AcDbCircle
 10
27.46187262461848
 20
23.85746838300217
 30
0.0
 40
0.25
100
AcDbArc
 50
259.4960344112326
 51
304.4960344112353
  0
ARC
  5
120
330
DC
100
AcDbEntity
  8
1
  6
Continuous
 62
     1
100
AcDbCircle
 10
27.46187262461848
 20
23.85746838300217
 30
0.0
 40
0.25
100
AcDbArc
 50
259.4960344112326
 51
304.4960344112353
  0
ARC
  5
121
330
DC
100
AcDbEntity
  8
1
  6
Continuous
 62
     1
100
AcDbCircle
 10
28.03643369017317
 20
23.64562036684758
 30
0.0
 40
0.25
100
AcDbArc
 50
34.49603441123307
 51
124.4960344112354
  0
ARC
  5
122
330
DC
100
AcDbEntity
  8
1
  6
Continuous
 62
     1
100
AcDbCircle
 10
28.03643369017317
 20
23.64562036684758
 30
0.0
 40
0.25
100
AcDbArc
 50
34.49603441123307
 51
124.4960344112354
  0
ARC
  5
123
330
DC
100
AcDbEntity
  8
1
  6
Continuous
 62
     1
100
AcDbCircle
 10
28.64875106310404
 20
23.63740849696072
 30
0.0
 40
0.25
100
AcDbArc
 50
214.4960344112327
 51
259.4960344112327
  0
ARC
  5
124
330
DC
100
AcDbEntity
  8
1
  6
Continuous
 62
     1
100
AcDbCircle
 10
28.64875106310404
 20
23.63740849696072
 30
0.0
 40
0.25
100
AcDbArc
 50
214.4960344112327
 51
259.4960344112327
  0
LINE
  5
125
330
DC
100
AcDbEntity
  8
1
  6
Continuous
 62
     1
100
AcDbLine
 10
37.43588284571402
 20
21.8283912490778
 30
0.0
 11
37.72726931343476
 21
22.02862592746594
 31
0.0
  0
LINE
  5
126
330
DC
100
AcDbEntity
  8
1
  6
Continuous
 62
     1
100
AcDbLine
 10
38.0748979596231
 20
21.96417187911153
 30
0.0
 11
38.27513263801123
 21
21.67278541139075
 31
0.0
  0
ARC
  5
127
330
DC
100
AcDbEntity
  8
1
  6
Continuous
 62
     1
100
AcDbCircle
 10
37.29429554679704
 20
22.03443259634916
 30
0.0
 40
0.25
100
AcDbArc
 50
259.4960344112326
 51
304.4960344112353
  0
ARC
  5
128
330
DC
100
AcDbEntity
  8
1
  6
Continuous
 62
     1
100
AcDbCircle
 10
37.29429554679704
 20
22.03443259634916
 30
0.0
 40
0.25
100
AcDbArc
 50
259.4960344112326
 51
304.4960344112353
  0
ARC
  5
129
330
DC
100
AcDbEntity
  8
1
  6
Continuous
 62
     1
100
AcDbCircle
 10
37.86885661235173
 20
21.82258458019457
 30
0.0
 40
0.25
100
AcDbArc
 50
34.49603441123307
 51
124.4960344112354
  0
ARC
  5
12A
330
DC
100
AcDbEntity
  8
1
  6
Continuous
 62
     1
100
AcDbCircle
 10
37.86885661235173
 20
21.82258458019457
 30
0.0
 40
0.25
100
AcDbArc
 50
34.49603441123307
 51
124.4960344112354
  0
ARC
  5
12B
330
DC
100
AcDbEntity
  8
1
  6
Continuous
 62
     1
100
AcDbCircle
 10
38.4811739852826
 20
21.81437271030771
 30
0.0
 40
0.25
100
AcDbArc
 50
214.4960344112327
 51
259.4960344112327
  0
ARC
  5
12C
330
DC
100
AcDbEntity
  8
1
  6
Continuous
 62
     1
100
AcDbCircle
 10
38.4811739852826
 20
21.81437271030771
 30
0.0
 40
0.25
100
AcDbArc
 50
214.4960344112327
 51
259.4960344112327
  0
LINE
  5
12D
330
DC
100
AcDbEntity
  8
1
  6
Continuous
 62
     1
100
AcDbLine
 10
22.68724846244618
 20
24.56294492905731
 30
0.0
 11
22.97863493016692
 21
24.76317960744545
 31
0.0
  0
LINE
  5
12E
330
DC
100
AcDbEntity
  8
1
  6
Continuous
 62
     1
100
AcDbLine
 10
23.32626357635526
 20
24.69872555909105
 30
0.0
 11
23.52649825474339
 21
24.40733909137026
 31
0.0
  0
ARC
  5
12F
330
DC
100
AcDbEntity
  8
1
  6
Continuous
 62
     1
100
AcDbCircle
 10
22.5456611635292
 20
24.76898627632868
 30
0.0
 40
0.25
100
AcDbArc
 50
259.4960344112326
 51
304.4960344112353
  0
ARC
  5
130
330
DC
100
AcDbEntity
  8
1
  6
Continuous
 62
     1
100
AcDbCircle
 10
22.5456611635292
 20
24.76898627632868
 30
0.0
 40
0.25
100
AcDbArc
 50
259.4960344112326
 51
304.4960344112353
  0
ARC
  5
131
330
DC
100
AcDbEntity
  8
1
  6
Continuous
 62
     1
100
AcDbCircle
 10
23.12022222908389
 20
24.55713826017409
 30
0.0
 40
0.25
100
AcDbArc
 50
34.49603441123307
 51
124.4960344112354
  0
ARC
  5
132
330
DC
100
AcDbEntity
  8
1
  6
Continuous
 62
     1
100
AcDbCircle
 10
23.12022222908389
 20
24.55713826017409
 30
0.0
 40
0.25
100
AcDbArc
 50
34.49603441123307
 51
124.4960344112354
  0
ARC
  5
133
330
DC
100
AcDbEntity
  8
1
  6
Continuous
 62
     1
100
AcDbCircle
 10
23.73253960201475
 20
24.54892639028722
 30
0.0
 40
0.25
100
AcDbArc
 50
214.4960344112327
 51
259.4960344112327
  0
ARC
  5
134
330
DC
100
AcDbEntity
  8
1
  6
Continuous
 62
     1
100
AcDbCircle
 10
23.73253960201475
 20
24.54892639028722
 30
0.0
 40
0.25
100
AcDbArc
 50
214.4960344112327
 51
259.4960344112327
  0
LINE
  5
135
330
DC
100
AcDbEntity
  8
1
  6
Continuous
 62
     1
100
AcDbLine
 10
42.35209430680329
 20
20.91687335575129
 30
0.0
 11
42.64348077452405
 21
21.11710803413943
 31
0.0
  0
LINE
  5
136
330
DC
100
AcDbEntity
  8
1
  6
Continuous
 62
     1
100
AcDbLine
 10
42.99110942071238
 20
21.05265398578503
 30
0.0
 11
43.19134409910052
 21
20.76126751806424
 31
0.0
  0
ARC
  5
137
330
DC
100
AcDbEntity
  8
1
  6
Continuous
 62
     1
100
AcDbCircle
 10
42.21050700788632
 20
21.12291470302266
 30
0.0
 40
0.25
100
AcDbArc
 50
259.4960344112326
 51
304.4960344112353
  0
ARC
  5
138
330
DC
100
AcDbEntity
  8
1
  6
Continuous
 62
     1
100
AcDbCircle
 10
42.21050700788632
 20
21.12291470302266
 30
0.0
 40
0.25
100
AcDbArc
 50
259.4960344112326
 51
304.4960344112353
  0
ARC
  5
139
330
DC
100
AcDbEntity
  8
1
  6
Continuous
 62
     1
100
AcDbCircle
 10
42.78506807344101
 20
20.91106668686807
 30
0.0
 40
0.25
100
AcDbArc
 50
34.49603441123307
 51
124.4960344112354
  0
ARC
  5
13A
330
DC
100
AcDbEntity
  8
1
  6
Continuous
 62
     1
100
AcDbCircle
 10
42.78506807344101
 20
20.91106668686807
 30
0.0
 40
0.25
100
AcDbArc
 50
34.49603441123307
 51
124.4960344112354
  0
ARC
  5
13B
330
DC
100
AcDbEntity
  8
1
  6
Continuous
 62
     1
100
AcDbCircle
 10
43.39738544637189
 20
20.9028548169812
 30
0.0
 40
0.25
100
AcDbArc
 50
214.4960344112327
 51
259.4960344112327
  0
ARC
  5
13C
330
DC
100
AcDbEntity
  8
1
  6
Continuous
 62
     1
100
AcDbCircle
 10
43.39738544637189
 20
20.9028548169812
 30
0.0
 40
0.25
100
AcDbArc
 50
214.4960344112327
 51
259.4960344112327
  0
LINE
  5
13D
330
DC
100
AcDbEntity
  8
1
  6
Continuous
 62
     1
100
AcDbLine
 10
62.01694015116044
 20
17.2708017824453
 30
0.0
 11
62.30832661888118
 21
17.47103646083345
 31
0.0
  0
LINE
  5
13E
330
DC
100
AcDbEntity
  8
1
  6
Continuous
 62
     1
100
AcDbLine
 10
62.65595526506952
 20
17.40658241247904
 30
0.0
 11
62.85618994345765
 21
17.11519594475826
 31
0.0
  0
ARC
  5
13F
330
DC
100
AcDbEntity
  8
1
  6
Continuous
 62
     1
100
AcDbCircle
 10
61.87535285224347
 20
17.47684312971667
 30
0.0
 40
0.25
100
AcDbArc
 50
259.4960344112326
 51
304.4960344112353
  0
ARC
  5
140
330
DC
100
AcDbEntity
  8
1
  6
Continuous
 62
     1
100
AcDbCircle
 10
61.87535285224347
 20
17.47684312971667
 30
0.0
 40
0.25
100
AcDbArc
 50
259.4960344112326
 51
304.4960344112353
  0
ARC
  5
141
330
DC
100
AcDbEntity
  8
1
  6
Continuous
 62
     1
100
AcDbCircle
 10
62.44991391779816
 20
17.26499511356208
 30
0.0
 40
0.25
100
AcDbArc
 50
34.49603441123307
 51
124.4960344112354
  0
ARC
  5
142
330
DC
100
AcDbEntity
  8
1
  6
Continuous
 62
     1
100
AcDbCircle
 10
62.44991391779816
 20
17.26499511356208
 30
0.0
 40
0.25
100
AcDbArc
 50
34.49603441123307
 51
124.4960344112354
  0
ARC
  5
143
330
DC
100
AcDbEntity
  8
1
  6
Continuous
 62
     1
100
AcDbCircle
 10
63.06223129072902
 20
17.25678324367522
 30
0.0
 40
0.25
100
AcDbArc
 50
214.4960344112327
 51
259.4960344112327
  0
ARC
  5
144
330
DC
100
AcDbEntity
  8
1
  6
Continuous
 62
     1
100
AcDbCircle
 10
63.06223129072902
 20
17.25678324367522
 30
0.0
 40
0.25
100
AcDbArc
 50
214.4960344112327
 51
259.4960344112327
  0
LINE
  5
145
330
DC
100
AcDbEntity
  8
1
  6
Continuous
 62
     1
100
AcDbLine
 10
12.85482554026761
 20
26.3859807157103
 30
0.0
 11
13.14621200798837
 21
26.58621539409845
 31
0.0
  0
LINE
  5
146
330
DC
100
AcDbEntity
  8
1
  6
Continuous
 62
     1
100
AcDbLine
 10
13.49384065417669
 20
26.52176134574404
 30
0.0
 11
13.69407533256484
 21
26.23037487802326
 31
0.0
  0
ARC
  5
147
330
DC
100
AcDbEntity
  8
1
  6
Continuous
 62
     1
100
AcDbCircle
 10
12.71323824135064
 20
26.59202206298167
 30
0.0
 40
0.25
100
AcDbArc
 50
259.4960344112326
 51
304.4960344112353
  0
ARC
  5
148
330
DC
100
AcDbEntity
  8
1
  6
Continuous
 62
     1
100
AcDbCircle
 10
12.71323824135064
 20
26.59202206298167
 30
0.0
 40
0.25
100
AcDbArc
 50
259.4960344112326
 51
304.4960344112353
  0
ARC
  5
149
330
DC
100
AcDbEntity
  8
1
  6
Continuous
 62
     1
100
AcDbCircle
 10
13.28779930690533
 20
26.38017404682708
 30
0.0
 40
0.25
100
AcDbArc
 50
34.49603441123307
 51
124.4960344112354
  0
ARC
  5
14A
330
DC
100
AcDbEntity
  8
1
  6
Continuous
 62
     1
100
AcDbCircle
 10
13.28779930690533
 20
26.38017404682708
 30
0.0
 40
0.25
100
AcDbArc
 50
34.49603441123307
 51
124.4960344112354
  0
ARC
  5
14B
330
DC
100
AcDbEntity
  8
1
  6
Continuous
 62
     1
100
AcDbCircle
 10
13.9001166798362
 20
26.37196217694022
 30
0.0
 40
0.25
100
AcDbArc
 50
214.4960344112327
 51
259.4960344112327
  0
ARC
  5
14C
330
DC
100
AcDbEntity
  8
1
  6
Continuous
 62
     1
100
AcDbCircle
 10
13.9001166798362
 20
26.37196217694022
 30
0.0
 40
0.25
100
AcDbArc
 50
214.4960344112327
 51
259.4960344112327
  0
LINE
  5
14D
330
DC
100
AcDbEntity
  8
1
  6
Continuous
 62
     1
100
AcDbLine
 10
7.938614079178308
 20
27.29749860903678
 30
0.0
 11
8.230000546899078
 21
27.49773328742492
 31
0.0
  0
LINE
  5
14E
330
DC
100
AcDbEntity
  8
1
  6
Continuous
 62
     1
100
AcDbLine
 10
8.577629193087404
 20
27.43327923907052
 30
0.0
 11
8.777863871475546
 21
27.14189277134973
 31
0.0
  0
ARC
  5
14F
330
DC
100
AcDbEntity
  8
1
  6
Continuous
 62
     1
100
AcDbCircle
 10
7.797026780261348
 20
27.50353995630815
 30
0.0
 40
0.25
100
AcDbArc
 50
259.4960344112326
 51
304.4960344112353
  0
ARC
  5
150
330
DC
100
AcDbEntity
  8
1
  6
Continuous
 62
     1
100
AcDbCircle
 10
7.797026780261348
 20
27.50353995630815
 30
0.0
 40
0.25
100
AcDbArc
 50
259.4960344112326
 51
304.4960344112353
  0
ARC
  5
151
330
DC
100
AcDbEntity
  8
1
  6
Continuous
 62
     1
100
AcDbCircle
 10
8.371587845816038
 20
27.29169194015356
 30
0.0
 40
0.25
100
AcDbArc
 50
34.49603441123307
 51
124.4960344112354
  0
ARC
  5
152
330
DC
100
AcDbEntity
  8
1
  6
Continuous
 62
     1
100
AcDbCircle
 10
8.371587845816038
 20
27.29169194015356
 30
0.0
 40
0.25
100
AcDbArc
 50
34.49603441123307
 51
124.4960344112354
  0
ARC
  5
153
330
DC
100
AcDbEntity
  8
1
  6
Continuous
 62
     1
100
AcDbCircle
 10
8.983905218746912
 20
27.28348007026669
 30
0.0
 40
0.25
100
AcDbArc
 50
214.4960344112327
 51
259.4960344112327
  0
ARC
  5
154
330
DC
100
AcDbEntity
  8
1
  6
Continuous
 62
     1
100
AcDbCircle
 10
8.983905218746912
 20
27.28348007026669
 30
0.0
 40
0.25
100
AcDbArc
 50
214.4960344112327
 51
259.4960344112327
  0
LINE
  5
155
330
DC
100
AcDbEntity
  8
1
  6
Continuous
 62
     1
100
AcDbLine
 10
71.84936307333899
 20
15.44776599579231
 30
0.0
 11
72.14074954105973
 21
15.64800067418045
 31
0.0
  0
LINE
  5
156
330
DC
100
AcDbEntity
  8
1
  6
Continuous
 62
     1
100
AcDbLine
 10
72.48837818724809
 20
15.58354662582605
 30
0.0
 11
72.70153677017771
 21
15.2733529718385
 31
0.0
  0
ARC
  5
157
330
DC
100
AcDbEntity
  8
1
  6
Continuous
 62
     1
100
AcDbCircle
 10
71.70777577442203
 20
15.65380734306368
 30
0.0
 40
0.25
100
AcDbArc
 50
259.4960344112326
 51
304.4960344112353
  0
ARC
  5
158
330
DC
100
AcDbEntity
  8
1
  6
Continuous
 62
     1
100
AcDbCircle
 10
71.70777577442203
 20
15.65380734306368
 30
0.0
 40
0.25
100
AcDbArc
 50
259.4960344112326
 51
304.4960344112353
  0
ARC
  5
159
330
DC
100
AcDbEntity
  8
1
  6
Continuous
 62
     1
100
AcDbCircle
 10
72.28233683997672
 20
15.44195932690909
 30
0.0
 40
0.25
100
AcDbArc
 50
34.49603441123307
 51
124.4960344112354
  0
ARC
  5
15A
330
DC
100
AcDbEntity
  8
1
  6
Continuous
 62
     1
100
AcDbCircle
 10
72.28233683997672
 20
15.44195932690909
 30
0.0
 40
0.25
100
AcDbArc
 50
34.49603441123307
 51
124.4960344112354
  0
LINE
  5
15B
330
DC
100
AcDbEntity
  8
1
  6
Continuous
 62
     1
100
AcDbLine
 10
17.77103700135689
 20
25.4744628223838
 30
0.0
 11
18.06242346907764
 21
25.67469750077194
 31
0.0
  0
LINE
  5
15C
330
DC
100
AcDbEntity
  8
1
  6
Continuous
 62
     1
100
AcDbLine
 10
18.41005211526597
 20
25.61024345241754
 30
0.0
 11
18.61028679365411
 21
25.31885698469675
 31
0.0
  0
ARC
  5
15D
330
DC
100
AcDbEntity
  8
1
  6
Continuous
 62
     1
100
AcDbCircle
 10
17.62944970243991
 20
25.68050416965517
 30
0.0
 40
0.25
100
AcDbArc
 50
259.4960344112326
 51
304.4960344112353
  0
ARC
  5
15E
330
DC
100
AcDbEntity
  8
1
  6
Continuous
 62
     1
100
AcDbCircle
 10
17.62944970243991
 20
25.68050416965517
 30
0.0
 40
0.25
100
AcDbArc
 50
259.4960344112326
 51
304.4960344112353
  0
ARC
  5
15F
330
DC
100
AcDbEntity
  8
1
  6
Continuous
 62
     1
100
AcDbCircle
 10
18.2040107679946
 20
25.46865615350058
 30
0.0
 40
0.25
100
AcDbArc
 50
34.49603441123307
 51
124.4960344112354
  0
ARC
  5
160
330
DC
100
AcDbEntity
  8
1
  6
Continuous
 62
     1
100
AcDbCircle
 10
18.2040107679946
 20
25.46865615350058
 30
0.0
 40
0.25
100
AcDbArc
 50
34.49603441123307
 51
124.4960344112354
  0
ARC
  5
161
330
DC
100
AcDbEntity
  8
1
  6
Continuous
 62
     1
100
AcDbCircle
 10
18.81632814092548
 20
25.46044428361371
 30
0.0
 40
0.25
100
AcDbArc
 50
214.4960344112327
 51
259.4960344112327
  0
ARC
  5
162
330
DC
100
AcDbEntity
  8
1
  6
Continuous
 62
     1
100
AcDbCircle
 10
18.81632814092548
 20
25.46044428361371
 30
0.0
 40
0.25
100
AcDbArc
 50
214.4960344112327
 51
259.4960344112327
  0
LINE
  5
163
330
DC
100
AcDbEntity
  8
1
  6
Continuous
 62
     1
100
AcDbLine
 10
32.51967138462473
 20
22.73990914240429
 30
0.0
 11
32.81105785234548
 21
22.94014382079243
 31
0.0
  0
LINE
  5
164
330
DC
100
AcDbEntity
  8
1
  6
Continuous
 62
     1
100
AcDbLine
 10
33.15868649853383
 20
22.87568977243802
 30
0.0
 11
33.35892117692195
 21
22.58430330471724
 31
0.0
  0
ARC
  5
165
330
DC
100
AcDbEntity
  8
1
  6
Continuous
 62
     1
100
AcDbCircle
 10
32.37808408570777
 20
22.94595048967565
 30
0.0
 40
0.25
100
AcDbArc
 50
259.4960344112326
 51
304.4960344112353
  0
ARC
  5
166
330
DC
100
AcDbEntity
  8
1
  6
Continuous
 62
     1
100
AcDbCircle
 10
32.37808408570777
 20
22.94595048967565
 30
0.0
 40
0.25
100
AcDbArc
 50
259.4960344112326
 51
304.4960344112353
  0
ARC
  5
167
330
DC
100
AcDbEntity
  8
1
  6
Continuous
 62
     1
100
AcDbCircle
 10
32.95264515126246
 20
22.73410247352106
 30
0.0
 40
0.25
100
AcDbArc
 50
34.49603441123307
 51
124.4960344112354
  0
ARC
  5
168
330
DC
100
AcDbEntity
  8
1
  6
Continuous
 62
     1
100
AcDbCircle
 10
32.95264515126246
 20
22.73410247352106
 30
0.0
 40
0.25
100
AcDbArc
 50
34.49603441123307
 51
124.4960344112354
  0
ARC
  5
169
330
DC
100
AcDbEntity
  8
1
  6
Continuous
 62
     1
100
AcDbCircle
 10
33.56496252419332
 20
22.7258906036342
 30
0.0
 40
0.25
100
AcDbArc
 50
214.4960344112327
 51
259.4960344112327
  0
ARC
  5
16A
330
DC
100
AcDbEntity
  8
1
  6
Continuous
 62
     1
100
AcDbCircle
 10
33.56496252419332
 20
22.7258906036342
 30
0.0
 40
0.25
100
AcDbArc
 50
214.4960344112327
 51
259.4960344112327
  0
LINE
  5
16B
330
DC
100
AcDbEntity
  8
1
  6
Continuous
 62
     1
100
AcDbLine
 10
57.10072869007115
 20
18.18231967577179
 30
0.0
 11
57.39211515779191
 21
18.38255435415994
 31
0.0
  0
LINE
  5
16C
330
DC
100
AcDbEntity
  8
1
  6
Continuous
 62
     1
100
AcDbLine
 10
57.73974380398025
 20
18.31810030580553
 30
0.0
 11
57.93997848236837
 21
18.02671383808475
 31
0.0
  0
ARC
  5
16D
330
DC
100
AcDbEntity
  8
1
  6
Continuous
 62
     1
100
AcDbCircle
 10
56.95914139115419
 20
18.38836102304316
 30
0.0
 40
0.25
100
AcDbArc
 50
259.4960344112326
 51
304.4960344112353
  0
ARC
  5
16E
330
DC
100
AcDbEntity
  8
1
  6
Continuous
 62
     1
100
AcDbCircle
 10
56.95914139115419
 20
18.38836102304316
 30
0.0
 40
0.25
100
AcDbArc
 50
259.4960344112326
 51
304.4960344112353
  0
ARC
  5
16F
330
DC
100
AcDbEntity
  8
1
  6
Continuous
 62
     1
100
AcDbCircle
 10
57.53370245670888
 20
18.17651300688857
 30
0.0
 40
0.25
100
AcDbArc
 50
34.49603441123307
 51
124.4960344112354
  0
ARC
  5
170
330
DC
100
AcDbEntity
  8
1
  6
Continuous
 62
     1
100
AcDbCircle
 10
57.53370245670888
 20
18.17651300688857
 30
0.0
 40
0.25
100
AcDbArc
 50
34.49603441123307
 51
124.4960344112354
  0
ARC
  5
171
330
DC
100
AcDbEntity
  8
1
  6
Continuous
 62
     1
100
AcDbCircle
 10
58.14601982963974
 20
18.16830113700171
 30
0.0
 40
0.25
100
AcDbArc
 50
214.4960344112327
 51
259.4960344112327
  0
ARC
  5
172
330
DC
100
AcDbEntity
  8
1
  6
Continuous
 62
     1
100
AcDbCircle
 10
58.14601982963974
 20
18.16830113700171
 30
0.0
 40
0.25
100
AcDbArc
 50
214.4960344112327
 51
259.4960344112327
  0
LINE
  5
173
330
DC
100
AcDbEntity
  8
1
  6
Continuous
 62
     1
100
AcDbLine
 10
47.26830576789257
 20
20.0053554624248
 30
0.0
 11
47.55969223561334
 21
20.20559014081294
 31
0.0
  0
LINE
  5
174
330
DC
100
AcDbEntity
  8
1
  6
Continuous
 62
     1
100
AcDbLine
 10
47.90732088180167
 20
20.14113609245854
 30
0.0
 11
48.10755556018981
 21
19.84974962473775
 31
0.0
  0
ARC
  5
175
330
DC
100
AcDbEntity
  8
1
  6
Continuous
 62
     1
100
AcDbCircle
 10
47.12671846897561
 20
20.21139680969616
 30
0.0
 40
0.25
100
AcDbArc
 50
259.4960344112326
 51
304.4960344112353
  0
ARC
  5
176
330
DC
100
AcDbEntity
  8
1
  6
Continuous
 62
     1
100
AcDbCircle
 10
47.12671846897561
 20
20.21139680969616
 30
0.0
 40
0.25
100
AcDbArc
 50
259.4960344112326
 51
304.4960344112353
  0
ARC
  5
177
330
DC
100
AcDbEntity
  8
1
  6
Continuous
 62
     1
100
AcDbCircle
 10
47.7012795345303
 20
19.99954879354158
 30
0.0
 40
0.25
100
AcDbArc
 50
34.49603441123307
 51
124.4960344112354
  0
ARC
  5
178
330
DC
100
AcDbEntity
  8
1
  6
Continuous
 62
     1
100
AcDbCircle
 10
47.7012795345303
 20
19.99954879354158
 30
0.0
 40
0.25
100
AcDbArc
 50
34.49603441123307
 51
124.4960344112354
  0
ARC
  5
179
330
DC
100
AcDbEntity
  8
1
  6
Continuous
 62
     1
100
AcDbCircle
 10
48.31359690746118
 20
19.99133692365471
 30
0.0
 40
0.25
100
AcDbArc
 50
214.4960344112327
 51
259.4960344112327
  0
ARC
  5
17A
330
DC
100
AcDbEntity
  8
1
  6
Continuous
 62
     1
100
AcDbCircle
 10
48.31359690746118
 20
19.99133692365471
 30
0.0
 40
0.25
100
AcDbArc
 50
214.4960344112327
 51
259.4960344112327
  0
LINE
  5
17B
330
DC
100
AcDbEntity
  8
1
  6
Continuous
 62
     1
100
AcDbLine
 10
52.18451722898186
 20
19.0938375690983
 30
0.0
 11
52.47590369670263
 21
19.29407224748644
 31
0.0
  0
LINE
  5
17C
330
DC
100
AcDbEntity
  8
1
  6
Continuous
 62
     1
100
AcDbLine
 10
52.82353234289096
 20
19.22961819913203
 30
0.0
 11
53.0237670212791
 21
18.93823173141125
 31
0.0
  0
ARC
  5
17D
330
DC
100
AcDbEntity
  8
1
  6
Continuous
 62
     1
100
AcDbCircle
 10
52.0429299300649
 20
19.29987891636966
 30
0.0
 40
0.25
100
AcDbArc
 50
259.4960344112326
 51
304.4960344112353
  0
ARC
  5
17E
330
DC
100
AcDbEntity
  8
1
  6
Continuous
 62
     1
100
AcDbCircle
 10
52.0429299300649
 20
19.29987891636966
 30
0.0
 40
0.25
100
AcDbArc
 50
259.4960344112326
 51
304.4960344112353
  0
ARC
  5
17F
330
DC
100
AcDbEntity
  8
1
  6
Continuous
 62
     1
100
AcDbCircle
 10
52.61749099561959
 20
19.08803090021507
 30
0.0
 40
0.25
100
AcDbArc
 50
34.49603441123307
 51
124.4960344112354
  0
ARC
  5
180
330
DC
100
AcDbEntity
  8
1
  6
Continuous
 62
     1
100
AcDbCircle
 10
52.61749099561959
 20
19.08803090021507
 30
0.0
 40
0.25
100
AcDbArc
 50
34.49603441123307
 51
124.4960344112354
  0
ARC
  5
181
330
DC
100
AcDbEntity
  8
1
  6
Continuous
 62
     1
100
AcDbCircle
 10
53.22980836855047
 20
19.07981903032821
 30
0.0
 40
0.25
100
AcDbArc
 50
214.4960344112327
 51
259.4960344112327
  0
ARC
  5
182
330
DC
100
AcDbEntity
  8
1
  6
Continuous
 62
     1
100
AcDbCircle
 10
53.22980836855047
 20
19.07981903032821
 30
0.0
 40
0.25
100
AcDbArc
 50
214.4960344112327
 51
259.4960344112327
  0
LINE
  5
183
330
DC
100
AcDbEntity
  8
1
  6
Continuous
 62
     1
100
AcDbLine
 10
66.93315161224973
 20
16.3592838891188
 30
0.0
 11
67.22453807997047
 21
16.55951856750693
 31
0.0
  0
LINE
  5
184
330
DC
100
AcDbEntity
  8
1
  6
Continuous
 62
     1
100
AcDbLine
 10
67.5721667261588
 20
16.49506451915254
 30
0.0
 11
67.77240140454694
 21
16.20367805143174
 31
0.0
  0
ARC
  5
185
330
DC
100
AcDbEntity
  8
1
  6
Continuous
 62
     1
100
AcDbCircle
 10
66.79156431333274
 20
16.56532523639016
 30
0.0
 40
0.25
100
AcDbArc
 50
259.4960344112326
 51
304.4960344112353
  0
ARC
  5
186
330
DC
100
AcDbEntity
  8
1
  6
Continuous
 62
     1
100
AcDbCircle
 10
66.79156431333274
 20
16.56532523639016
 30
0.0
 40
0.25
100
AcDbArc
 50
259.4960344112326
 51
304.4960344112353
  0
ARC
  5
187
330
DC
100
AcDbEntity
  8
1
  6
Continuous
 62
     1
100
AcDbCircle
 10
67.36612537888743
 20
16.35347722023558
 30
0.0
 40
0.25
100
AcDbArc
 50
34.49603441123307
 51
124.4960344112354
  0
ARC
  5
188
330
DC
100
AcDbEntity
  8
1
  6
Continuous
 62
     1
100
AcDbCircle
 10
67.36612537888743
 20
16.35347722023558
 30
0.0
 40
0.25
100
AcDbArc
 50
34.49603441123307
 51
124.4960344112354
  0
ARC
  5
189
330
DC
100
AcDbEntity
  8
1
  6
Continuous
 62
     1
100
AcDbCircle
 10
67.9784427518183
 20
16.3452653503487
 30
0.0
 40
0.25
100
AcDbArc
 50
214.4960344112327
 51
259.4960344112327
  0
ARC
  5
18A
330
DC
100
AcDbEntity
  8
1
  6
Continuous
 62
     1
100
AcDbCircle
 10
67.9784427518183
 20
16.3452653503487
 30
0.0
 40
0.25
100
AcDbArc
 50
214.4960344112327
 51
259.4960344112327
  0
ARC
  5
18B
330
DC
100
AcDbEntity
  8
1
  6
Continuous
 62
     1
100
AcDbCircle
 10
72.90757811744908
 20
15.41494027075547
 30
0.0
 40
0.25
100
AcDbArc
 50
214.4960344112341
 51
253.7842339479424
  0
ARC
  5
18C
330
DC
100
AcDbEntity
  8
1
  6
Continuous
 62
     1
100
AcDbCircle
 10
72.90757811744908
 20
15.41494027075547
 30
0.0
 40
0.25
100
AcDbArc
 50
214.4960344112341
 51
253.7842339479424
  0
ENDBLK
  5
DE
330
DC
100
AcDbEntity
  8
0
100
AcDbBlockEnd
  0
BLOCK
  5
18E
330
18D
100
AcDbEntity
  8
0
100
AcDbBlockBegin
  2
GEN_BLOCK00000
 70
     0
 10
0.0
 20
0.0
 30
0.0
  3
GEN_BLOCK00000
  1
GEN_BLOCK00000
  0
ARC
  5
191
330
18D
100
AcDbEntity
  8
1
  6
Continuous
 62
    10
100
AcDbCircle
 10
115.8198204040527
 20
60.59514045715332
 30
0.0
 40
6.859648818055135
100
AcDbArc
 50
214.4960393366458
 51
259.4960371737903
  0
ARC
  5
192
330
18D
100
AcDbEntity
  8
1
  6
Continuous
 62
    10
100
AcDbCircle
 10
115.8198204040527
 20
60.59514045715332
 30
0.0
 40
6.859648818055135
100
AcDbArc
 50
214.4960393366458
 51
259.4960371737903
  0
ARC
  5
193
330
18D
100
AcDbEntity
  8
1
  6
Continuous
 62
    10
100
AcDbCircle
 10
115.8198204040527
 20
60.59514045715332
 30
0.0
 40
6.859648818055135
100
AcDbArc
 50
259.4960371737903
 51
304.4960350109348
  0
ARC
  5
194
330
18D
100
AcDbEntity
  8
1
  6
Continuous
 62
    10
100
AcDbCircle
 10
115.8198204040527
 20
60.59514045715332
 30
0.0
 40
6.859648818055135
100
AcDbArc
 50
259.4960371737903
 51
304.4960350109348
  0
LINE
  5
195
330
18D
100
AcDbEntity
  8
1
  6
Continuous
 62
    10
100
AcDbLine
 10
110.5960182282805
 20
55.77323469473477
 30
0.0
 11
110.1663356008997
 21
56.71018338048399
 31
0.0
  0
LINE
  5
196
330
18D
100
AcDbEntity
  8
1
  6
Continuous
 62
    10
100
AcDbLine
 10
110.1663356008997
 20
56.71018338048399
 30
0.0
 11
110.9863843595294
 21
56.08566754123738
 31
0.0
  0
LINE
  5
197
330
18D
100
AcDbEntity
  8
1
  6
Continuous
 62
    10
100
AcDbLine
 10
118.7153491341011
 20
54.65263565283546
 30
0.0
 11
119.7047770538958
 21
54.94165536069422
 31
0.0
  0
LINE
  5
198
330
18D
100
AcDbEntity
  8
1
  6
Continuous
 62
    10
100
AcDbLine
 10
119.7047770538958
 20
54.94165536069422
 30
0.0
 11
118.9677616930693
 21
54.22102483268016
 31
0.0
  0
LINE
  5
199
330
18D
100
AcDbEntity
  8
1
  6
Continuous
 62
    10
100
AcDbLine
 10
114.0007994532879
 20
59.34514712360045
 30
0.0
 11
109.7542529307
 21
56.42700874722552
 31
0.0
  0
LINE
  5
19A
330
18D
100
AcDbEntity
  8
1
  6
Continuous
 62
    10
100
AcDbLine
 10
117.0698136002733
 20
58.77611941201658
 30
0.0
 11
119.9879516560429
 21
54.52957266911541
 31
0.0
  0
TEXT
  5
19B
330
18D
100
AcDbEntity
  8
1
  6
Continuous
 62
     1
100
AcDbText
 10
112.7925581624643
 20
52.26245801685183
 30
0.0
 40
1.0
  1
90ø
100
AcDbText
  0
LINE
  5
19C
330
18D
100
AcDbEntity
  8
1
  6
Continuous
 62
    10
100
AcDbLine
 10
104.0669383664792
 20
64.59770071419783
 30
0.0
 11
103.702330663202
 21
62.63121623098648
 31
0.0
  0
LINE
  5
19D
330
18D
100
AcDbEntity
  8
1
  6
Continuous
 62
    10
100
AcDbLine
 10
102.3360997527766
 20
55.26255160408141
 30
0.0
 11
103.5577831876998
 21
61.85161019110389
 31
0.0
  0
LINE
  5
19E
330
18D
100
AcDbEntity
  8
1
  6
Continuous
 62
    10
100
AcDbLine
 10
104.130445075242
 20
63.56888250968251
 30
0.0
 11
103.702330663202
 21
62.63121623098648
 31
0.0
  0
LINE
  5
19F
330
18D
100
AcDbEntity
  8
1
  6
Continuous
 62
    10
100
AcDbLine
 10
103.702330663202
 20
62.63121623098648
 30
0.0
 11
103.6388239544392
 21
63.6600344355018
 31
0.0
  0
LINE
  5
1A0
330
18D
100
AcDbEntity
  8
1
  6
Continuous
 62
    10
100
AcDbLine
 10
103.1296687756598
 20
60.91394391240786
 30
0.0
 11
103.5577831876998
 21
61.85161019110389
 31
0.0
  0
LINE
  5
1A1
330
18D
100
AcDbEntity
  8
1
  6
Continuous
 62
    10
100
AcDbLine
 10
103.5577831876998
 20
61.85161019110389
 30
0.0
 11
103.6212898964626
 21
60.82279198658858
 31
0.0
  0
LINE
  5
1A2
330
18D
100
AcDbEntity
  8
1
  6
Continuous
 62
    10
100
AcDbLine
 10
104.9663980324422
 20
62.39684433320595
 30
0.0
 11
103.2107095423992
 21
62.72236815680577
 31
0.0
  0
LINE
  5
1A3
330
18D
100
AcDbEntity
  8
1
  6
Continuous
 62
    10
100
AcDbLine
 10
104.8218496163045
 20
61.61723846772743
 30
0.0
 11
103.0661620668969
 21
61.94276211692317
 31
0.0
  0
TEXT
  5
1A4
330
18D
100
AcDbEntity
  8
1
  6
Continuous
 62
     1
100
AcDbText
 10
101.8444786319738
 20
55.35370352990069
 30
0.0
 40
1.0
  1
0.4
 50
79.49601850445563
100
AcDbText
  0
LINE
  5
1A5
330
18D
100
AcDbEntity
  8
1
  6
Continuous
 62
    10
100
AcDbLine
 10
85.45592498779297
 20
90.42993545532227
 30
0.0
 11
160.455924987793
 21
90.42993545532227
 31
0.0
  0
LINE
  5
1A6
330
18D
100
AcDbEntity
  8
1
  6
Continuous
 62
    10
100
AcDbLine
 10
85.45592498779297
 20
90.42993545532227
 30
0.0
 11
10.45592498779297
 21
90.42993545532227
 31
0.0
  0
LINE
  5
1A7
330
18D
100
AcDbEntity
  8
1
  6
Continuous
 62
    10
100
AcDbLine
 10
159.455924987793
 20
90.67993545532227
 30
0.0
 11
160.455924987793
 21
90.42993545532227
 31
0.0
  0
LINE
  5
1A8
330
18D
100
AcDbEntity
  8
1
  6
Continuous
 62
    10
100
AcDbLine
 10
160.455924987793
 20
90.42993545532227
 30
0.0
 11
159.455924987793
 21
90.17993545532227
 31
0.0
  0
LINE
  5
1A9
330
18D
100
AcDbEntity
  8
1
  6
Continuous
 62
    10
100
AcDbLine
 10
11.45592498779297
 20
90.17993545532227
 30
0.0
 11
10.45592498779297
 21
90.42993545532227
 31
0.0
  0
LINE
  5
1AA
330
18D
100
AcDbEntity
  8
1
  6
Continuous
 62
    10
100
AcDbLine
 10
10.45592498779297
 20
90.42993545532227
 30
0.0
 11
11.45592498779297
 21
90.67993545532227
 31
0.0
  0
LINE
  5
1AB
330
18D
100
AcDbEntity
  8
1
  6
Continuous
 62
    10
100
AcDbLine
 10
160.455924987793
 20
47.31229305267334
 30
0.0
 11
160.455924987793
 21
90.92993545532227
 31
0.0
  0
LINE
  5
1AC
330
18D
100
AcDbEntity
  8
1
  6
Continuous
 62
    10
100
AcDbLine
 10
10.45592498779297
 20
75.30386734008789
 30
0.0
 11
10.45592498779297
 21
90.92993545532227
 31
0.0
  0
TEXT
  5
1AD
330
18D
100
AcDbEntity
  8
1
  6
Continuous
 62
     1
100
AcDbText
 10
84.40592498779297
 20
90.92993545532227
 30
0.0
 40
1.0
  1
75
100
AcDbText
  0
LINE
  5
1AE
330
18D
100
AcDbEntity
  8
1
  6
Continuous
 62
    10
100
AcDbLine
 10
162.455924987793
 20
13.05801773071289
 30
0.0
 11
160.455924987793
 21
13.05801773071289
 31
0.0
  0
LINE
  5
1AF
330
18D
100
AcDbEntity
  8
1
  6
Continuous
 62
    10
100
AcDbLine
 10
154.6559295654297
 20
13.05801773071289
 30
0.0
 11
156.6559295654297
 21
13.05801773071289
 31
0.0
  0
LINE
  5
1B0
330
18D
100
AcDbEntity
  8
1
  6
Continuous
 62
    10
100
AcDbLine
 10
161.455924987793
 20
12.80801773071289
 30
0.0
 11
160.455924987793
 21
13.05801773071289
 31
0.0
  0
LINE
  5
1B1
330
18D
100
AcDbEntity
  8
1
  6
Continuous
 62
    10
100
AcDbLine
 10
160.455924987793
 20
13.05801773071289
 30
0.0
 11
161.455924987793
 21
13.30801773071289
 31
0.0
  0
LINE
  5
1B2
330
18D
100
AcDbEntity
  8
1
  6
Continuous
 62
    10
100
AcDbLine
 10
155.6559295654297
 20
13.30801773071289
 30
0.0
 11
156.6559295654297
 21
13.05801773071289
 31
0.0
  0
LINE
  5
1B3
330
18D
100
AcDbEntity
  8
1
  6
Continuous
 62
    10
100
AcDbLine
 10
156.6559295654297
 20
13.05801773071289
 30
0.0
 11
155.6559295654297
 21
12.80801773071289
 31
0.0
  0
LINE
  5
1B4
330
18D
100
AcDbEntity
  8
1
  6
Continuous
 62
    10
100
AcDbLine
 10
160.455924987793
 20
21.72381973266602
 30
0.0
 11
160.455924987793
 21
12.55801773071289
 31
0.0
  0
LINE
  5
1B5
330
18D
100
AcDbEntity
  8
1
  6
Continuous
 62
    10
100
AcDbLine
 10
156.6559295654297
 20
21.72381973266602
 30
0.0
 11
156.6559295654297
 21
12.55801773071289
 31
0.0
  0
TEXT
  5
1B6
330
18D
100
AcDbEntity
  8
1
  6
Continuous
 62
     1
100
AcDbText
 10
156.9809272766113
 20
13.55801773071289
 30
0.0
 40
1.0
  1
1.9
100
AcDbText
  0
LINE
  5
1B7
330
18D
100
AcDbEntity
  8
1
  6
Continuous
 62
    10
100
AcDbLine
 10
122.0059280395508
 20
13.05801773071289
 30
0.0
 11
156.6559295654297
 21
13.05801773071289
 31
0.0
  0
LINE
  5
1B8
330
18D
100
AcDbEntity
  8
1
  6
Continuous
 62
    10
100
AcDbLine
 10
122.0059280395508
 20
13.05801773071289
 30
0.0
 11
87.35592651367188
 21
13.05801773071289
 31
0.0
  0
LINE
  5
1B9
330
18D
100
AcDbEntity
  8
1
  6
Continuous
 62
    10
100
AcDbLine
 10
155.6559295654297
 20
13.30801773071289
 30
0.0
 11
156.6559295654297
 21
13.05801773071289
 31
0.0
  0
LINE
  5
1BA
330
18D
100
AcDbEntity
  8
1
  6
Continuous
 62
    10
100
AcDbLine
 10
156.6559295654297
 20
13.05801773071289
 30
0.0
 11
155.6559295654297
 21
12.80801773071289
 31
0.0
  0
LINE
  5
1BB
330
18D
100
AcDbEntity
  8
1
  6
Continuous
 62
    10
100
AcDbLine
 10
88.35592651367188
 20
12.80801773071289
 30
0.0
 11
87.35592651367188
 21
13.05801773071289
 31
0.0
  0
LINE
  5
1BC
330
18D
100
AcDbEntity
  8
1
  6
Continuous
 62
    10
100
AcDbLine
 10
87.35592651367188
 20
13.05801773071289
 30
0.0
 11
88.35592651367188
 21
13.30801773071289
 31
0.0
  0
LINE
  5
1BD
330
18D
100
AcDbEntity
  8
1
  6
Continuous
 62
    10
100
AcDbLine
 10
156.6559295654297
 20
21.72381973266602
 30
0.0
 11
156.6559295654297
 21
12.55801773071289
 31
0.0
  0
LINE
  5
1BE
330
18D
100
AcDbEntity
  8
1
  6
Continuous
 62
    10
100
AcDbLine
 10
87.35592651367188
 20
21.72381973266602
 30
0.0
 11
87.35592651367188
 21
12.55801773071289
 31
0.0
  0
TEXT
  5
1BF
330
18D
100
AcDbEntity
  8
1
  6
Continuous
 62
     1
100
AcDbText
 10
119.9059280395508
 20
13.55801773071289
 30
0.0
 40
1.0
  1
34.7
100
AcDbText
  0
LINE
  5
1C0
330
18D
100
AcDbEntity
  8
1
  6
Continuous
 62
    10
100
AcDbLine
 10
89.35592651367188
 20
13.05801773071289
 30
0.0
 11
87.35592651367188
 21
13.05801773071289
 31
0.0
  0
LINE
  5
1C1
330
18D
100
AcDbEntity
  8
1
  6
Continuous
 62
    10
100
AcDbLine
 10
81.55592727661133
 20
13.05801773071289
 30
0.0
 11
83.55592727661133
 21
13.05801773071289
 31
0.0
  0
LINE
  5
1C2
330
18D
100
AcDbEntity
  8
1
  6
Continuous
 62
    10
100
AcDbLine
 10
88.35592651367188
 20
12.80801773071289
 30
0.0
 11
87.35592651367188
 21
13.05801773071289
 31
0.0
  0
LINE
  5
1C3
330
18D
100
AcDbEntity
  8
1
  6
Continuous
 62
    10
100
AcDbLine
 10
87.35592651367188
 20
13.05801773071289
 30
0.0
 11
88.35592651367188
 21
13.30801773071289
 31
0.0
  0
LINE
  5
1C4
330
18D
100
AcDbEntity
  8
1
  6
Continuous
 62
    10
100
AcDbLine
 10
82.55592727661133
 20
13.30801773071289
 30
0.0
 11
83.55592727661133
 21
13.05801773071289
 31
0.0
  0
LINE
  5
1C5
330
18D
100
AcDbEntity
  8
1
  6
Continuous
 62
    10
100
AcDbLine
 10
83.55592727661133
 20
13.05801773071289
 30
0.0
 11
82.55592727661133
 21
12.80801773071289
 31
0.0
  0
LINE
  5
1C6
330
18D
100
AcDbEntity
  8
1
  6
Continuous
 62
    10
100
AcDbLine
 10
87.35592651367188
 20
21.72381973266602
 30
0.0
 11
87.35592651367188
 21
12.55801773071289
 31
0.0
  0
LINE
  5
1C7
330
18D
100
AcDbEntity
  8
1
  6
Continuous
 62
    10
100
AcDbLine
 10
83.55592727661133
 20
21.72381973266602
 30
0.0
 11
83.55592727661133
 21
12.55801773071289
 31
0.0
  0
TEXT
  5
1C8
330
18D
100
AcDbEntity
  8
1
  6
Continuous
 62
     1
100
AcDbText
 10
83.8809268951416
 20
13.55801773071289
 30
0.0
 40
1.0
  1
1.9
100
AcDbText
  0
LINE
  5
1C9
330
18D
100
AcDbEntity
  8
1
  6
Continuous
 62
    10
100
AcDbLine
 10
53.00592613220215
 20
13.05801773071289
 30
0.0
 11
83.55592727661133
 21
13.05801773071289
 31
0.0
  0
LINE
  5
1CA
330
18D
100
AcDbEntity
  8
1
  6
Continuous
 62
    10
100
AcDbLine
 10
53.00592613220215
 20
13.05801773071289
 30
0.0
 11
22.45592498779297
 21
13.05801773071289
 31
0.0
  0
LINE
  5
1CB
330
18D
100
AcDbEntity
  8
1
  6
Continuous
 62
    10
100
AcDbLine
 10
82.55592727661133
 20
13.30801773071289
 30
0.0
 11
83.55592727661133
 21
13.05801773071289
 31
0.0
  0
LINE
  5
1CC
330
18D
100
AcDbEntity
  8
1
  6
Continuous
 62
    10
100
AcDbLine
 10
83.55592727661133
 20
13.05801773071289
 30
0.0
 11
82.55592727661133
 21
12.80801773071289
 31
0.0
  0
LINE
  5
1CD
330
18D
100
AcDbEntity
  8
1
  6
Continuous
 62
    10
100
AcDbLine
 10
23.45592498779297
 20
12.80801773071289
 30
0.0
 11
22.45592498779297
 21
13.05801773071289
 31
0.0
  0
LINE
  5
1CE
330
18D
100
AcDbEntity
  8
1
  6
Continuous
 62
    10
100
AcDbLine
 10
22.45592498779297
 20
13.05801773071289
 30
0.0
 11
23.45592498779297
 21
13.30801773071289
 31
0.0
  0
LINE
  5
1CF
330
18D
100
AcDbEntity
  8
1
  6
Continuous
 62
    10
100
AcDbLine
 10
83.55592727661133
 20
21.72381973266602
 30
0.0
 11
83.55592727661133
 21
12.55801773071289
 31
0.0
  0
LINE
  5
1D0
330
18D
100
AcDbEntity
  8
1
  6
Continuous
 62
    10
100
AcDbLine
 10
22.45592498779297
 20
22.62381935119629
 30
0.0
 11
22.45592498779297
 21
12.55801773071289
 31
0.0
  0
TEXT
  5
1D1
330
18D
100
AcDbEntity
  8
1
  6
Continuous
 62
     1
100
AcDbText
 10
50.90592613220215
 20
13.55801773071289
 30
0.0
 40
1.0
  1
30.6
100
AcDbText
  0
LINE
  5
1D2
330
18D
100
AcDbEntity
  8
1
  6
Continuous
 62
    10
100
AcDbLine
 10
18.35592651367188
 20
13.05801773071289
 30
0.0
 11
22.45592498779297
 21
13.05801773071289
 31
0.0
  0
LINE
  5
1D3
330
18D
100
AcDbEntity
  8
1
  6
Continuous
 62
    10
100
AcDbLine
 10
18.35592651367188
 20
13.05801773071289
 30
0.0
 11
14.25592803955078
 21
13.05801773071289
 31
0.0
  0
LINE
  5
1D4
330
18D
100
AcDbEntity
  8
1
  6
Continuous
 62
    10
100
AcDbLine
 10
21.45592498779297
 20
13.30801773071289
 30
0.0
 11
22.45592498779297
 21
13.05801773071289
 31
0.0
  0
LINE
  5
1D5
330
18D
100
AcDbEntity
  8
1
  6
Continuous
 62
    10
100
AcDbLine
 10
22.45592498779297
 20
13.05801773071289
 30
0.0
 11
21.45592498779297
 21
12.80801773071289
 31
0.0
  0
LINE
  5
1D6
330
18D
100
AcDbEntity
  8
1
  6
Continuous
 62
    10
100
AcDbLine
 10
15.25592803955078
 20
12.80801773071289
 30
0.0
 11
14.25592803955078
 21
13.05801773071289
 31
0.0
  0
LINE
  5
1D7
330
18D
100
AcDbEntity
  8
1
  6
Continuous
 62
    10
100
AcDbLine
 10
14.25592803955078
 20
13.05801773071289
 30
0.0
 11
15.25592803955078
 21
13.30801773071289
 31
0.0
  0
LINE
  5
1D8
330
18D
100
AcDbEntity
  8
1
  6
Continuous
 62
    10
100
AcDbLine
 10
22.45592498779297
 20
22.62381935119629
 30
0.0
 11
22.45592498779297
 21
12.55801773071289
 31
0.0
  0
LINE
  5
1D9
330
18D
100
AcDbEntity
  8
1
  6
Continuous
 62
    10
100
AcDbLine
 10
14.25592803955078
 20
25.52381896972656
 30
0.0
 11
14.25592803955078
 21
12.55801773071289
 31
0.0
  0
TEXT
  5
1DA
330
18D
100
AcDbEntity
  8
1
  6
Continuous
 62
     1
100
AcDbText
 10
16.78092651367187
 20
13.55801773071289
 30
0.0
 40
1.0
  1
4.1
100
AcDbText
  0
LINE
  5
1DB
330
18D
100
AcDbEntity
  8
1
  6
Continuous
 62
    10
100
AcDbLine
 10
16.25592803955078
 20
13.05801773071289
 30
0.0
 11
14.25592803955078
 21
13.05801773071289
 31
0.0
  0
LINE
  5
1DC
330
18D
100
AcDbEntity
  8
1
  6
Continuous
 62
    10
100
AcDbLine
 10
8.455924987792969
 20
13.05801773071289
 30
0.0
 11
10.45592498779297
 21
13.05801773071289
 31
0.0
  0
LINE
  5
1DD
330
18D
100
AcDbEntity
  8
1
  6
Continuous
 62
    10
100
AcDbLine
 10
15.25592803955078
 20
12.80801773071289
 30
0.0
 11
14.25592803955078
 21
13.05801773071289
 31
0.0
  0
LINE
  5
1DE
330
18D
100
AcDbEntity
  8
1
  6
Continuous
 62
    10
100
AcDbLine
 10
14.25592803955078
 20
13.05801773071289
 30
0.0
 11
15.25592803955078
 21
13.30801773071289
 31
0.0
  0
LINE
  5
1DF
330
18D
100
AcDbEntity
  8
1
  6
Continuous
 62
    10
100
AcDbLine
 10
9.455924987792969
 20
13.30801773071289
 30
0.0
 11
10.45592498779297
 21
13.05801773071289
 31
0.0
  0
LINE
  5
1E0
330
18D
100
AcDbEntity
  8
1
  6
Continuous
 62
    10
100
AcDbLine
 10
10.45592498779297
 20
13.05801773071289
 30
0.0
 11
9.455924987792969
 21
12.80801773071289
 31
0.0
  0
LINE
  5
1E1
330
18D
100
AcDbEntity
  8
1
  6
Continuous
 62
    10
100
AcDbLine
 10
14.25592803955078
 20
25.52381896972656
 30
0.0
 11
14.25592803955078
 21
12.55801773071289
 31
0.0
  0
LINE
  5
1E2
330
18D
100
AcDbEntity
  8
1
  6
Continuous
 62
    10
100
AcDbLine
 10
10.45592498779297
 20
21.72381973266602
 30
0.0
 11
10.45592498779297
 21
12.55801773071289
 31
0.0
  0
TEXT
  5
1E3
330
18D
100
AcDbEntity
  8
1
  6
Continuous
 62
     1
100
AcDbText
 10
10.78092651367187
 20
13.55801773071289
 30
0.0
 40
1.0
  1
1.9
100
AcDbText
  0
LINE
  5
1E4
330
18D
100
AcDbEntity
  8
1
  6
Continuous
 62
    10
100
AcDbLine
 10
85.45592498779297
 20
0.5
 30
0.0
 11
10.45592498779297
 21
0.5
 31
0.0
  0
LINE
  5
1E5
330
18D
100
AcDbEntity
  8
1
  6
Continuous
 62
    10
100
AcDbLine
 10
85.45592498779297
 20
0.5
 30
0.0
 11
160.455924987793
 21
0.5
 31
0.0
  0
LINE
  5
1E6
330
18D
100
AcDbEntity
  8
1
  6
Continuous
 62
    10
100
AcDbLine
 10
11.45592498779297
 20
0.25
 30
0.0
 11
10.45592498779297
 21
0.5
 31
0.0
  0
LINE
  5
1E7
330
18D
100
AcDbEntity
  8
1
  6
Continuous
 62
    10
100
AcDbLine
 10
10.45592498779297
 20
0.5
 30
0.0
 11
11.45592498779297
 21
0.75
 31
0.0
  0
LINE
  5
1E8
330
18D
100
AcDbEntity
  8
1
  6
Continuous
 62
    10
100
AcDbLine
 10
159.455924987793
 20
0.75
 30
0.0
 11
160.455924987793
 21
0.5
 31
0.0
  0
LINE
  5
1E9
330
18D
100
AcDbEntity
  8
1
  6
Continuous
 62
    10
100
AcDbLine
 10
160.455924987793
 20
0.5
 30
0.0
 11
159.455924987793
 21
0.25
 31
0.0
  0
LINE
  5
1EA
330
18D
100
AcDbEntity
  8
1
  6
Continuous
 62
    10
100
AcDbLine
 10
10.45592498779297
 20
21.72381973266602
 30
0.0
 11
10.45592498779297
 21
0.0
 31
0.0
  0
LINE
  5
1EB
330
18D
100
AcDbEntity
  8
1
  6
Continuous
 62
    10
100
AcDbLine
 10
160.455924987793
 20
21.72381973266602
 30
0.0
 11
160.455924987793
 21
0.0
 31
0.0
  0
TEXT
  5
1EC
330
18D
100
AcDbEntity
  8
1
  6
Continuous
 62
     1
100
AcDbText
 10
84.40592498779297
 20
1.0
 30
0.0
 40
1.0
  1
75
100
AcDbText
  0
LINE
  5
1ED
330
18D
100
AcDbEntity
  8
1
  6
Continuous
 62
    10
100
AcDbLine
 10
23.13394209135809
 20
81.8087920324977
 30
0.0
 11
18.21773191312738
 21
82.7203101096268
 31
0.0
  0
LINE
  5
1EE
330
18D
100
AcDbEntity
  8
1
  6
Continuous
 62
    10
100
AcDbLine
 10
23.13394209135809
 20
81.8087920324977
 30
0.0
 11
28.05015226958881
 21
80.89727395536863
 31
0.0
  0
LINE
  5
1EF
330
18D
100
AcDbEntity
  8
1
  6
Continuous
 62
    10
100
AcDbLine
 10
19.15539827518035
 20
82.29219588015718
 30
0.0
 11
18.21773191312738
 21
82.7203101096268
 31
0.0
  0
LINE
  5
1F0
330
18D
100
AcDbEntity
  8
1
  6
Continuous
 62
    10
100
AcDbLine
 10
18.21773191312738
 20
82.7203101096268
 30
0.0
 11
19.24655010527746
 21
82.78381701870794
 31
0.0
  0
LINE
  5
1F1
330
18D
100
AcDbEntity
  8
1
  6
Continuous
 62
    10
100
AcDbLine
 10
27.11248590753584
 20
81.32538818483825
 30
0.0
 11
28.05015226958881
 21
80.89727395536863
 31
0.0
  0
LINE
  5
1F2
330
18D
100
AcDbEntity
  8
1
  6
Continuous
 62
    10
100
AcDbLine
 10
28.05015226958881
 20
80.89727395536863
 30
0.0
 11
27.02133407743872
 21
80.83376704628749
 31
0.0
  0
LINE
  5
1F3
330
18D
100
AcDbEntity
  8
1
  6
Continuous
 62
    10
100
AcDbLine
 10
17.54898762015517
 20
79.1134836711445
 30
0.0
 11
18.3088837432245
 21
83.21193124817755
 31
0.0
  0
LINE
  5
1F4
330
18D
100
AcDbEntity
  8
1
  6
Continuous
 62
    10
100
AcDbLine
 10
27.38140796927627
 20
77.29044747729684
 30
0.0
 11
28.14130409968591
 21
81.3888950939194
 31
0.0
  0
TEXT
  5
1F5
330
18D
100
AcDbEntity
  8
1
  6
Continuous
 62
     1
100
AcDbText
 10
22.70889176895578
 20
82.3961225846817
 30
0.0
 40
1.0
  1
5
 50
-10.50396533068785
100
AcDbText
  0
LINE
  5
1F6
330
18D
100
AcDbEntity
  8
1
  6
Continuous
 62
    10
100
AcDbLine
 10
32.96636203009506
 20
79.98575591473968
 30
0.0
 11
28.05015177036833
 21
80.8972735523253
 31
0.0
  0
LINE
  5
1F7
330
18D
100
AcDbEntity
  8
1
  6
Continuous
 62
    10
100
AcDbLine
 10
32.96636203009506
 20
79.98575591473968
 30
0.0
 11
37.88257228982178
 21
79.07423827715405
 31
0.0
  0
LINE
  5
1F8
330
18D
100
AcDbEntity
  8
1
  6
Continuous
 62
    10
100
AcDbLine
 10
28.98781817069768
 20
80.4691594066896
 30
0.0
 11
28.05015177036833
 21
80.8972735523253
 31
0.0
  0
LINE
  5
1F9
330
18D
100
AcDbEntity
  8
1
  6
Continuous
 62
    10
100
AcDbLine
 10
28.05015177036833
 20
80.8972735523253
 30
0.0
 11
29.07896995684045
 21
80.96078055338997
 31
0.0
  0
LINE
  5
1FA
330
18D
100
AcDbEntity
  8
1
  6
Continuous
 62
    10
100
AcDbLine
 10
36.94490588949243
 20
79.50235242278976
 30
0.0
 11
37.88257228982178
 21
79.07423827715405
 31
0.0
  0
LINE
  5
1FB
330
18D
100
AcDbEntity
  8
1
  6
Continuous
 62
    10
100
AcDbLine
 10
37.88257228982178
 20
79.07423827715405
 30
0.0
 11
36.85375410334966
 21
79.01073127608939
 31
0.0
  0
LINE
  5
1FC
330
18D
100
AcDbEntity
  8
1
  6
Continuous
 62
    10
100
AcDbLine
 10
27.38140788136755
 20
77.29044749359605
 30
0.0
 11
28.14130355651109
 21
81.38889469902567
 31
0.0
  0
LINE
  5
1FD
330
18D
100
AcDbEntity
  8
1
  6
Continuous
 62
    10
100
AcDbLine
 10
37.21382823048864
 20
75.46741129974839
 30
0.0
 11
37.97372407596454
 21
79.56585942385442
 31
0.0
  0
TEXT
  5
1FE
330
18D
100
AcDbEntity
  8
1
  6
Continuous
 62
     1
100
AcDbText
 10
32.54131161122696
 20
80.5730864370708
 30
0.0
 40
1.0
  1
5
 50
-10.50396533068785
100
AcDbText
  0
LINE
  5
1FF
330
18D
100
AcDbEntity
  8
1
  6
Continuous
 62
    10
100
AcDbLine
 10
42.79878632069334
 20
78.16272040467109
 30
0.0
 11
37.88257237304924
 21
79.07423872603582
 31
0.0
  0
LINE
  5
200
330
18D
100
AcDbEntity
  8
1
  6
Continuous
 62
    10
100
AcDbLine
 10
42.79878632069334
 20
78.16272040467109
 30
0.0
 11
47.71500026833741
 21
77.2512020833064
 31
0.0
  0
LINE
  5
201
330
18D
100
AcDbEntity
  8
1
  6
Continuous
 62
    10
100
AcDbLine
 10
38.82023877337859
 20
78.64612458040011
 30
0.0
 11
37.88257237304924
 21
79.07423872603582
 31
0.0
  0
LINE
  5
202
330
18D
100
AcDbEntity
  8
1
  6
Continuous
 62
    10
100
AcDbLine
 10
37.88257237304924
 20
79.07423872603582
 30
0.0
 11
38.91139055952137
 21
79.13774572710048
 31
0.0
  0
LINE
  5
203
330
18D
100
AcDbEntity
  8
1
  6
Continuous
 62
    10
100
AcDbLine
 10
46.77733386800806
 20
77.6793162289421
 30
0.0
 11
47.71500026833741
 21
77.2512020833064
 31
0.0
  0
LINE
  5
204
330
18D
100
AcDbEntity
  8
1
  6
Continuous
 62
    10
100
AcDbLine
 10
47.71500026833741
 20
77.2512020833064
 30
0.0
 11
46.68618208186528
 21
77.18769508224173
 31
0.0
  0
LINE
  5
205
330
18D
100
AcDbEntity
  8
1
  6
Continuous
 62
    10
100
AcDbLine
 10
37.21382823048864
 20
75.46741129974839
 30
0.0
 11
37.973724159192
 21
79.56585987273618
 31
0.0
  0
LINE
  5
206
330
18D
100
AcDbEntity
  8
1
  6
Continuous
 62
    10
100
AcDbLine
 10
47.04625620900427
 20
73.64437510590074
 30
0.0
 11
47.80615205448018
 21
77.74282323000676
 31
0.0
  0
TEXT
  5
207
330
18D
100
AcDbEntity
  8
1
  6
Continuous
 62
     1
100
AcDbText
 10
42.37373590182523
 20
78.75005092700223
 30
0.0
 40
1.0
  1
5
 50
-10.50396533068785
100
AcDbText
  0
LINE
  5
208
330
18D
100
AcDbEntity
  8
1
  6
Continuous
 62
    10
100
AcDbLine
 10
52.63121035773177
 20
76.33968352704437
 30
0.0
 11
47.71500009800505
 21
77.25120116462999
 31
0.0
  0
LINE
  5
209
330
18D
100
AcDbEntity
  8
1
  6
Continuous
 62
    10
100
AcDbLine
 10
52.63121035773177
 20
76.33968352704437
 30
0.0
 11
57.5474206174585
 21
75.42816588945874
 31
0.0
  0
LINE
  5
20A
330
18D
100
AcDbEntity
  8
1
  6
Continuous
 62
    10
100
AcDbLine
 10
48.6526664983344
 20
76.82308701899429
 30
0.0
 11
47.71500009800505
 21
77.25120116462999
 31
0.0
  0
LINE
  5
20B
330
18D
100
AcDbEntity
  8
1
  6
Continuous
 62
    10
100
AcDbLine
 10
47.71500009800505
 20
77.25120116462999
 30
0.0
 11
48.74381828447717
 21
77.31470816569465
 31
0.0
  0
LINE
  5
20C
330
18D
100
AcDbEntity
  8
1
  6
Continuous
 62
    10
100
AcDbLine
 10
56.60975421712915
 20
75.85628003509444
 30
0.0
 11
57.5474206174585
 21
75.42816588945874
 31
0.0
  0
LINE
  5
20D
330
18D
100
AcDbEntity
  8
1
  6
Continuous
 62
    10
100
AcDbLine
 10
57.5474206174585
 20
75.42816588945874
 30
0.0
 11
56.51860243098638
 21
75.36465888839408
 31
0.0
  0
LINE
  5
20E
330
18D
100
AcDbEntity
  8
1
  6
Continuous
 62
    10
100
AcDbLine
 10
47.04625620900427
 20
73.64437510590074
 30
0.0
 11
47.80615188414781
 21
77.74282231133036
 31
0.0
  0
LINE
  5
20F
330
18D
100
AcDbEntity
  8
1
  6
Continuous
 62
    10
100
AcDbLine
 10
56.87867655812536
 20
71.82133891205308
 30
0.0
 11
57.63857240360126
 21
75.91978703615911
 31
0.0
  0
TEXT
  5
210
330
18D
100
AcDbEntity
  8
1
  6
Continuous
 62
     1
100
AcDbText
 10
52.20615993886368
 20
76.92701404937549
 30
0.0
 40
1.0
  1
5
 50
-10.50396533068785
100
AcDbText
  0
LINE
  5
211
330
18D
100
AcDbEntity
  8
1
  6
Continuous
 62
    10
100
AcDbLine
 10
27.84884631279074
 20
27.52381928851036
 30
0.0
 11
27.84884640021352
 21
25.52381928851036
 31
0.0
  0
LINE
  5
212
330
18D
100
AcDbEntity
  8
1
  6
Continuous
 62
    10
100
AcDbLine
 10
27.84884665373956
 20
19.72382005144982
 30
0.0
 11
27.84884656631678
 21
21.72382005144982
 31
0.0
  0
LINE
  5
213
330
18D
100
AcDbEntity
  8
1
  6
Continuous
 62
    10
100
AcDbLine
 10
28.09884635650212
 20
26.52381929943821
 30
0.0
 11
27.84884640021352
 21
25.52381928851036
 31
0.0
  0
LINE
  5
214
330
18D
100
AcDbEntity
  8
1
  6
Continuous
 62
    10
100
AcDbLine
 10
27.84884640021352
 20
25.52381928851036
 30
0.0
 11
27.59884635650212
 21
26.52381927758251
 31
0.0
  0
LINE
  5
215
330
18D
100
AcDbEntity
  8
1
  6
Continuous
 62
    10
100
AcDbLine
 10
27.59884661002816
 20
20.72382004052198
 30
0.0
 11
27.84884656631678
 21
21.72382005144982
 31
0.0
  0
LINE
  5
216
330
18D
100
AcDbEntity
  8
1
  6
Continuous
 62
    10
100
AcDbLine
 10
27.84884656631678
 20
21.72382005144982
 30
0.0
 11
28.09884661002816
 21
20.72382006237767
 31
0.0
  0
LINE
  5
217
330
18D
100
AcDbEntity
  8
1
  6
Continuous
 62
    10
100
AcDbLine
 10
21.55592346191406
 20
25.52381901343795
 30
0.0
 11
28.34884640021352
 21
25.52381931036606
 31
0.0
  0
LINE
  5
218
330
18D
100
AcDbEntity
  8
1
  6
Continuous
 62
    10
100
AcDbLine
 10
21.55592346191406
 20
21.7238197763774
 30
0.0
 11
28.34884656631677
 21
21.72382007330551
 31
0.0
  0
TEXT
  5
219
330
18D
100
AcDbEntity
  8
1
  6
Continuous
 62
     1
100
AcDbText
 10
27.34883395391213
 20
22.04630000499903
 30
0.0
 40
1.0
  1
1.9
 50
89.71352388012032
100
AcDbText
  0
LINE
  5
21A
330
18D
100
AcDbEntity
  8
1
  6
Continuous
 62
    10
100
AcDbLine
 10
4.209060779595802
 20
49.98032720792602
 30
0.0
 11
4.20906201472701
 21
21.72381941589556
 31
0.0
  0
LINE
  5
21B
330
18D
100
AcDbEntity
  8
1
  6
Continuous
 62
    10
100
AcDbLine
 10
4.209060779595802
 20
49.98032720792602
 30
0.0
 11
4.209059544464566
 21
78.23683499995649
 31
0.0
  0
LINE
  5
21C
330
18D
100
AcDbEntity
  8
1
  6
Continuous
 62
    10
100
AcDbLine
 10
4.459061971015615
 20
22.72381942682341
 30
0.0
 11
4.20906201472701
 21
21.72381941589556
 31
0.0
  0
LINE
  5
21D
330
18D
100
AcDbEntity
  8
1
  6
Continuous
 62
    10
100
AcDbLine
 10
4.20906201472701
 20
21.72381941589556
 30
0.0
 11
3.959061971015615
 21
22.72381940496771
 31
0.0
  0
LINE
  5
21E
330
18D
100
AcDbEntity
  8
1
  6
Continuous
 62
    10
100
AcDbLine
 10
3.959059588175961
 20
77.23683498902864
 30
0.0
 11
4.209059544464566
 21
78.23683499995649
 31
0.0
  0
LINE
  5
21F
330
18D
100
AcDbEntity
  8
1
  6
Continuous
 62
    10
100
AcDbLine
 10
4.209059544464566
 20
78.23683499995649
 30
0.0
 11
4.459059588175961
 21
77.23683501088433
 31
0.0
  0
LINE
  5
220
330
18D
100
AcDbEntity
  8
1
  6
Continuous
 62
    10
100
AcDbLine
 10
10.45592498779297
 20
21.72381968895463
 30
0.0
 11
3.70906201472701
 21
21.72381939403987
 31
0.0
  0
LINE
  5
221
330
18D
100
AcDbEntity
  8
1
  6
Continuous
 62
    10
100
AcDbLine
 10
14.18514251708984
 20
78.23683543602493
 30
0.0
 11
3.709059544464566
 21
78.23683497810079
 31
0.0
  0
TEXT
  5
222
330
18D
100
AcDbEntity
  8
1
  6
Continuous
 62
     1
100
AcDbText
 10
3.709048240379332
 20
47.87780098055319
 30
0.0
 40
1.0
  1
28.3
 50
89.71352388012032
100
AcDbText
  0
ARC
  5
223
330
18D
100
AcDbEntity
  8
1
  6
Continuous
 62
    10
100
AcDbCircle
 10
14.25592803955078
 20
74.54435729980469
 30
0.0
 40
26.06208184404366
100
AcDbArc
 50
270.0000006832453
 51
309.7480133505678
  0
ARC
  5
224
330
18D
100
AcDbEntity
  8
1
  6
Continuous
 62
    10
100
AcDbCircle
 10
14.25592803955078
 20
74.54435729980469
 30
0.0
 40
26.06208184404366
100
AcDbArc
 50
270.0000006832453
 51
309.7480133505678
  0
ARC
  5
225
330
18D
100
AcDbEntity
  8
1
  6
Continuous
 62
    10
100
AcDbCircle
 10
14.25592803955078
 20
74.54435729980469
 30
0.0
 40
26.06208184404366
100
AcDbArc
 50
309.7480133505678
 51
349.4960260178901
  0
ARC
  5
226
330
18D
100
AcDbEntity
  8
1
  6
Continuous
 62
    10
100
AcDbCircle
 10
14.25592803955078
 20
74.54435729980469
 30
0.0
 40
26.06208184404366
100
AcDbArc
 50
309.7480133505678
 51
349.4960260178901
  0
LINE
  5
227
330
18D
100
AcDbEntity
  8
1
  6
Continuous
 62
    10
100
AcDbLine
 10
15.26054027319564
 20
48.25150525739858
 30
0.0
 11
14.255928350338
 21
48.48227545576103
 31
0.0
  0
LINE
  5
228
330
18D
100
AcDbEntity
  8
1
  6
Continuous
 62
    10
100
AcDbLine
 10
14.255928350338
 20
48.48227545576103
 30
0.0
 11
15.25094837561825
 21
48.75141324443306
 31
0.0
  0
LINE
  5
229
330
18D
100
AcDbEntity
  8
1
  6
Continuous
 62
    10
100
AcDbLine
 10
39.43524494308677
 20
68.86386182986324
 30
0.0
 11
39.8812684358455
 21
69.79314275827363
 31
0.0
  0
LINE
  5
22A
330
18D
100
AcDbEntity
  8
1
  6
Continuous
 62
    10
100
AcDbLine
 10
39.8812684358455
 20
69.79314275827363
 30
0.0
 11
39.92502696736916
 21
68.76329558955447
 31
0.0
  0
LINE
  5
22B
330
18D
100
AcDbEntity
  8
1
  6
Continuous
 62
    10
100
AcDbLine
 10
14.255928350338
 20
48.48227545576103
 30
0.0
 11
14.255928350338
 21
48.48227545576103
 31
0.0
  0
LINE
  5
22C
330
18D
100
AcDbEntity
  8
1
  6
Continuous
 62
    10
100
AcDbLine
 10
39.8812684358455
 20
69.79314275827363
 30
0.0
 11
39.8812684358455
 21
69.79314275827363
 31
0.0
  0
TEXT
  5
22D
330
18D
100
AcDbEntity
  8
1
  6
Continuous
 62
     1
100
AcDbText
 10
29.89570185098023
 20
52.08180486780829
 30
0.0
 40
1.0
  1
79.5ø
100
AcDbText
  0
LINE
  5
22E
330
18D
100
AcDbEntity
  8
1
  6
Continuous
 62
    10
100
AcDbLine
 10
61.69965059654443
 20
71.64663917167115
 30
0.0
 11
61.33504289326729
 21
69.68015468845982
 31
0.0
  0
LINE
  5
22F
330
18D
100
AcDbEntity
  8
1
  6
Continuous
 62
    10
100
AcDbLine
 10
59.29189885555979
 20
58.66060954170347
 30
0.0
 11
60.64228819405186
 21
65.94383383063249
 31
0.0
  0
LINE
  5
230
330
18D
100
AcDbEntity
  8
1
  6
Continuous
 62
    10
100
AcDbLine
 10
61.76315730530729
 20
70.61782096715584
 30
0.0
 11
61.33504289326729
 21
69.68015468845982
 31
0.0
  0
LINE
  5
231
330
18D
100
AcDbEntity
  8
1
  6
Continuous
 62
    10
100
AcDbLine
 10
61.33504289326729
 20
69.68015468845982
 30
0.0
 11
61.27153618450444
 21
70.70897289297514
 31
0.0
  0
LINE
  5
232
330
18D
100
AcDbEntity
  8
1
  6
Continuous
 62
    10
100
AcDbLine
 10
60.21417378201187
 20
65.00616755193647
 30
0.0
 11
60.64228819405186
 21
65.94383383063249
 31
0.0
  0
LINE
  5
233
330
18D
100
AcDbEntity
  8
1
  6
Continuous
 62
    10
100
AcDbLine
 10
60.64228819405186
 20
65.94383383063249
 30
0.0
 11
60.70579490281472
 21
64.91501562611718
 31
0.0
  0
LINE
  5
234
330
18D
100
AcDbEntity
  8
1
  6
Continuous
 62
    10
100
AcDbLine
 10
60.57594660116777
 20
69.82089943269325
 30
0.0
 11
60.84342177246445
 21
69.7713066142791
 31
0.0
  0
LINE
  5
235
330
18D
100
AcDbEntity
  8
1
  6
Continuous
 62
    10
100
AcDbLine
 10
59.88318994833574
 20
66.08457893708778
 30
0.0
 11
60.15066707324902
 21
66.03498575645177
 31
0.0
  0
TEXT
  5
236
330
18D
100
AcDbEntity
  8
1
  6
Continuous
 62
     1
100
AcDbText
 10
58.80027773475696
 20
58.75176146752275
 30
0.0
 40
1.0
  1
1.9
 50
79.49601850445563
100
AcDbText
  0
LINE
  5
237
330
18D
100
AcDbEntity
  8
1
  6
Continuous
 62
    10
100
AcDbLine
 10
179.0726623535156
 20
36.89870784312785
 30
0.0
 11
179.072663016831
 21
21.7238205901409
 31
0.0
  0
LINE
  5
238
330
18D
100
AcDbEntity
  8
1
  6
Continuous
 62
    10
100
AcDbLine
 10
179.0726623535156
 20
36.89870784312785
 30
0.0
 11
179.0726616902002
 21
52.0735950961148
 31
0.0
  0
LINE
  5
239
330
18D
100
AcDbEntity
  8
1
  6
Continuous
 62
    10
100
AcDbLine
 10
179.3226629731196
 20
22.72382060106875
 30
0.0
 11
179.072663016831
 21
21.7238205901409
 31
0.0
  0
LINE
  5
23A
330
18D
100
AcDbEntity
  8
1
  6
Continuous
 62
    10
100
AcDbLine
 10
179.072663016831
 20
21.7238205901409
 30
0.0
 11
178.8226629731196
 21
22.72382057921305
 31
0.0
  0
LINE
  5
23B
330
18D
100
AcDbEntity
  8
1
  6
Continuous
 62
    10
100
AcDbLine
 10
178.8226617339115
 20
51.07359508518696
 30
0.0
 11
179.0726616902002
 21
52.0735950961148
 31
0.0
  0
LINE
  5
23C
330
18D
100
AcDbEntity
  8
1
  6
Continuous
 62
    10
100
AcDbLine
 10
179.0726616902002
 20
52.0735950961148
 30
0.0
 11
179.3226617339115
 21
51.07359510704265
 31
0.0
  0
LINE
  5
23D
330
18D
100
AcDbEntity
  8
1
  6
Continuous
 62
    10
100
AcDbLine
 10
160.455924987793
 20
21.7238197763774
 30
0.0
 11
179.572663016831
 21
21.7238206119966
 31
0.0
  0
LINE
  5
23E
330
18D
100
AcDbEntity
  8
1
  6
Continuous
 62
    10
100
AcDbLine
 10
157.1314544677734
 20
52.07359413703414
 30
0.0
 11
179.5726616902002
 21
52.0735951179705
 31
0.0
  0
TEXT
  5
23F
330
18D
100
AcDbEntity
  8
1
  6
Continuous
 62
     1
100
AcDbText
 10
178.5726498142991
 20
34.796181615755
 30
0.0
 40
1.0
  1
15.2
 50
89.71352388012032
100
AcDbText
  0
LINE
  5
240
330
18D
100
AcDbEntity
  8
1
  6
Continuous
 62
    10
100
AcDbLine
 10
169.0267791748047
 20
34.10122017734582
 30
0.0
 11
169.026779715838
 21
21.72382015102138
 31
0.0
  0
LINE
  5
241
330
18D
100
AcDbEntity
  8
1
  6
Continuous
 62
    10
100
AcDbLine
 10
169.0267791748047
 20
34.10122017734582
 30
0.0
 11
169.0267786337713
 21
46.47862020367027
 31
0.0
  0
LINE
  5
242
330
18D
100
AcDbEntity
  8
1
  6
Continuous
 62
    10
100
AcDbLine
 10
169.2767796721266
 20
22.72382016194922
 30
0.0
 11
169.026779715838
 21
21.72382015102138
 31
0.0
  0
LINE
  5
243
330
18D
100
AcDbEntity
  8
1
  6
Continuous
 62
    10
100
AcDbLine
 10
169.026779715838
 20
21.72382015102138
 30
0.0
 11
168.7767796721266
 21
22.72382014009353
 31
0.0
  0
LINE
  5
244
330
18D
100
AcDbEntity
  8
1
  6
Continuous
 62
    10
100
AcDbLine
 10
168.7767786774827
 20
45.47862019274243
 30
0.0
 11
169.0267786337713
 21
46.47862020367027
 31
0.0
  0
LINE
  5
245
330
18D
100
AcDbEntity
  8
1
  6
Continuous
 62
    10
100
AcDbLine
 10
169.0267786337713
 20
46.47862020367027
 30
0.0
 11
169.2767786774827
 21
45.47862021459812
 31
0.0
  0
LINE
  5
246
330
18D
100
AcDbEntity
  8
1
  6
Continuous
 62
    10
100
AcDbLine
 10
160.455924987793
 20
21.7238197763774
 30
0.0
 11
169.526779715838
 21
21.72382017287707
 31
0.0
  0
LINE
  5
247
330
18D
100
AcDbEntity
  8
1
  6
Continuous
 62
    10
100
AcDbLine
 10
155.6559295654297
 20
46.47861961921187
 30
0.0
 11
169.5267786337713
 21
46.47862022552597
 31
0.0
  0
TEXT
  5
248
330
18D
100
AcDbEntity
  8
1
  6
Continuous
 62
     1
100
AcDbText
 10
168.5267666355882
 20
31.99869394997298
 30
0.0
 40
1.0
  1
12.4
 50
89.71352388012032
100
AcDbText
  0
LINE
  5
249
330
18D
100
AcDbEntity
  8
1
  6
Continuous
 62
    10
100
AcDbLine
 10
83.45966339111328
 20
60.64514923095703
 30
0.0
 11
71.6467056274414
 21
56.8413200378418
 31
0.0
  0
LINE
  5
24A
330
18D
100
AcDbEntity
  8
1
  6
Continuous
 62
    10
100
AcDbLine
 10
82.43116818918003
 20
60.57661004800092
 30
0.0
 11
83.45966339111328
 21
60.64514923095703
 31
0.0
  0
LINE
  5
24B
330
18D
100
AcDbEntity
  8
1
  6
Continuous
 62
    10
100
AcDbLine
 10
83.45966339111328
 20
60.64514923095703
 30
0.0
 11
82.58442135785742
 21
60.10067573920364
 31
0.0
  0
TEXT
  5
24C
330
18D
100
AcDbEntity
  8
1
  6
Continuous
 62
     1
100
AcDbText
 10
68.73018244079049
 20
55.37690291771261
 30
0.0
 40
1.0
  1
R1
 50
17.84880925466107
100
AcDbText
  0
LINE
  5
24D
330
18D
100
AcDbEntity
  8
1
  6
Continuous
 62
    10
100
AcDbLine
 10
16.25592803955078
 20
72.13945007324219
 30
0.0
 11
14.5535888671875
 21
73.18923950195312
 31
0.0
  0
LINE
  5
24E
330
18D
100
AcDbEntity
  8
1
  6
Continuous
 62
    10
100
AcDbLine
 10
14.5535888671875
 20
73.18923950195312
 30
0.0
 11
3.007461547851562
 21
80.30946731567383
 31
0.0
  0
LINE
  5
24F
330
18D
100
AcDbEntity
  8
1
  6
Continuous
 62
    10
100
AcDbLine
 10
13.83364554104891
 20
73.92692616114422
 30
0.0
 11
14.5535888671875
 21
73.18923950195312
 31
0.0
  0
LINE
  5
250
330
18D
100
AcDbEntity
  8
1
  6
Continuous
 62
    10
100
AcDbLine
 10
14.5535888671875
 20
73.18923950195312
 30
0.0
 11
13.57119809274
 21
73.5013426359977
 31
0.0
  0
TEXT
  5
251
330
18D
100
AcDbEntity
  8
1
  6
Continuous
 62
     1
100
AcDbText
 10
-0.0000001324532093
 20
81.57666865780477
 30
0.0
 40
1.0
  1
R1
 50
-31.66114564334101
100
AcDbText
  0
LINE
  5
252
330
18D
100
AcDbEntity
  8
1
  6
Continuous
 62
    10
100
AcDbLine
 10
14.45592498779297
 20
74.30386734008789
 30
0.0
 11
11.57295227050781
 21
77.07667541503906
 31
0.0
  0
LINE
  5
253
330
18D
100
AcDbEntity
  8
1
  6
Continuous
 62
    10
100
AcDbLine
 10
11.57295227050781
 20
77.07667541503906
 30
0.0
 11
4.845184326171875
 21
83.54736328125
 31
0.0
  0
LINE
  5
254
330
18D
100
AcDbEntity
  8
1
  6
Continuous
 62
    10
100
AcDbLine
 10
11.02550970343736
 20
77.95006343634421
 30
0.0
 11
11.57295227050781
 21
77.07667541503906
 31
0.0
  0
LINE
  5
255
330
18D
100
AcDbEntity
  8
1
  6
Continuous
 62
    10
100
AcDbLine
 10
11.57295227050781
 20
77.07667541503906
 30
0.0
 11
10.67890858365499
 21
77.5896918728634
 31
0.0
  0
TEXT
  5
256
330
18D
100
AcDbEntity
  8
1
  6
Continuous
 62
     1
100
AcDbText
 10
2.174185940372666
 20
85.42256796955957
 30
0.0
 40
1.0
  1
R2
 50
-43.88411067253733
100
AcDbText
  0
LINE
  5
257
330
18D
100
AcDbEntity
  8
1
  6
Continuous
 62
    10
100
AcDbLine
 10
87.44879531860352
 20
59.18830871582031
 30
0.0
 11
92.41544342041016
 21
57.61957168579102
 31
0.0
  0
LINE
  5
258
330
18D
100
AcDbEntity
  8
1
  6
Continuous
 62
    10
100
AcDbLine
 10
88.32706348043595
 20
58.64873014331074
 30
0.0
 11
87.44879531860352
 21
59.18830871582031
 31
0.0
  0
LINE
  5
259
330
18D
100
AcDbEntity
  8
1
  6
Continuous
 62
    10
100
AcDbLine
 10
87.44879531860352
 20
59.18830871582031
 30
0.0
 11
88.47765714257781
 21
59.12551263976243
 31
0.0
  0
TEXT
  5
25A
330
18D
100
AcDbEntity
  8
1
  6
Continuous
 62
     1
100
AcDbText
 10
93.33761027288226
 20
56.80395333374044
 30
0.0
 40
1.0
  1
R1
 50
-17.52893772176549
100
AcDbText
  0
LINE
  5
25B
330
18D
100
AcDbEntity
  8
1
  6
Continuous
 62
    10
100
AcDbLine
 10
154.6559257507324
 20
46.47861957550049
 30
0.0
 11
156.5892524719238
 21
46.99072265625
 31
0.0
  0
LINE
  5
25C
330
18D
100
AcDbEntity
  8
1
  6
Continuous
 62
    10
100
AcDbLine
 10
156.5892524719238
 20
46.99072265625
 30
0.0
 11
167.9656105041504
 21
50.00411510467529
 31
0.0
  0
LINE
  5
25D
330
18D
100
AcDbEntity
  8
1
  6
Continuous
 62
    10
100
AcDbLine
 10
157.6199284862453
 20
47.00510853482906
 30
0.0
 11
156.5892524719238
 21
46.99072265625
 31
0.0
  0
LINE
  5
25E
330
18D
100
AcDbEntity
  8
1
  6
Continuous
 62
    10
100
AcDbLine
 10
156.5892524719238
 20
46.99072265625
 30
0.0
 11
157.4919026593467
 21
47.48844008526514
 31
0.0
  0
TEXT
  5
25F
330
18D
100
AcDbEntity
  8
1
  6
Continuous
 62
     1
100
AcDbText
 10
169.1811323104026
 20
49.80884160794506
 30
0.0
 40
1.0
  1
R1
 50
14.83590683015076
100
AcDbText
  0
LINE
  5
260
330
18D
100
AcDbEntity
  8
1
  6
Continuous
 62
    10
100
AcDbLine
 10
154.455924987793
 20
46.31229305267334
 30
0.0
 11
159.5069255828857
 21
49.55071926116943
 31
0.0
  0
LINE
  5
261
330
18D
100
AcDbEntity
  8
1
  6
Continuous
 62
    10
100
AcDbLine
 10
159.5069255828857
 20
49.55071926116943
 30
0.0
 11
167.9373168945312
 21
54.95582962036133
 31
0.0
  0
LINE
  5
262
330
18D
100
AcDbEntity
  8
1
  6
Continuous
 62
    10
100
AcDbLine
 10
160.4836932024184
 20
49.87999880416059
 30
0.0
 11
159.5069255828857
 21
49.55071926116943
 31
0.0
  0
LINE
  5
263
330
18D
100
AcDbEntity
  8
1
  6
Continuous
 62
    10
100
AcDbLine
 10
159.5069255828857
 20
49.55071926116943
 30
0.0
 11
160.2138242857717
 21
50.30091538476524
 31
0.0
  0
TEXT
  5
264
330
18D
100
AcDbEntity
  8
1
  6
Continuous
 62
     1
100
AcDbText
 10
169.1542481314864
 20
55.14211801109712
 30
0.0
 40
1.0
  1
R3
 50
32.66578951693619
100
AcDbText
  0
LINE
  5
265
330
18D
100
AcDbEntity
  8
1
  6
Continuous
 62
    10
100
AcDbLine
 10
126.7479686737061
 20
58.0604248046875
 30
0.0
 11
126.6430044174194
 21
57.57156562805176
 31
0.0
  0
LINE
  5
266
330
18D
100
AcDbEntity
  8
1
  6
Continuous
 62
    10
100
AcDbLine
 10
126.6430044174194
 20
57.57156562805176
 30
0.0
 11
125.7791948318481
 21
53.54848766326904
 31
0.0
  0
LINE
  5
267
330
18D
100
AcDbEntity
  8
1
  6
Continuous
 62
    10
100
AcDbLine
 10
126.1886461993556
 20
56.64633127412955
 30
0.0
 11
126.6430044174194
 21
57.57156562805176
 31
0.0
  0
LINE
  5
268
330
18D
100
AcDbEntity
  8
1
  6
Continuous
 62
    10
100
AcDbLine
 10
126.6430044174194
 20
57.57156562805176
 30
0.0
 11
126.6775045092088
 21
56.54136674256094
 31
0.0
  0
TEXT
  5
269
330
18D
100
AcDbEntity
  8
1
  6
Continuous
 62
     1
100
AcDbText
 10
125.1501811368476
 20
48.2371821014037
 30
0.0
 40
1.0
  1
R0.3
 50
77.88180756819351
100
AcDbText
  0
LINE
  5
26A
330
18D
100
AcDbEntity
  8
1
  6
Continuous
 62
    10
100
AcDbLine
 10
125.6846513748169
 20
58.55010986328125
 30
0.0
 11
123.1244640350342
 21
51.03922176361084
 31
0.0
  0
LINE
  5
26B
330
18D
100
AcDbEntity
  8
1
  6
Continuous
 62
    10
100
AcDbLine
 10
125.1253871312515
 20
57.68424410817294
 30
0.0
 11
125.6846513748169
 21
58.55010986328125
 31
0.0
  0
LINE
  5
26C
330
18D
100
AcDbEntity
  8
1
  6
Continuous
 62
    10
100
AcDbLine
 10
125.6846513748169
 20
58.55010986328125
 30
0.0
 11
125.5986491623102
 21
57.52292749415493
 31
0.0
  0
TEXT
  5
26D
330
18D
100
AcDbEntity
  8
1
  6
Continuous
 62
     1
100
AcDbText
 10
121.8796927685272
 20
45.8376672369257
 30
0.0
 40
1.0
  1
R0.3
 50
71.17762855817833
100
AcDbText
  0
LINE
  5
26E
330
18D
100
AcDbEntity
  8
1
  6
Continuous
 62
     1
100
AcDbLine
 10
160.4559256968461
 20
46.31229275281769
 30
0.0
 11
160.4559256968461
 21
22.72381865965318
 31
0.0
  0
LINE
  5
26F
330
18D
100
AcDbEntity
  8
1
  6
Continuous
 62
     1
100
AcDbLine
 10
84.55592569684609
 20
21.72381865965318
 30
0.0
 11
86.35592569684607
 21
21.72381865965318
 31
0.0
  0
LINE
  5
270
330
18D
100
AcDbEntity
  8
1
  6
Continuous
 62
     1
100
AcDbLine
 10
157.6559256968461
 20
21.72381865965318
 30
0.0
 11
159.4559256968461
 21
21.72381865965318
 31
0.0
  0
ARC
  5
271
330
18D
100
AcDbEntity
  8
1
  6
Continuous
 62
     1
100
AcDbCircle
 10
159.4559256968461
 20
22.72381865965318
 30
0.0
 40
1.0
100
AcDbArc
 50
270.0
 51
0.0
  0
ARC
  5
272
330
18D
100
AcDbEntity
  8
1
  6
Continuous
 62
     1
100
AcDbCircle
 10
159.4559256968461
 20
22.72381865965318
 30
0.0
 40
1.0
100
AcDbArc
 50
270.0
 51
0.0
  0
ARC
  5
273
330
18D
100
AcDbEntity
  8
1
  6
Continuous
 62
     1
100
AcDbCircle
 10
154.4559256968461
 20
46.31229275281769
 30
0.0
 40
6.0
100
AcDbArc
 50
0.0
 51
73.78423394794189
  0
ARC
  5
274
330
18D
100
AcDbEntity
  8
1
  6
Continuous
 62
     1
100
AcDbCircle
 10
154.4559256968461
 20
46.31229275281769
 30
0.0
 40
6.0
100
AcDbArc
 50
0.0
 51
73.78423394794189
  0
LINE
  5
275
330
18D
100
AcDbEntity
  8
1
  6
Continuous
 62
     1
100
AcDbLine
 10
83.55592569684609
 20
60.03213677444916
 30
0.0
 11
83.55592569684609
 21
22.72381865965318
 31
0.0
  0
LINE
  5
276
330
18D
100
AcDbEntity
  8
1
  6
Continuous
 62
     1
100
AcDbLine
 10
87.35592569684607
 20
58.58593381425929
 30
0.0
 11
87.35592569684607
 21
22.72381865965318
 31
0.0
  0
ARC
  5
277
330
18D
100
AcDbEntity
  8
1
  6
Continuous
 62
     1
100
AcDbCircle
 10
84.55592569684609
 20
22.72381865965318
 30
0.0
 40
1.0
100
AcDbArc
 50
180.0
 51
270.0
  0
ARC
  5
278
330
18D
100
AcDbEntity
  8
1
  6
Continuous
 62
     1
100
AcDbCircle
 10
84.55592569684609
 20
22.72381865965318
 30
0.0
 40
1.0
100
AcDbArc
 50
180.0
 51
270.0
  0
ARC
  5
279
330
18D
100
AcDbEntity
  8
1
  6
Continuous
 62
     1
100
AcDbCircle
 10
86.35592569684607
 20
22.72381865965318
 30
0.0
 40
1.0
100
AcDbArc
 50
270.0
 51
0.0
  0
ARC
  5
27A
330
18D
100
AcDbEntity
  8
1
  6
Continuous
 62
     1
100
AcDbCircle
 10
86.35592569684607
 20
22.72381865965318
 30
0.0
 40
1.0
100
AcDbArc
 50
270.0
 51
0.0
  0
LINE
  5
27B
330
18D
100
AcDbEntity
  8
1
  6
Continuous
 62
     1
100
AcDbLine
 10
156.6559256968461
 20
46.47861928856714
 30
0.0
 11
156.6559256968461
 21
22.72381865965318
 31
0.0
  0
ARC
  5
27C
330
18D
100
AcDbEntity
  8
1
  6
Continuous
 62
     1
100
AcDbCircle
 10
157.6559256968461
 20
22.72381865965318
 30
0.0
 40
1.0
100
AcDbArc
 50
180.0
 51
270.0
  0
ARC
  5
27D
330
18D
100
AcDbEntity
  8
1
  6
Continuous
 62
     1
100
AcDbCircle
 10
157.6559256968461
 20
22.72381865965318
 30
0.0
 40
1.0
100
AcDbArc
 50
180.0
 51
270.0
  0
LINE
  5
27E
330
18D
100
AcDbEntity
  8
1
  6
Continuous
 62
     1
100
AcDbLine
 10
10.45592569684607
 20
22.72381865965316
 30
0.0
 11
10.45592569684607
 21
74.30386841120475
 31
0.0
  0
LINE
  5
27F
330
18D
100
AcDbEntity
  8
1
  6
Continuous
 62
     1
100
AcDbLine
 10
11.45592569684607
 20
21.72381865965316
 30
0.0
 11
20.55592569684609
 21
21.7238186596532
 31
0.0
  0
ARC
  5
280
330
18D
100
AcDbEntity
  8
1
  6
Continuous
 62
     1
100
AcDbCircle
 10
11.45592569684607
 20
22.72381865965316
 30
0.0
 40
1.0
100
AcDbArc
 50
180.0
 51
270.0
  0
ARC
  5
281
330
18D
100
AcDbEntity
  8
1
  6
Continuous
 62
     1
100
AcDbCircle
 10
11.45592569684607
 20
22.72381865965316
 30
0.0
 40
1.0
100
AcDbArc
 50
180.0
 51
270.0
  0
ARC
  5
282
330
18D
100
AcDbEntity
  8
1
  6
Continuous
 62
     1
100
AcDbCircle
 10
14.45592569684607
 20
74.30386841120475
 30
0.0
 40
4.0
100
AcDbArc
 50
79.49603441123347
 51
180.0
  0
ARC
  5
283
330
18D
100
AcDbEntity
  8
1
  6
Continuous
 62
     1
100
AcDbCircle
 10
14.45592569684607
 20
74.30386841120475
 30
0.0
 40
4.0
100
AcDbArc
 50
79.49603441123347
 51
180.0
  0
LINE
  5
284
330
18D
100
AcDbEntity
  8
1
  6
Continuous
 62
     1
100
AcDbLine
 10
14.25592569684608
 20
26.52381865965316
 30
0.0
 11
14.25592569684608
 21
72.13945130014132
 31
0.0
  0
LINE
  5
285
330
18D
100
AcDbEntity
  8
1
  6
Continuous
 62
     1
100
AcDbLine
 10
15.25592569684608
 20
25.52381865965316
 30
0.0
 11
20.55592569684609
 21
25.52381865965316
 31
0.0
  0
ARC
  5
286
330
18D
100
AcDbEntity
  8
1
  6
Continuous
 62
     1
100
AcDbCircle
 10
15.25592569684608
 20
26.52381865965316
 30
0.0
 40
1.0
100
AcDbArc
 50
180.0
 51
270.0
  0
ARC
  5
287
330
18D
100
AcDbEntity
  8
1
  6
Continuous
 62
     1
100
AcDbCircle
 10
15.25592569684608
 20
26.52381865965316
 30
0.0
 40
1.0
100
AcDbArc
 50
180.0
 51
270.0
  0
ARC
  5
288
330
18D
100
AcDbEntity
  8
1
  6
Continuous
 62
     1
100
AcDbCircle
 10
20.55592569684609
 20
23.62381865965318
 30
0.0
 40
1.899999999999977
100
AcDbArc
 50
270.0
 51
90.0
  0
ARC
  5
289
330
18D
100
AcDbEntity
  8
1
  6
Continuous
 62
     1
100
AcDbCircle
 10
20.55592569684609
 20
23.62381865965318
 30
0.0
 40
1.899999999999977
100
AcDbArc
 50
270.0
 51
90.0
  0
LINE
  5
28A
330
18D
100
AcDbEntity
  8
1
  6
Continuous
 62
     1
100
AcDbLine
 10
15.18514001150726
 20
78.23683758007617
 30
0.0
 11
16.1264080146193
 21
78.06231648104634
 31
0.0
  0
LINE
  5
28B
330
18D
100
AcDbEntity
  8
1
  6
Continuous
 62
     1
100
AcDbLine
 10
18.5001648915904
 20
77.62219670896343
 30
0.0
 11
25.9588309367978
 21
76.23928069439333
 31
0.0
  0
LINE
  5
28C
330
18D
100
AcDbEntity
  8
1
  6
Continuous
 62
     1
100
AcDbLine
 10
28.33258781376892
 20
75.79916092231042
 30
0.0
 11
35.79125385897638
 21
74.41624490774038
 31
0.0
  0
LINE
  5
28D
330
18D
100
AcDbEntity
  8
1
  6
Continuous
 62
     1
100
AcDbLine
 10
38.1650107359475
 20
73.97612513565747
 30
0.0
 11
45.62367678115496
 21
72.59320912108737
 31
0.0
  0
LINE
  5
28E
330
18D
100
AcDbEntity
  8
1
  6
Continuous
 62
     1
100
AcDbLine
 10
47.99743365812606
 20
72.15308934900446
 30
0.0
 11
55.45609970333351
 21
70.77017333443439
 31
0.0
  0
LINE
  5
28F
330
18D
100
AcDbEntity
  8
1
  6
Continuous
 62
     1
100
AcDbLine
 10
57.82985658030464
 20
70.33005356235148
 30
0.0
 11
65.28852262551209
 21
68.94713754778138
 31
0.0
  0
LINE
  5
290
330
18D
100
AcDbEntity
  8
1
  6
Continuous
 62
     1
100
AcDbLine
 10
67.66227950248319
 20
68.50701777569847
 30
0.0
 11
75.12094554769064
 21
67.12410176112834
 31
0.0
  0
LINE
  5
291
330
18D
100
AcDbEntity
  8
1
  6
Continuous
 62
     1
100
AcDbLine
 10
77.49470242466175
 20
66.68398198904544
 30
0.0
 11
84.95336846986919
 21
65.30106597447536
 31
0.0
  0
LINE
  5
292
330
18D
100
AcDbEntity
  8
1
  6
Continuous
 62
     1
100
AcDbLine
 10
87.3271253468403
 20
64.86094620239246
 30
0.0
 11
94.78579139204776
 21
63.47803018782236
 31
0.0
  0
LINE
  5
293
330
18D
100
AcDbEntity
  8
1
  6
Continuous
 62
     1
100
AcDbLine
 10
97.15954826901887
 20
63.03791041573945
 30
0.0
 11
104.6182143142263
 21
61.65499440116938
 31
0.0
  0
LINE
  5
294
330
18D
100
AcDbEntity
  8
1
  6
Continuous
 62
     1
100
AcDbLine
 10
106.9919711911975
 20
61.21487462908647
 30
0.0
 11
114.4506372364049
 21
59.83195861451637
 31
0.0
  0
LINE
  5
295
330
18D
100
AcDbEntity
  8
1
  6
Continuous
 62
     1
100
AcDbLine
 10
116.824394113376
 20
59.39183884243347
 30
0.0
 11
124.2830601585835
 21
58.00892282786337
 31
0.0
  0
LINE
  5
296
330
18D
100
AcDbEntity
  8
1
  6
Continuous
 62
     1
100
AcDbLine
 10
126.6568170355546
 20
57.56880305578046
 30
0.0
 11
134.115483080762
 21
56.18588704121039
 31
0.0
  0
LINE
  5
297
330
18D
100
AcDbEntity
  8
1
  6
Continuous
 62
     1
100
AcDbLine
 10
136.4892399577332
 20
55.74576726912748
 30
0.0
 11
143.9479060029406
 21
54.36285125455737
 31
0.0
  0
LINE
  5
298
330
18D
100
AcDbEntity
  8
1
  6
Continuous
 62
     1
100
AcDbLine
 10
146.3216628799117
 20
53.92273148247446
 30
0.0
 11
153.7803289251192
 21
52.5398154679044
 31
0.0
  0
LINE
  5
299
330
18D
100
AcDbEntity
  8
1
  6
Continuous
 62
     1
100
AcDbLine
 10
16.62053285417667
 20
74.10593588457704
 30
0.0
 11
81.9205328541767
 21
61.99862135888488
 31
0.0
  0
LINE
  5
29A
330
18D
100
AcDbEntity
  8
1
  6
Continuous
 62
     1
100
AcDbLine
 10
89.72053285417668
 20
60.552418398695
 30
0.0
 11
155.0205328541767
 21
48.44510387300285
 31
0.0
  0
ARC
  5
29B
330
18D
100
AcDbEntity
  8
1
  6
Continuous
 62
     1
100
AcDbCircle
 10
16.25592569684608
 20
72.13945130014132
 30
0.0
 40
2.0
100
AcDbArc
 50
79.49603441123345
 51
180.0
  0
ARC
  5
29C
330
18D
100
AcDbEntity
  8
1
  6
Continuous
 62
     1
100
AcDbCircle
 10
16.25592569684608
 20
72.13945130014132
 30
0.0
 40
2.0
100
AcDbArc
 50
79.49603441123345
 51
180.0
  0
ARC
  5
29D
330
18D
100
AcDbEntity
  8
1
  6
Continuous
 62
     1
100
AcDbCircle
 10
81.55592569684609
 20
60.03213677444916
 30
0.0
 40
2.0
100
AcDbArc
 50
0.0
 51
79.49603441123331
  0
ARC
  5
29E
330
18D
100
AcDbEntity
  8
1
  6
Continuous
 62
     1
100
AcDbCircle
 10
81.55592569684609
 20
60.03213677444916
 30
0.0
 40
2.0
100
AcDbArc
 50
0.0
 51
79.49603441123331
  0
ARC
  5
29F
330
18D
100
AcDbEntity
  8
1
  6
Continuous
 62
     1
100
AcDbCircle
 10
89.35592569684607
 20
58.58593381425929
 30
0.0
 40
2.0
100
AcDbArc
 50
79.49603441123334
 51
180.0
  0
ARC
  5
2A0
330
18D
100
AcDbEntity
  8
1
  6
Continuous
 62
     1
100
AcDbCircle
 10
89.35592569684607
 20
58.58593381425929
 30
0.0
 40
2.0
100
AcDbArc
 50
79.49603441123334
 51
180.0
  0
ARC
  5
2A1
330
18D
100
AcDbEntity
  8
1
  6
Continuous
 62
     1
100
AcDbCircle
 10
154.6559256968461
 20
46.47861928856714
 30
0.0
 40
2.0
100
AcDbArc
 50
0.0
 51
79.49603441123347
  0
ARC
  5
2A2
330
18D
100
AcDbEntity
  8
1
  6
Continuous
 62
     1
100
AcDbCircle
 10
154.6559256968461
 20
46.47861928856714
 30
0.0
 40
2.0
100
AcDbArc
 50
0.0
 51
79.49603441123347
  0
LINE
  5
2A3
330
18D
100
AcDbEntity
  8
1
  6
Continuous
 62
     1
100
AcDbLine
 10
16.50073440178588
 20
78.14185493261255
 30
0.0
 11
17.08350733722739
 21
78.54232428938882
 31
0.0
  0
LINE
  5
2A4
330
18D
100
AcDbEntity
  8
1
  6
Continuous
 62
     1
100
AcDbLine
 10
17.77876462960404
 20
78.41341619268002
 30
0.0
 11
18.17923398638032
 21
77.83064325723844
 31
0.0
  0
ARC
  5
2A5
330
18D
100
AcDbEntity
  8
1
  6
Continuous
 62
     1
100
AcDbCircle
 10
16.21755980395193
 20
78.55393762715526
 30
0.0
 40
0.5
100
AcDbArc
 50
259.4960344112326
 51
304.4960344112353
  0
ARC
  5
2A6
330
18D
100
AcDbEntity
  8
1
  6
Continuous
 62
     1
100
AcDbCircle
 10
16.21755980395193
 20
78.55393762715526
 30
0.0
 40
0.5
100
AcDbArc
 50
259.4960344112326
 51
304.4960344112353
  0
ARC
  5
2A7
330
18D
100
AcDbEntity
  8
1
  6
Continuous
 62
     1
100
AcDbCircle
 10
17.36668193506131
 20
78.1302415948461
 30
0.0
 40
0.5
100
AcDbArc
 50
34.49603441123307
 51
124.4960344112354
  0
ARC
  5
2A8
330
18D
100
AcDbEntity
  8
1
  6
Continuous
 62
     1
100
AcDbCircle
 10
17.36668193506131
 20
78.1302415948461
 30
0.0
 40
0.5
100
AcDbArc
 50
34.49603441123307
 51
124.4960344112354
  0
ARC
  5
2A9
330
18D
100
AcDbEntity
  8
1
  6
Continuous
 62
     1
100
AcDbCircle
 10
18.59131668092306
 20
78.11381785507236
 30
0.0
 40
0.5
100
AcDbArc
 50
214.4960344112327
 51
259.4960344112327
  0
ARC
  5
2AA
330
18D
100
AcDbEntity
  8
1
  6
Continuous
 62
     1
100
AcDbCircle
 10
18.59131668092306
 20
78.11381785507236
 30
0.0
 40
0.5
100
AcDbArc
 50
214.4960344112327
 51
259.4960344112327
  0
LINE
  5
2AB
330
18D
100
AcDbEntity
  8
1
  6
Continuous
 62
     1
100
AcDbLine
 10
65.66284901267866
 20
69.02667599934759
 30
0.0
 11
66.24562194812017
 21
69.42714535612387
 31
0.0
  0
LINE
  5
2AC
330
18D
100
AcDbEntity
  8
1
  6
Continuous
 62
     1
100
AcDbLine
 10
66.94087924049684
 20
69.29823725941506
 30
0.0
 11
67.34134859727311
 21
68.71546432397349
 31
0.0
  0
ARC
  5
2AD
330
18D
100
AcDbEntity
  8
1
  6
Continuous
 62
     1
100
AcDbCircle
 10
65.37967441484473
 20
69.43875869389032
 30
0.0
 40
0.5
100
AcDbArc
 50
259.4960344112326
 51
304.4960344112353
  0
ARC
  5
2AE
330
18D
100
AcDbEntity
  8
1
  6
Continuous
 62
     1
100
AcDbCircle
 10
65.37967441484473
 20
69.43875869389032
 30
0.0
 40
0.5
100
AcDbArc
 50
259.4960344112326
 51
304.4960344112353
  0
ARC
  5
2AF
330
18D
100
AcDbEntity
  8
1
  6
Continuous
 62
     1
100
AcDbCircle
 10
66.52879654595411
 20
69.01506266158114
 30
0.0
 40
0.5
100
AcDbArc
 50
34.49603441123307
 51
124.4960344112354
  0
ARC
  5
2B0
330
18D
100
AcDbEntity
  8
1
  6
Continuous
 62
     1
100
AcDbCircle
 10
66.52879654595411
 20
69.01506266158114
 30
0.0
 40
0.5
100
AcDbArc
 50
34.49603441123307
 51
124.4960344112354
  0
ARC
  5
2B1
330
18D
100
AcDbEntity
  8
1
  6
Continuous
 62
     1
100
AcDbCircle
 10
67.75343129181584
 20
68.99863892180741
 30
0.0
 40
0.5
100
AcDbArc
 50
214.4960344112327
 51
259.4960344112327
  0
ARC
  5
2B2
330
18D
100
AcDbEntity
  8
1
  6
Continuous
 62
     1
100
AcDbCircle
 10
67.75343129181584
 20
68.99863892180741
 30
0.0
 40
0.5
100
AcDbArc
 50
214.4960344112327
 51
259.4960344112327
  0
LINE
  5
2B3
330
18D
100
AcDbEntity
  8
1
  6
Continuous
 62
     1
100
AcDbLine
 10
85.32769485703578
 20
65.38060442604157
 30
0.0
 11
85.91046779247729
 21
65.78107378281786
 31
0.0
  0
LINE
  5
2B4
330
18D
100
AcDbEntity
  8
1
  6
Continuous
 62
     1
100
AcDbLine
 10
86.60572508485396
 20
65.65216568610904
 30
0.0
 11
87.00619444163023
 21
65.06939275066748
 31
0.0
  0
ARC
  5
2B5
330
18D
100
AcDbEntity
  8
1
  6
Continuous
 62
     1
100
AcDbCircle
 10
85.04452025920185
 20
65.7926871205843
 30
0.0
 40
0.5
100
AcDbArc
 50
259.4960344112326
 51
304.4960344112353
  0
ARC
  5
2B6
330
18D
100
AcDbEntity
  8
1
  6
Continuous
 62
     1
100
AcDbCircle
 10
85.04452025920185
 20
65.7926871205843
 30
0.0
 40
0.5
100
AcDbArc
 50
259.4960344112326
 51
304.4960344112353
  0
ARC
  5
2B7
330
18D
100
AcDbEntity
  8
1
  6
Continuous
 62
     1
100
AcDbCircle
 10
86.19364239031123
 20
65.36899108827512
 30
0.0
 40
0.5
100
AcDbArc
 50
34.49603441123307
 51
124.4960344112354
  0
ARC
  5
2B8
330
18D
100
AcDbEntity
  8
1
  6
Continuous
 62
     1
100
AcDbCircle
 10
86.19364239031123
 20
65.36899108827512
 30
0.0
 40
0.5
100
AcDbArc
 50
34.49603441123307
 51
124.4960344112354
  0
ARC
  5
2B9
330
18D
100
AcDbEntity
  8
1
  6
Continuous
 62
     1
100
AcDbCircle
 10
87.41827713617296
 20
65.3525673485014
 30
0.0
 40
0.5
100
AcDbArc
 50
214.4960344112327
 51
259.4960344112327
  0
ARC
  5
2BA
330
18D
100
AcDbEntity
  8
1
  6
Continuous
 62
     1
100
AcDbCircle
 10
87.41827713617296
 20
65.3525673485014
 30
0.0
 40
0.5
100
AcDbArc
 50
214.4960344112327
 51
259.4960344112327
  0
LINE
  5
2BB
330
18D
100
AcDbEntity
  8
1
  6
Continuous
 62
     1
100
AcDbLine
 10
55.83042609050011
 20
70.8497117860006
 30
0.0
 11
56.41319902594159
 21
71.25018114277688
 31
0.0
  0
LINE
  5
2BC
330
18D
100
AcDbEntity
  8
1
  6
Continuous
 62
     1
100
AcDbLine
 10
57.10845631831828
 20
71.12127304606807
 30
0.0
 11
57.50892567509453
 21
70.5385001106265
 31
0.0
  0
ARC
  5
2BD
330
18D
100
AcDbEntity
  8
1
  6
Continuous
 62
     1
100
AcDbCircle
 10
55.54725149266616
 20
71.26179448054333
 30
0.0
 40
0.5
100
AcDbArc
 50
259.4960344112326
 51
304.4960344112353
  0
ARC
  5
2BE
330
18D
100
AcDbEntity
  8
1
  6
Continuous
 62
     1
100
AcDbCircle
 10
55.54725149266616
 20
71.26179448054333
 30
0.0
 40
0.5
100
AcDbArc
 50
259.4960344112326
 51
304.4960344112353
  0
ARC
  5
2BF
330
18D
100
AcDbEntity
  8
1
  6
Continuous
 62
     1
100
AcDbCircle
 10
56.69637362377554
 20
70.83809844823415
 30
0.0
 40
0.5
100
AcDbArc
 50
34.49603441123307
 51
124.4960344112354
  0
ARC
  5
2C0
330
18D
100
AcDbEntity
  8
1
  6
Continuous
 62
     1
100
AcDbCircle
 10
56.69637362377554
 20
70.83809844823415
 30
0.0
 40
0.5
100
AcDbArc
 50
34.49603441123307
 51
124.4960344112354
  0
ARC
  5
2C1
330
18D
100
AcDbEntity
  8
1
  6
Continuous
 62
     1
100
AcDbCircle
 10
57.92100836963726
 20
70.82167470846042
 30
0.0
 40
0.5
100
AcDbArc
 50
214.4960344112327
 51
259.4960344112327
  0
ARC
  5
2C2
330
18D
100
AcDbEntity
  8
1
  6
Continuous
 62
     1
100
AcDbCircle
 10
57.92100836963726
 20
70.82167470846042
 30
0.0
 40
0.5
100
AcDbArc
 50
214.4960344112327
 51
259.4960344112327
  0
LINE
  5
2C3
330
18D
100
AcDbEntity
  8
1
  6
Continuous
 62
     1
100
AcDbLine
 10
95.16011777921435
 20
63.55756863938857
 30
0.0
 11
95.74289071465586
 21
63.95803799616484
 31
0.0
  0
LINE
  5
2C4
330
18D
100
AcDbEntity
  8
1
  6
Continuous
 62
     1
100
AcDbLine
 10
96.43814800703252
 20
63.82912989945604
 30
0.0
 11
96.8386173638088
 21
63.24635696401447
 31
0.0
  0
ARC
  5
2C5
330
18D
100
AcDbEntity
  8
1
  6
Continuous
 62
     1
100
AcDbCircle
 10
94.87694318138041
 20
63.96965133393129
 30
0.0
 40
0.5
100
AcDbArc
 50
259.4960344112326
 51
304.4960344112353
  0
ARC
  5
2C6
330
18D
100
AcDbEntity
  8
1
  6
Continuous
 62
     1
100
AcDbCircle
 10
94.87694318138041
 20
63.96965133393129
 30
0.0
 40
0.5
100
AcDbArc
 50
259.4960344112326
 51
304.4960344112353
  0
ARC
  5
2C7
330
18D
100
AcDbEntity
  8
1
  6
Continuous
 62
     1
100
AcDbCircle
 10
96.02606531248979
 20
63.54595530162212
 30
0.0
 40
0.5
100
AcDbArc
 50
34.49603441123307
 51
124.4960344112354
  0
ARC
  5
2C8
330
18D
100
AcDbEntity
  8
1
  6
Continuous
 62
     1
100
AcDbCircle
 10
96.02606531248979
 20
63.54595530162212
 30
0.0
 40
0.5
100
AcDbArc
 50
34.49603441123307
 51
124.4960344112354
  0
ARC
  5
2C9
330
18D
100
AcDbEntity
  8
1
  6
Continuous
 62
     1
100
AcDbCircle
 10
97.25070005835153
 20
63.52953156184838
 30
0.0
 40
0.5
100
AcDbArc
 50
214.4960344112327
 51
259.4960344112327
  0
ARC
  5
2CA
330
18D
100
AcDbEntity
  8
1
  6
Continuous
 62
     1
100
AcDbCircle
 10
97.25070005835153
 20
63.52953156184838
 30
0.0
 40
0.5
100
AcDbArc
 50
214.4960344112327
 51
259.4960344112327
  0
LINE
  5
2CB
330
18D
100
AcDbEntity
  8
1
  6
Continuous
 62
     1
100
AcDbLine
 10
134.4898094679286
 20
56.26542549277659
 30
0.0
 11
135.0725824033701
 21
56.66589484955286
 31
0.0
  0
LINE
  5
2CC
330
18D
100
AcDbEntity
  8
1
  6
Continuous
 62
     1
100
AcDbLine
 10
135.7678396957468
 20
56.53698675284407
 30
0.0
 11
136.1683090525231
 21
55.95421381740249
 31
0.0
  0
ARC
  5
2CD
330
18D
100
AcDbEntity
  8
1
  6
Continuous
 62
     1
100
AcDbCircle
 10
134.2066348700947
 20
56.67750818731931
 30
0.0
 40
0.5
100
AcDbArc
 50
259.4960344112326
 51
304.4960344112353
  0
ARC
  5
2CE
330
18D
100
AcDbEntity
  8
1
  6
Continuous
 62
     1
100
AcDbCircle
 10
134.2066348700947
 20
56.67750818731931
 30
0.0
 40
0.5
100
AcDbArc
 50
259.4960344112326
 51
304.4960344112353
  0
ARC
  5
2CF
330
18D
100
AcDbEntity
  8
1
  6
Continuous
 62
     1
100
AcDbCircle
 10
135.3557570012041
 20
56.25381215501015
 30
0.0
 40
0.5
100
AcDbArc
 50
34.49603441123307
 51
124.4960344112354
  0
ARC
  5
2D0
330
18D
100
AcDbEntity
  8
1
  6
Continuous
 62
     1
100
AcDbCircle
 10
135.3557570012041
 20
56.25381215501015
 30
0.0
 40
0.5
100
AcDbArc
 50
34.49603441123307
 51
124.4960344112354
  0
ARC
  5
2D1
330
18D
100
AcDbEntity
  8
1
  6
Continuous
 62
     1
100
AcDbCircle
 10
136.5803917470658
 20
56.2373884152364
 30
0.0
 40
0.5
100
AcDbArc
 50
214.4960344112327
 51
259.4960344112327
  0
ARC
  5
2D2
330
18D
100
AcDbEntity
  8
1
  6
Continuous
 62
     1
100
AcDbCircle
 10
136.5803917470658
 20
56.2373884152364
 30
0.0
 40
0.5
100
AcDbArc
 50
214.4960344112327
 51
259.4960344112327
  0
LINE
  5
2D3
330
18D
100
AcDbEntity
  8
1
  6
Continuous
 62
     1
100
AcDbLine
 10
36.16558024614298
 20
74.49578335930659
 30
0.0
 11
36.74835318158449
 21
74.89625271608287
 31
0.0
  0
LINE
  5
2D4
330
18D
100
AcDbEntity
  8
1
  6
Continuous
 62
     1
100
AcDbLine
 10
37.44361047396114
 20
74.76734461937406
 30
0.0
 11
37.84407983073743
 21
74.18457168393249
 31
0.0
  0
ARC
  5
2D5
330
18D
100
AcDbEntity
  8
1
  6
Continuous
 62
     1
100
AcDbCircle
 10
35.88240564830903
 20
74.90786605384932
 30
0.0
 40
0.5
100
AcDbArc
 50
259.4960344112326
 51
304.4960344112353
  0
ARC
  5
2D6
330
18D
100
AcDbEntity
  8
1
  6
Continuous
 62
     1
100
AcDbCircle
 10
35.88240564830903
 20
74.90786605384932
 30
0.0
 40
0.5
100
AcDbArc
 50
259.4960344112326
 51
304.4960344112353
  0
ARC
  5
2D7
330
18D
100
AcDbEntity
  8
1
  6
Continuous
 62
     1
100
AcDbCircle
 10
37.03152777941841
 20
74.48417002154014
 30
0.0
 40
0.5
100
AcDbArc
 50
34.49603441123307
 51
124.4960344112354
  0
ARC
  5
2D8
330
18D
100
AcDbEntity
  8
1
  6
Continuous
 62
     1
100
AcDbCircle
 10
37.03152777941841
 20
74.48417002154014
 30
0.0
 40
0.5
100
AcDbArc
 50
34.49603441123307
 51
124.4960344112354
  0
ARC
  5
2D9
330
18D
100
AcDbEntity
  8
1
  6
Continuous
 62
     1
100
AcDbCircle
 10
38.25616252528016
 20
74.46774628176641
 30
0.0
 40
0.5
100
AcDbArc
 50
214.4960344112327
 51
259.4960344112327
  0
ARC
  5
2DA
330
18D
100
AcDbEntity
  8
1
  6
Continuous
 62
     1
100
AcDbCircle
 10
38.25616252528016
 20
74.46774628176641
 30
0.0
 40
0.5
100
AcDbArc
 50
214.4960344112327
 51
259.4960344112327
  0
LINE
  5
2DB
330
18D
100
AcDbEntity
  8
1
  6
Continuous
 62
     1
100
AcDbLine
 10
26.33315732396437
 20
76.31881914595954
 30
0.0
 11
26.91593025940591
 21
76.71928850273582
 31
0.0
  0
LINE
  5
2DC
330
18D
100
AcDbEntity
  8
1
  6
Continuous
 62
     1
100
AcDbLine
 10
27.61118755178256
 20
76.59038040602701
 30
0.0
 11
28.01165690855885
 21
76.00760747058544
 31
0.0
  0
ARC
  5
2DD
330
18D
100
AcDbEntity
  8
1
  6
Continuous
 62
     1
100
AcDbCircle
 10
26.04998272613045
 20
76.73090184050227
 30
0.0
 40
0.5
100
AcDbArc
 50
259.4960344112326
 51
304.4960344112353
  0
ARC
  5
2DE
330
18D
100
AcDbEntity
  8
1
  6
Continuous
 62
     1
100
AcDbCircle
 10
26.04998272613045
 20
76.73090184050227
 30
0.0
 40
0.5
100
AcDbArc
 50
259.4960344112326
 51
304.4960344112353
  0
ARC
  5
2DF
330
18D
100
AcDbEntity
  8
1
  6
Continuous
 62
     1
100
AcDbCircle
 10
27.19910485723983
 20
76.30720580819309
 30
0.0
 40
0.5
100
AcDbArc
 50
34.49603441123307
 51
124.4960344112354
  0
ARC
  5
2E0
330
18D
100
AcDbEntity
  8
1
  6
Continuous
 62
     1
100
AcDbCircle
 10
27.19910485723983
 20
76.30720580819309
 30
0.0
 40
0.5
100
AcDbArc
 50
34.49603441123307
 51
124.4960344112354
  0
ARC
  5
2E1
330
18D
100
AcDbEntity
  8
1
  6
Continuous
 62
     1
100
AcDbCircle
 10
28.42373960310158
 20
76.29078206841936
 30
0.0
 40
0.5
100
AcDbArc
 50
214.4960344112327
 51
259.4960344112327
  0
ARC
  5
2E2
330
18D
100
AcDbEntity
  8
1
  6
Continuous
 62
     1
100
AcDbCircle
 10
28.42373960310158
 20
76.29078206841936
 30
0.0
 40
0.5
100
AcDbArc
 50
214.4960344112327
 51
259.4960344112327
  0
LINE
  5
2E3
330
18D
100
AcDbEntity
  8
1
  6
Continuous
 62
     1
100
AcDbLine
 10
154.1546553122857
 20
52.6193539194706
 30
0.0
 11
154.7374282477273
 21
53.01982327624687
 31
0.0
  0
LINE
  5
2E4
330
18D
100
AcDbEntity
  8
1
  6
Continuous
 62
     1
100
AcDbLine
 10
155.4326855401039
 20
52.89091517953808
 30
0.0
 11
155.8590027059632
 21
52.27052787156298
 31
0.0
  0
ARC
  5
2E5
330
18D
100
AcDbEntity
  8
1
  6
Continuous
 62
     1
100
AcDbCircle
 10
153.8714807144518
 20
53.03143661401332
 30
0.0
 40
0.5
100
AcDbArc
 50
259.4960344112326
 51
304.4960344112353
  0
ARC
  5
2E6
330
18D
100
AcDbEntity
  8
1
  6
Continuous
 62
     1
100
AcDbCircle
 10
153.8714807144518
 20
53.03143661401332
 30
0.0
 40
0.5
100
AcDbArc
 50
259.4960344112326
 51
304.4960344112353
  0
ARC
  5
2E7
330
18D
100
AcDbEntity
  8
1
  6
Continuous
 62
     1
100
AcDbCircle
 10
155.0206028455612
 20
52.60774058170416
 30
0.0
 40
0.5
100
AcDbArc
 50
34.49603441123307
 51
124.4960344112354
  0
ARC
  5
2E8
330
18D
100
AcDbEntity
  8
1
  6
Continuous
 62
     1
100
AcDbCircle
 10
155.0206028455612
 20
52.60774058170416
 30
0.0
 40
0.5
100
AcDbArc
 50
34.49603441123307
 51
124.4960344112354
  0
LINE
  5
2E9
330
18D
100
AcDbEntity
  8
1
  6
Continuous
 62
     1
100
AcDbLine
 10
45.99800316832153
 20
72.67274757265358
 30
0.0
 11
46.58077610376304
 21
73.07321692942986
 31
0.0
  0
LINE
  5
2EA
330
18D
100
AcDbEntity
  8
1
  6
Continuous
 62
     1
100
AcDbLine
 10
47.2760333961397
 20
72.94430883272105
 30
0.0
 11
47.67650275291598
 21
72.36153589727948
 31
0.0
  0
ARC
  5
2EB
330
18D
100
AcDbEntity
  8
1
  6
Continuous
 62
     1
100
AcDbCircle
 10
45.71482857048758
 20
73.08483026719631
 30
0.0
 40
0.5
100
AcDbArc
 50
259.4960344112326
 51
304.4960344112353
  0
ARC
  5
2EC
330
18D
100
AcDbEntity
  8
1
  6
Continuous
 62
     1
100
AcDbCircle
 10
45.71482857048758
 20
73.08483026719631
 30
0.0
 40
0.5
100
AcDbArc
 50
259.4960344112326
 51
304.4960344112353
  0
ARC
  5
2ED
330
18D
100
AcDbEntity
  8
1
  6
Continuous
 62
     1
100
AcDbCircle
 10
46.86395070159696
 20
72.66113423488713
 30
0.0
 40
0.5
100
AcDbArc
 50
34.49603441123307
 51
124.4960344112354
  0
ARC
  5
2EE
330
18D
100
AcDbEntity
  8
1
  6
Continuous
 62
     1
100
AcDbCircle
 10
46.86395070159696
 20
72.66113423488713
 30
0.0
 40
0.5
100
AcDbArc
 50
34.49603441123307
 51
124.4960344112354
  0
ARC
  5
2EF
330
18D
100
AcDbEntity
  8
1
  6
Continuous
 62
     1
100
AcDbCircle
 10
48.08858544745871
 20
72.6447104951134
 30
0.0
 40
0.5
100
AcDbArc
 50
214.4960344112327
 51
259.4960344112327
  0
ARC
  5
2F0
330
18D
100
AcDbEntity
  8
1
  6
Continuous
 62
     1
100
AcDbCircle
 10
48.08858544745871
 20
72.6447104951134
 30
0.0
 40
0.5
100
AcDbArc
 50
214.4960344112327
 51
259.4960344112327
  0
LINE
  5
2F1
330
18D
100
AcDbEntity
  8
1
  6
Continuous
 62
     1
100
AcDbLine
 10
75.49527193485721
 20
67.20364021269455
 30
0.0
 11
76.07804487029873
 21
67.60410956947084
 31
0.0
  0
LINE
  5
2F2
330
18D
100
AcDbEntity
  8
1
  6
Continuous
 62
     1
100
AcDbLine
 10
76.7733021626754
 20
67.47520147276202
 30
0.0
 11
77.17377151945166
 21
66.89242853732046
 31
0.0
  0
ARC
  5
2F3
330
18D
100
AcDbEntity
  8
1
  6
Continuous
 62
     1
100
AcDbCircle
 10
75.2120973370233
 20
67.61572290723728
 30
0.0
 40
0.5
100
AcDbArc
 50
259.4960344112326
 51
304.4960344112353
  0
ARC
  5
2F4
330
18D
100
AcDbEntity
  8
1
  6
Continuous
 62
     1
100
AcDbCircle
 10
75.2120973370233
 20
67.61572290723728
 30
0.0
 40
0.5
100
AcDbArc
 50
259.4960344112326
 51
304.4960344112353
  0
ARC
  5
2F5
330
18D
100
AcDbEntity
  8
1
  6
Continuous
 62
     1
100
AcDbCircle
 10
76.36121946813267
 20
67.1920268749281
 30
0.0
 40
0.5
100
AcDbArc
 50
34.49603441123307
 51
124.4960344112354
  0
ARC
  5
2F6
330
18D
100
AcDbEntity
  8
1
  6
Continuous
 62
     1
100
AcDbCircle
 10
76.36121946813267
 20
67.1920268749281
 30
0.0
 40
0.5
100
AcDbArc
 50
34.49603441123307
 51
124.4960344112354
  0
ARC
  5
2F7
330
18D
100
AcDbEntity
  8
1
  6
Continuous
 62
     1
100
AcDbCircle
 10
77.5858542139944
 20
67.17560313515438
 30
0.0
 40
0.5
100
AcDbArc
 50
214.4960344112327
 51
259.4960344112327
  0
ARC
  5
2F8
330
18D
100
AcDbEntity
  8
1
  6
Continuous
 62
     1
100
AcDbCircle
 10
77.5858542139944
 20
67.17560313515438
 30
0.0
 40
0.5
100
AcDbArc
 50
214.4960344112327
 51
259.4960344112327
  0
LINE
  5
2F9
330
18D
100
AcDbEntity
  8
1
  6
Continuous
 62
     1
100
AcDbLine
 10
124.6573865457501
 20
58.08846127942957
 30
0.0
 11
125.2401594811916
 21
58.48893063620584
 31
0.0
  0
LINE
  5
2FA
330
18D
100
AcDbEntity
  8
1
  6
Continuous
 62
     1
100
AcDbLine
 10
125.9354167735682
 20
58.36002253949705
 30
0.0
 11
126.3358861303445
 21
57.77724960405547
 31
0.0
  0
ARC
  5
2FB
330
18D
100
AcDbEntity
  8
1
  6
Continuous
 62
     1
100
AcDbCircle
 10
124.3742119479161
 20
58.50054397397229
 30
0.0
 40
0.5
100
AcDbArc
 50
259.4960344112326
 51
304.4960344112353
  0
ARC
  5
2FC
330
18D
100
AcDbEntity
  8
1
  6
Continuous
 62
     1
100
AcDbCircle
 10
124.3742119479161
 20
58.50054397397229
 30
0.0
 40
0.5
100
AcDbArc
 50
259.4960344112326
 51
304.4960344112353
  0
ARC
  5
2FD
330
18D
100
AcDbEntity
  8
1
  6
Continuous
 62
     1
100
AcDbCircle
 10
125.5233340790255
 20
58.07684794166313
 30
0.0
 40
0.5
100
AcDbArc
 50
34.49603441123307
 51
124.4960344112354
  0
ARC
  5
2FE
330
18D
100
AcDbEntity
  8
1
  6
Continuous
 62
     1
100
AcDbCircle
 10
125.5233340790255
 20
58.07684794166313
 30
0.0
 40
0.5
100
AcDbArc
 50
34.49603441123307
 51
124.4960344112354
  0
ARC
  5
2FF
330
18D
100
AcDbEntity
  8
1
  6
Continuous
 62
     1
100
AcDbCircle
 10
126.7479688248872
 20
58.06042420188938
 30
0.0
 40
0.5
100
AcDbArc
 50
214.4960344112327
 51
259.4960344112327
  0
ARC
  5
300
330
18D
100
AcDbEntity
  8
1
  6
Continuous
 62
     1
100
AcDbCircle
 10
126.7479688248872
 20
58.06042420188938
 30
0.0
 40
0.5
100
AcDbArc
 50
214.4960344112327
 51
259.4960344112327
  0
LINE
  5
301
330
18D
100
AcDbEntity
  8
1
  6
Continuous
 62
     1
100
AcDbLine
 10
104.9925407013929
 20
61.73453285273558
 30
0.0
 11
105.5753136368344
 21
62.13500220951185
 31
0.0
  0
LINE
  5
302
330
18D
100
AcDbEntity
  8
1
  6
Continuous
 62
     1
100
AcDbLine
 10
106.2705709292111
 20
62.00609411280305
 30
0.0
 11
106.6710402859874
 21
61.42332117736148
 31
0.0
  0
ARC
  5
303
330
18D
100
AcDbEntity
  8
1
  6
Continuous
 62
     1
100
AcDbCircle
 10
104.709366103559
 20
62.1466155472783
 30
0.0
 40
0.5
100
AcDbArc
 50
259.4960344112326
 51
304.4960344112353
  0
ARC
  5
304
330
18D
100
AcDbEntity
  8
1
  6
Continuous
 62
     1
100
AcDbCircle
 10
104.709366103559
 20
62.1466155472783
 30
0.0
 40
0.5
100
AcDbArc
 50
259.4960344112326
 51
304.4960344112353
  0
ARC
  5
305
330
18D
100
AcDbEntity
  8
1
  6
Continuous
 62
     1
100
AcDbCircle
 10
105.8584882346684
 20
61.72291951496913
 30
0.0
 40
0.5
100
AcDbArc
 50
34.49603441123307
 51
124.4960344112354
  0
ARC
  5
306
330
18D
100
AcDbEntity
  8
1
  6
Continuous
 62
     1
100
AcDbCircle
 10
105.8584882346684
 20
61.72291951496913
 30
0.0
 40
0.5
100
AcDbArc
 50
34.49603441123307
 51
124.4960344112354
  0
ARC
  5
307
330
18D
100
AcDbEntity
  8
1
  6
Continuous
 62
     1
100
AcDbCircle
 10
107.0831229805301
 20
61.70649577519539
 30
0.0
 40
0.5
100
AcDbArc
 50
214.4960344112327
 51
259.4960344112327
  0
ARC
  5
308
330
18D
100
AcDbEntity
  8
1
  6
Continuous
 62
     1
100
AcDbCircle
 10
107.0831229805301
 20
61.70649577519539
 30
0.0
 40
0.5
100
AcDbArc
 50
214.4960344112327
 51
259.4960344112327
  0
LINE
  5
309
330
18D
100
AcDbEntity
  8
1
  6
Continuous
 62
     1
100
AcDbLine
 10
114.8249636235715
 20
59.91149706608258
 30
0.0
 11
115.407736559013
 21
60.31196642285885
 31
0.0
  0
LINE
  5
30A
330
18D
100
AcDbEntity
  8
1
  6
Continuous
 62
     1
100
AcDbLine
 10
116.1029938513897
 20
60.18305832615005
 30
0.0
 11
116.5034632081659
 21
59.60028539070848
 31
0.0
  0
ARC
  5
30B
330
18D
100
AcDbEntity
  8
1
  6
Continuous
 62
     1
100
AcDbCircle
 10
114.5417890257376
 20
60.3235797606253
 30
0.0
 40
0.5
100
AcDbArc
 50
259.4960344112326
 51
304.4960344112353
  0
ARC
  5
30C
330
18D
100
AcDbEntity
  8
1
  6
Continuous
 62
     1
100
AcDbCircle
 10
114.5417890257376
 20
60.3235797606253
 30
0.0
 40
0.5
100
AcDbArc
 50
259.4960344112326
 51
304.4960344112353
  0
ARC
  5
30D
330
18D
100
AcDbEntity
  8
1
  6
Continuous
 62
     1
100
AcDbCircle
 10
115.6909111568469
 20
59.89988372831613
 30
0.0
 40
0.5
100
AcDbArc
 50
34.49603441123307
 51
124.4960344112354
  0
ARC
  5
30E
330
18D
100
AcDbEntity
  8
1
  6
Continuous
 62
     1
100
AcDbCircle
 10
115.6909111568469
 20
59.89988372831613
 30
0.0
 40
0.5
100
AcDbArc
 50
34.49603441123307
 51
124.4960344112354
  0
ARC
  5
30F
330
18D
100
AcDbEntity
  8
1
  6
Continuous
 62
     1
100
AcDbCircle
 10
116.9155459027087
 20
59.88345998854239
 30
0.0
 40
0.5
100
AcDbArc
 50
214.4960344112327
 51
259.4960344112327
  0
ARC
  5
310
330
18D
100
AcDbEntity
  8
1
  6
Continuous
 62
     1
100
AcDbCircle
 10
116.9155459027087
 20
59.88345998854239
 30
0.0
 40
0.5
100
AcDbArc
 50
214.4960344112327
 51
259.4960344112327
  0
LINE
  5
311
330
18D
100
AcDbEntity
  8
1
  6
Continuous
 62
     1
100
AcDbLine
 10
144.3222323901072
 20
54.44238970612358
 30
0.0
 11
144.9050053255487
 21
54.84285906289985
 31
0.0
  0
LINE
  5
312
330
18D
100
AcDbEntity
  8
1
  6
Continuous
 62
     1
100
AcDbLine
 10
145.6002626179254
 20
54.71395096619105
 30
0.0
 11
146.0007319747016
 21
54.13117803074947
 31
0.0
  0
ARC
  5
313
330
18D
100
AcDbEntity
  8
1
  6
Continuous
 62
     1
100
AcDbCircle
 10
144.0390577922732
 20
54.8544724006663
 30
0.0
 40
0.5
100
AcDbArc
 50
259.4960344112326
 51
304.4960344112353
  0
ARC
  5
314
330
18D
100
AcDbEntity
  8
1
  6
Continuous
 62
     1
100
AcDbCircle
 10
144.0390577922732
 20
54.8544724006663
 30
0.0
 40
0.5
100
AcDbArc
 50
259.4960344112326
 51
304.4960344112353
  0
ARC
  5
315
330
18D
100
AcDbEntity
  8
1
  6
Continuous
 62
     1
100
AcDbCircle
 10
145.1881799233826
 20
54.43077636835713
 30
0.0
 40
0.5
100
AcDbArc
 50
34.49603441123307
 51
124.4960344112354
  0
ARC
  5
316
330
18D
100
AcDbEntity
  8
1
  6
Continuous
 62
     1
100
AcDbCircle
 10
145.1881799233826
 20
54.43077636835713
 30
0.0
 40
0.5
100
AcDbArc
 50
34.49603441123307
 51
124.4960344112354
  0
ARC
  5
317
330
18D
100
AcDbEntity
  8
1
  6
Continuous
 62
     1
100
AcDbCircle
 10
146.4128146692444
 20
54.41435262858339
 30
0.0
 40
0.5
100
AcDbArc
 50
214.4960344112327
 51
259.4960344112327
  0
ARC
  5
318
330
18D
100
AcDbEntity
  8
1
  6
Continuous
 62
     1
100
AcDbCircle
 10
146.4128146692444
 20
54.41435262858339
 30
0.0
 40
0.5
100
AcDbArc
 50
214.4960344112327
 51
259.4960344112327
  0
ARC
  5
319
330
18D
100
AcDbEntity
  8
1
  6
Continuous
 62
     1
100
AcDbCircle
 10
156.2710854005059
 20
52.5537024693969
 30
0.0
 40
0.5
100
AcDbArc
 50
214.4960344112341
 51
253.7842339479424
  0
ARC
  5
31A
330
18D
100
AcDbEntity
  8
1
  6
Continuous
 62
     1
100
AcDbCircle
 10
156.2710854005059
 20
52.5537024693969
 30
0.0
 40
0.5
100
AcDbArc
 50
214.4960344112341
 51
253.7842339479424
  0
LINE
  5
31B
330
18D
100
AcDbEntity
  8
1
  6
Continuous
 62
     1
100
AcDbLine
 10
89.35592569684607
 20
59.08593381425929
 30
0.0
 11
89.35592569684607
 21
58.08593381425929
 31
0.0
  0
LINE
  5
31C
330
18D
100
AcDbEntity
  8
1
  6
Continuous
 62
     1
100
AcDbLine
 10
88.85592569684607
 20
58.58593381425929
 30
0.0
 11
89.85592569684607
 21
58.58593381425929
 31
0.0
  0
LINE
  5
31D
330
18D
100
AcDbEntity
  8
1
  6
Continuous
 62
     1
100
AcDbLine
 10
14.45592569684607
 20
74.80386841120475
 30
0.0
 11
14.45592569684607
 21
73.80386841120475
 31
0.0
  0
LINE
  5
31E
330
18D
100
AcDbEntity
  8
1
  6
Continuous
 62
     1
100
AcDbLine
 10
13.95592569684607
 20
74.30386841120475
 30
0.0
 11
14.95592569684607
 21
74.30386841120475
 31
0.0
  0
LINE
  5
31F
330
18D
100
AcDbEntity
  8
1
  6
Continuous
 62
     1
100
AcDbLine
 10
154.6559256968461
 20
46.97861928856714
 30
0.0
 11
154.6559256968461
 21
45.97861928856714
 31
0.0
  0
LINE
  5
320
330
18D
100
AcDbEntity
  8
1
  6
Continuous
 62
     1
100
AcDbLine
 10
154.1559256968461
 20
46.47861928856714
 30
0.0
 11
155.1559256968461
 21
46.47861928856714
 31
0.0
  0
LINE
  5
321
330
18D
100
AcDbEntity
  8
1
  6
Continuous
 62
     1
100
AcDbLine
 10
16.25592569684608
 20
72.63945130014132
 30
0.0
 11
16.25592569684608
 21
71.63945130014132
 31
0.0
  0
LINE
  5
322
330
18D
100
AcDbEntity
  8
1
  6
Continuous
 62
     1
100
AcDbLine
 10
15.75592569684608
 20
72.13945130014132
 30
0.0
 11
16.75592569684608
 21
72.13945130014132
 31
0.0
  0
LINE
  5
323
330
18D
100
AcDbEntity
  8
1
  6
HIDDEN
 62
     3
100
AcDbLine
 10
132.7041193012981
 20
33.10348550986662
 30
0.0
 11
97.5081884784235
 21
33.10348550986662
 31
0.0
  0
LINE
  5
324
330
18D
100
AcDbEntity
  8
1
  6
HIDDEN
 62
     3
100
AcDbLine
 10
97.5081884784235
 20
33.10348550986662
 30
0.0
 11
97.5081884784235
 21
65.98855076494556
 31
0.0
  0
LINE
  5
325
330
18D
100
AcDbEntity
  8
1
  6
HIDDEN
 62
     3
100
AcDbLine
 10
132.7041193012981
 20
65.98855076494556
 30
0.0
 11
132.7041193012981
 21
33.10348550986662
 31
0.0
  0
LINE
  5
326
330
18D
100
AcDbEntity
  8
1
  6
HIDDEN
 62
     3
100
AcDbLine
 10
97.5081884784235
 20
65.98855076494556
 30
0.0
 11
132.7041193012981
 21
65.98855076494556
 31
0.0
  0
LINE
  5
327
330
18D
100
AcDbEntity
  8
1
  6
Continuous
 62
     1
100
AcDbLine
 10
81.55592569684609
 20
60.53213677444916
 30
0.0
 11
81.55592569684609
 21
59.53213677444916
 31
0.0
  0
LINE
  5
328
330
18D
100
AcDbEntity
  8
1
  6
Continuous
 62
     1
100
AcDbLine
 10
81.05592569684609
 20
60.03213677444916
 30
0.0
 11
82.05592569684609
 21
60.03213677444916
 31
0.0
  0
ENDBLK
  5
18F
330
18D
100
AcDbEntity
  8
0
100
AcDbBlockEnd
  0
BLOCK
  5
32A
330
329
100
AcDbEntity
  8
0
100
AcDbBlockBegin
  2
GEN_BLOCK00001
 70
     0
 10
0.0
 20
0.0
 30
0.0
  3
GEN_BLOCK00001
  1
GEN_BLOCK00001
  0
TEXT
  5
32D
330
329
100
AcDbEntity
  8
1
  6
Continuous
 62
    15
100
AcDbText
 10
19.68929672241211
 20
39.59597182273865
 30
0.0
 40
2.509999990463257
  1
1:1
100
AcDbText
  0
TEXT
  5
32E
330
329
100
AcDbEntity
  8
1
  6
Continuous
 62
    15
100
AcDbText
 10
18.40636825561523
 20
25.1551148891449
 30
0.0
 40
2.509999990463257
  1
Exposed surface
100
AcDbText
  0
TEXT
  5
32F
330
329
100
AcDbEntity
  8
1
  6
Continuous
 62
    15
100
AcDbText
 10
18.40636825561523
 20
20.88811421394348
 30
0.0
 40
2.509999990463257
  1
Est. area: 267.01mm²
100
AcDbText
  0
TEXT
  5
330
330
329
100
AcDbEntity
  8
1
  6
Continuous
 62
    15
100
AcDbText
 10
18.40636825561523
 20
16.62111353874207
 30
0.0
 40
2.509999990463257
  1
Est weight: 723.59g/m
100
AcDbText
  0
TEXT
  5
331
330
329
100
AcDbEntity
  8
1
  6
Continuous
 62
    15
100
AcDbText
 10
0.9493293762207031
 20
1.098125219345093
 30
0.0
 40
2.509999990463257
  1
4:1
100
AcDbText
  0
LINE
  5
332
330
329
100
AcDbEntity
  8
1
  6
DOT
 62
     1
100
AcDbLine
 10
46.93341509295598
 20
25.96365877648583
 30
0.0
 11
64.3815104039559
 21
25.96365877648583
 31
0.0
  0
LINE
  5
333
330
329
100
AcDbEntity
  8
1
  6
DOT
 62
     1
100
AcDbLine
 10
-0.0000017343808452
 20
31.32982805872419
 30
0.0
 11
-0.0000017343808452
 21
57.61985293449996
 31
0.0
  0
ARC
  5
334
330
329
100
AcDbEntity
  8
1
  6
DOT
 62
     1
100
AcDbCircle
 10
4.499998265619155
 20
57.61985293449996
 30
0.0
 40
4.5
100
AcDbArc
 50
79.49603441123347
 51
180.0
  0
ARC
  5
335
330
329
100
AcDbEntity
  8
1
  6
DOT
 62
     1
100
AcDbCircle
 10
4.499998265619155
 20
57.61985293449996
 30
0.0
 40
4.5
100
AcDbArc
 50
79.49603441123347
 51
180.0
  0
LINE
  5
336
330
329
100
AcDbEntity
  8
1
  6
DOT
 62
     1
100
AcDbLine
 10
6.977876809654575
 20
61.73712281392395
 30
0.0
 11
75.50266794827832
 21
49.03189771250464
 31
0.0
  0
ARC
  5
337
330
329
100
AcDbEntity
  8
1
  6
DOT
 62
     1
100
AcDbCircle
 10
74.49999826561915
 20
43.62406510530643
 30
0.0
 40
5.5
100
AcDbArc
 50
0.0
 51
79.49603441123324
  0
ARC
  5
338
330
329
100
AcDbEntity
  8
1
  6
DOT
 62
     1
100
AcDbCircle
 10
74.49999826561915
 20
43.62406510530643
 30
0.0
 40
5.5
100
AcDbArc
 50
0.0
 51
79.49603441123324
  0
LINE
  5
339
330
329
100
AcDbEntity
  8
1
  6
DOT
 62
     1
100
AcDbLine
 10
79.99999826561915
 20
43.62406510530643
 30
0.0
 11
79.99999826561915
 21
31.32982805872417
 31
0.0
  0
ENDBLK
  5
32B
330
329
100
AcDbEntity
  8
0
100
AcDbBlockEnd
  0
BLOCK
  5
1C
330
1B
100
AcDbEntity
  8
0
100
AcDbBlockBegin
  2
*Paper_Space6
 70
     0
 10
0.0
 20
0.0
 30
0.0
  3
*Paper_Space6
  1
*Paper_Space6
  0
ENDBLK
  5
1D
330
1B
100
AcDbEntity
  8
0
100
AcDbBlockEnd
  0
ENDSEC
  0
SECTION
  2
ENTITIES
  0
INSERT
  5
78
330
1F
100
AcDbEntity
  8
1
100
AcDbBlockReference
 66
     1
  2
_RASTER_[X__IMAGES_LOGO_JPG]
 10
-139.33984375
 20
-95.79985046386719
 30
0.0
  0
ATTRIB
  5
79
330
78
100
AcDbEntity
  8
1
100
AcDbText
 10
0.0
 20
0.0
 30
0.0
 40
1.0
  1
_RASTER_[X:\IMAGES\LOGO.JPG]
100
AcDbAttribute
  2
PAT_NAME
 70
     1
280
     0
  0
ATTRIB
  5
7B
330
78
100
AcDbEntity
  8
1
100
AcDbText
 10
0.0
 20
0.0
 30
0.0
 40
1.0
  1

100
AcDbAttribute
  2
Symbol_Description
 70
     1
280
     0
  0
SEQEND
  5
7A
330
78
100
AcDbEntity
  8
1
  0
INSERT
  5
80
330
1F
100
AcDbEntity
  8
0
100
AcDbBlockReference
 66
     1
  2
PROTO
 10
-140.6499938964844
 20
-97.11000061035156
 30
0.0
  0
ATTRIB
  5
81
330
80
100
AcDbEntity
  8
0
100
AcDbText
 10
0.0
 20
0.0
 30
0.0
 40
1.0
  1
PROTO
100
AcDbAttribute
  2
PAT_NAME
 70
     1
280
     0
  0
SEQEND
  5
82
330
80
100
AcDbEntity
  8
0
  0
INSERT
  5
DF
330
1F
100
AcDbEntity
  8
1
100
AcDbBlockReference
  2
GEN_BLOCK
 10
61.07745742797852
 20
39.2270622253418
 30
0.0
  0
INSERT
  5
190
330
1F
100
AcDbEntity
  8
1
100
AcDbBlockReference
  2
GEN_BLOCK00000
 10
-134.7808074951172
 20
-37.83722686767578
 30
0.0
  0
INSERT
  5
32C
330
1F
100
AcDbEntity
  8
1
100
AcDbBlockReference
  2
GEN_BLOCK00001
 10
58.57745742797852
 20
7.897232532501221
 30
0.0
  0
VIEWPORT
  5
33E
330
33A
100
AcDbEntity
 67
     1
  8
0
100
AcDbViewport
 10
128.5
 20
97.5
 30
0.0
 40
314.226
 41
222.18
 68
     1
 69
     1
 12
128.5
 22
97.5
 13
0.0
 23
0.0
 14
10.0
 24
10.0
 15
10.0
 25
10.0
 16
0.0
 26
0.0
 36
1.0
 17
0.0
 27
0.0
 37
0.0
 42
50.0
 43
0.0
 44
0.0
 45
222.18
 50
0.0
 51
0.0
 72
   100
 90
   557152
  1

281
     0
 71
     1
 74
     0
110
0.0
120
0.0
130
0.0
111
1.0
121
0.0
131
0.0
112
0.0
122
1.0
132
0.0
 79
     0
146
0.0
170
     0
 61
     5
292
     1
282
     1
141
0.0
142
0.0
 63
   256
361
33F
  0
VIEWPORT
  5
340
330
33A
100
AcDbEntity
 67
     1
  8
0
100
AcDbViewport
 10
148.6508893753401
 20
105.1120519067143
 30
0.0
 40
297.3017787506803
 41
210.2241038134287
 68
     3
 69
     3
 12
0.0
 22
0.0
 13
0.0
 23
0.0
 14
10.0
 24
10.0
 15
10.0
 25
10.0
 16
0.0
 26
0.0
 36
1.0
 17
0.0
 27
0.0
 37
0.0
 42
50.0
 43
0.0
 44
0.0
 45
210.2241038134287
 50
0.0
 51
0.0
 72
   100
 90
   557152
  1

281
     0
 71
     1
 74
     0
110
0.0
120
0.0
130
0.0
111
1.0
121
0.0
131
0.0
112
0.0
122
1.0
132
0.0
 79
     0
146
0.0
170
     0
 61
     5
292
     1
282
     1
141
0.0
142
0.0
 63
   256
361
343
  0
VIEWPORT
  5
341
330
33A
100
AcDbEntity
 67
     1
  8
0
100
AcDbViewport
 10
243.8204173709934
 20
74.20434503314847
 30
0.0
 40
74.39186164574909
 41
69.77013051015786
 68
     2
 69
     2
 12
0.0
 22
0.0
 13
0.0
 23
0.0
 14
10.0
 24
10.0
 15
10.0
 25
10.0
 16
0.0
 26
0.0
 36
1.0
 17
-19.67465360525641
 27
11.70879126973031
 37
0.0
 42
50.0
 43
0.0
 44
0.0
 45
34.88506525507893
 50
0.0
 51
0.0
 72
   100
 90
   557152
  1

281
     0
 71
     1
 74
     0
110
0.0
120
0.0
130
0.0
111
1.0
121
0.0
131
0.0
112
0.0
122
1.0
132
0.0
 79
     0
146
0.0
170
     0
 61
     5
292
     1
282
     1
141
0.0
142
0.0
 63
   256
361
342
  0
ENDSEC
  0
SECTION
  2
OBJECTS
  0
DICTIONARY
  5
C
330
0
100
AcDbDictionary
281
     1
  3
ACAD_DETAILVIEWSTYLE
350
378
  3
ACAD_GROUP
350
D
  3
ACAD_LAYOUT
350
1A
  3
ACAD_MATERIAL
350
43
  3
ACAD_MLEADERSTYLE
350
377
  3
ACAD_MLINESTYLE
350
17
  3
ACAD_PLOTSETTINGS
350
19
  3
ACAD_PLOTSTYLENAME
350
E
  3
ACAD_SCALELIST
350
47
  3
ACAD_SECTIONVIEWSTYLE
350
379
  3
ACAD_TABLESTYLE
350
376
  3
ACAD_VISUALSTYLE
350
2A
  3
AcDbVariableDictionary
350
344
  0
SUN
  5
69
330
29
100
AcDbSun
 90
        1
290
     0
 63
     7
421
 16777215
 40
1.0
291
     1
 91
  2455826
 92
 54000000
292
     0
 70
     2
 71
   256
280
     1
  0
SUN
  5
33F
330
33E
100
AcDbSun
 90
        1
290
     0
 63
     7
421
 16777215
 40
1.0
291
     1
 91
  2455826
 92
 54000000
292
     0
 70
     2
 71
   256
280
     1
  0
SUN
  5
343
330
340
100
AcDbSun
 90
        1
290
     0
 63
     7
421
 16777215
 40
1.0
291
     1
 91
  2455826
 92
 54000000
292
     0
 70
     2
 71
   256
280
     1
  0
SUN
  5
342
330
341
100
AcDbSun
 90
        1
290
     0
 63
     7
421
 16777215
 40
1.0
291
     1
 91
  2455826
 92
 54000000
292
     0
 70
     2
 71
   256
280
     1
  0
DICTIONARY
  5
378
102
{ACAD_REACTORS
330
C
102
}
330
C
100
AcDbDictionary
281
     1
  0
DICTIONARY
  5
D
102
{ACAD_REACTORS
330
C
102
}
330
C
100
AcDbDictionary
281
     1
  0
DICTIONARY
  5
1A
102
{ACAD_REACTORS
330
C
102
}
330
C
100
AcDbDictionary
281
     1
  3
Layout_1
350
33B
  3
Layout1
350
1E
  3
Layout2
350
26
  3
Model
350
22
  0
DICTIONARY
  5
43
102
{ACAD_REACTORS
330
C
102
}
330
C
100
AcDbDictionary
281
     1
  3
ByBlock
350
45
  3
ByLayer
350
44
  3
Global
350
46
  0
DICTIONARY
  5
377
102
{ACAD_REACTORS
330
C
102
}
330
C
100
AcDbDictionary
281
     1
  0
DICTIONARY
  5
17
102
{ACAD_REACTORS
330
C
102
}
330
C
100
AcDbDictionary
281
     1
  3
Standard
350
18
  0
DICTIONARY
  5
19
102
{ACAD_REACTORS
330
C
102
}
330
C
100
AcDbDictionary
281
     1
  0
ACDBDICTIONARYWDFLT
  5
E
102
{ACAD_REACTORS
330
C
102
}
330
C
100
AcDbDictionary
281
     1
  3
Normal
350
F
100
AcDbDictionaryWithDefault
340
F
  0
DICTIONARY
  5
47
102
{ACAD_REACTORS
330
C
102
}
330
C
100
AcDbDictionary
281
     1
  3
A0
350
48
  3
A1
350
49
  3
A2
350
4A
  3
A3
350
4B
  3
A4
350
4C
  3
A5
350
4D
  3
A6
350
4E
  3
A7
350
4F
  3
A8
350
50
  3
A9
350
51
  3
B0
350
52
  3
B1
350
53
  3
B2
350
54
  3
B3
350
55
  3
B4
350
56
  3
B5
350
57
  3
B6
350
58
  3
B7
350
59
  3
B8
350
5A
  3
B9
350
5B
  3
C0
350
5C
  3
C1
350
5D
  3
C2
350
5E
  3
C3
350
5F
  3
C4
350
60
  3
C5
350
61
  3
C6
350
62
  3
C7
350
63
  3
C8
350
64
  3
C9
350
65
  3
D0
350
66
  3
D1
350
67
  3
D2
350
68
  0
DICTIONARY
  5
379
102
{ACAD_REACTORS
330
C
102
}
330
C
100
AcDbDictionary
281
     1
  0
DICTIONARY
  5
376
102
{ACAD_REACTORS
330
C
102
}
330
C
100
AcDbDictionary
281
     1
  0
DICTIONARY
  5
2A
102
{ACAD_REACTORS
330
C
102
}
330
C
100
AcDbDictionary
281
     1
  3
2dWireframe
350
2F
  3
Basic
350
32
  3
Brighten
350
36
  3
ColorChange
350
3A
  3
Conceptual
350
34
  3
Dim
350
35
  3
EdgeColorOff
350
3D
  3
Facepattern
350
39
  3
Flat
350
2B
  3
FlatWithEdges
350
2C
  3
Gouraud
350
2D
  3
GouraudWithEdges
350
2E
  3
Hidden
350
31
  3
JitterOff
350
3B
  3
Linepattern
350
38
  3
OverhangOff
350
3C
  3
Realistic
350
33
  3
Shaded
350
42
  3
Shaded with edges
350
41
  3
Shades of Gray
350
3E
  3
Sketchy
350
3F
  3
Thicken
350
37
  3
Wireframe
350
30
  3
X-Ray
350
40
  0
DICTIONARY
  5
344
102
{ACAD_REACTORS
330
C
102
}
330
C
100
AcDbDictionary
281
     1
  3
CANNOSCALE
350
345
  0
LAYOUT
  5
33B
102
{ACAD_REACTORS
330
1A
102
}
330
1A
100
AcDbPlotSettings
  1

  2
none_device
  4
ISO_A4_(210.00_x_297.00_MM)
  6

 40
7.5
 41
20.0
 42
7.5
 43
20.0
 44
210.0
 45
297.0
 46
0.0
 47
0.0
 48
0.0
 49
0.0
140
0.0
141
0.0
142
1.0
143
1.0
 70
   688
 72
     1
 73
     1
 74
     5
  7

 75
    16
 76
     0
 77
     2
 78
   300
147
1.0
148
0.0
149
0.0
100
AcDbLayout
  1
Layout_1
 70
     1
 71
     3
 10
-20.0
 20
-7.5
 11
277.0
 21
202.5
 12
0.0
 22
0.0
 32
0.0
 14
0.0
 24
0.0
 34
0.0
 15
0.0
 25
0.0
 35
0.0
146
0.0
 13
0.0
 23
0.0
 33
0.0
 16
1.0
 26
0.0
 36
0.0
 17
0.0
 27
1.0
 37
0.0
 76
     0
330
33A
331
33E
  0
LAYOUT
  5
1E
102
{ACAD_REACTORS
330
1A
102
}
330
1A
100
AcDbPlotSettings
  1

  2
none_device
  4

  6

 40
0.0
 41
0.0
 42
0.0
 43
0.0
 44
0.0
 45
0.0
 46
0.0
 47
0.0
 48
0.0
 49
0.0
140
0.0
141
0.0
142
1.0
143
1.0
 70
   688
 72
     1
 73
     0
 74
     5
  7

 75
    16
 76
     0
 77
     2
 78
   300
147
1.0
148
0.0
149
0.0
100
AcDbLayout
  1
Layout1
 70
     1
 71
     1
 10
0.0
 20
0.0
 11
420.0
 21
297.0
 12
0.0
 22
0.0
 32
0.0
 14
1.000000000000000E+20
 24
1.000000000000000E+20
 34
1.000000000000000E+20
 15
-1.000000000000000E+20
 25
-1.000000000000000E+20
 35
-1.000000000000000E+20
146
0.0
 13
0.0
 23
0.0
 33
0.0
 16
1.0
 26
0.0
 36
0.0
 17
0.0
 27
1.0
 37
0.0
 76
     0
330
1B
  0
LAYOUT
  5
26
102
{ACAD_REACTORS
330
1A
102
}
330
1A
100
AcDbPlotSettings
  1

  2
none_device
  4

  6

 40
0.0
 41
0.0
 42
0.0
 43
0.0
 44
0.0
 45
0.0
 46
0.0
 47
0.0
 48
0.0
 49
0.0
140
0.0
141
0.0
142
1.0
143
1.0
 70
   688
 72
     1
 73
     0
 74
     5
  7

 75
    16
 76
     0
 77
     2
 78
   300
147
1.0
148
0.0
149
0.0
100
AcDbLayout
  1
Layout2
 70
     1
 71
     2
 10
0.0
 20
0.0
 11
0.0
 21
0.0
 12
0.0
 22
0.0
 32
0.0
 14
0.0
 24
0.0
 34
0.0
 15
0.0
 25
0.0
 35
0.0
146
0.0
 13
0.0
 23
0.0
 33
0.0
 16
1.0
 26
0.0
 36
0.0
 17
0.0
 27
1.0
 37
0.0
 76
     0
330
23
  0
LAYOUT
  5
22
102
{ACAD_REACTORS
330
1A
102
}
330
1A
100
AcDbPlotSettings
  1

  2
none_device
  4
Letter_(8.50_x_11.00_Inches)
  6

 40
6.35
 41
6.35
 42
6.35000508
 43
6.35000508
 44
215.9
 45
279.4
 46
0.0
 47
0.0
 48
0.0
 49
0.0
140
0.0
141
0.0
142
1.0
143
1.0
 70
  1712
 72
     1
 73
     0
 74
     0
  7

 75
     0
 76
     0
 77
     2
 78
   300
147
1.0
148
0.0
149
0.0
100
AcDbLayout
  1
Model
 70
     1
 71
     0
 10
0.0
 20
0.0
 11
420.0
 21
297.0
 12
0.0
 22
0.0
 32
0.0
 14
-140.65
 24
-97.11000000000001
 34
0.0
 15
141.4571075439453
 25
97.11000000000001
 35
0.0
146
0.0
 13
0.0
 23
0.0
 33
0.0
 16
1.0
 26
0.0
 36
0.0
 17
0.0
 27
1.0
 37
0.0
 76
     0
330
1F
331
29
  0
MATERIAL
  5
45
102
{ACAD_REACTORS
330
43
102
}
330
43
100
AcDbMaterial
  1
ByBlock
 72
     1
 94
      127
  0
MATERIAL
  5
44
102
{ACAD_REACTORS
330
43
102
}
330
43
100
AcDbMaterial
  1
ByLayer
 72
     1
 94
      127
  0
MATERIAL
  5
46
102
{ACAD_REACTORS
330
43
102
}
330
43
100
AcDbMaterial
  1
Global
 72
     1
 94
      127
  0
MLINESTYLE
  5
18
102
{ACAD_REACTORS
330
17
102
}
330
17
100
AcDbMlineStyle
  2
Standard
 70
     0
  3

 62
   256
 51
90.0
 52
90.0
 71
     2
 49
0.5
 62
   256
  6
BYLAYER
 49
-0.5
 62
   256
  6
BYLAYER
  0
ACDBPLACEHOLDER
  5
F
102
{ACAD_REACTORS
330
E
102
}
330
E
  0
SCALE
  5
48
102
{ACAD_REACTORS
330
47
102
}
330
47
100
AcDbScale
 70
     0
300
1:1
140
1.0
141
1.0
290
     1
  0
SCALE
  5
49
102
{ACAD_REACTORS
330
47
102
}
330
47
100
AcDbScale
 70
     0
300
1:2
140
1.0
141
2.0
290
     0
  0
SCALE
  5
4A
102
{ACAD_REACTORS
330
47
102
}
330
47
100
AcDbScale
 70
     0
300
1:4
140
1.0
141
4.0
290
     0
  0
SCALE
  5
4B
102
{ACAD_REACTORS
330
47
102
}
330
47
100
AcDbScale
 70
     0
300
1:5
140
1.0
141
5.0
290
     0
  0
SCALE
  5
4C
102
{ACAD_REACTORS
330
47
102
}
330
47
100
AcDbScale
 70
     0
300
1:8
140
1.0
141
8.0
290
     0
  0
SCALE
  5
4D
102
{ACAD_REACTORS
330
47
102
}
330
47
100
AcDbScale
 70
     0
300
1:10
140
1.0
141
10.0
290
     0
  0
SCALE
  5
4E
102
{ACAD_REACTORS
330
47
102
}
330
47
100
AcDbScale
 70
     0
300
1:16
140
1.0
141
16.0
290
     0
  0
SCALE
  5
4F
102
{ACAD_REACTORS
330
47
102
}
330
47
100
AcDbScale
 70
     0
300
1:20
140
1.0
141
20.0
290
     0
  0
SCALE
  5
50
102
{ACAD_REACTORS
330
47
102
}
330
47
100
AcDbScale
 70
     0
300
1:30
140
1.0
141
30.0
290
     0
  0
SCALE
  5
51
102
{ACAD_REACTORS
330
47
102
}
330
47
100
AcDbScale
 70
     0
300
1:40
140
1.0
141
40.0
290
     0
  0
SCALE
  5
52
102
{ACAD_REACTORS
330
47
102
}
330
47
100
AcDbScale
 70
     0
300
1:50
140
1.0
141
50.0
290
     0
  0
SCALE
  5
53
102
{ACAD_REACTORS
330
47
102
}
330
47
100
AcDbScale
 70
     0
300
1:100
140
1.0
141
100.0
290
     0
  0
SCALE
  5
54
102
{ACAD_REACTORS
330
47
102
}
330
47
100
AcDbScale
 70
     0
300
2:1
140
2.0
141
1.0
290
     0
  0
SCALE
  5
55
102
{ACAD_REACTORS
330
47
102
}
330
47
100
AcDbScale
 70
     0
300
4:1
140
4.0
141
1.0
290
     0
  0
SCALE
  5
56
102
{ACAD_REACTORS
330
47
102
}
330
47
100
AcDbScale
 70
     0
300
8:1
140
8.0
141
1.0
290
     0
  0
SCALE
  5
57
102
{ACAD_REACTORS
330
47
102
}
330
47
100
AcDbScale
 70
     0
300
10:1
140
10.0
141
1.0
290
     0
  0
SCALE
  5
58
102
{ACAD_REACTORS
330
47
102
}
330
47
100
AcDbScale
 70
     0
300
100:1
140
100.0
141
1.0
290
     0
  0
SCALE
  5
59
102
{ACAD_REACTORS
330
47
102
}
330
47
100
AcDbScale
 70
     0
300
1/128" = 1'-0"
140
0.0078125
141
12.0
290
     0
  0
SCALE
  5
5A
102
{ACAD_REACTORS
330
47
102
}
330
47
100
AcDbScale
 70
     0
300
1/64" = 1'-0"
140
0.015625
141
12.0
290
     0
  0
SCALE
  5
5B
102
{ACAD_REACTORS
330
47
102
}
330
47
100
AcDbScale
 70
     0
300
1/32" = 1'-0"
140
0.03125
141
12.0
290
     0
  0
SCALE
  5
5C
102
{ACAD_REACTORS
330
47
102
}
330
47
100
AcDbScale
 70
     0
300
1/16" = 1'-0"
140
0.0625
141
12.0
290
     0
  0
SCALE
  5
5D
102
{ACAD_REACTORS
330
47
102
}
330
47
100
AcDbScale
 70
     0
300
3/32" = 1'-0"
140
0.09375
141
12.0
290
     0
  0
SCALE
  5
5E
102
{ACAD_REACTORS
330
47
102
}
330
47
100
AcDbScale
 70
     0
300
1/8" = 1'-0"
140
0.125
141
12.0
290
     0
  0
SCALE
  5
5F
102
{ACAD_REACTORS
330
47
102
}
330
47
100
AcDbScale
 70
     0
300
3/16" = 1'-0"
140
0.1875
141
12.0
290
     0
  0
SCALE
  5
60
102
{ACAD_REACTORS
330
47
102
}
330
47
100
AcDbScale
 70
     0
300
1/4" = 1'-0"
140
0.25
141
12.0
290
     0
  0
SCALE
  5
61
102
{ACAD_REACTORS
330
47
102
}
330
47
100
AcDbScale
 70
     0
300
3/8" = 1'-0"
140
0.375
141
12.0
290
     0
  0
SCALE
  5
62
102
{ACAD_REACTORS
330
47
102
}
330
47
100
AcDbScale
 70
     0
300
1/2" = 1'-0"
140
0.5
141
12.0
290
     0
  0
SCALE
  5
63
102
{ACAD_REACTORS
330
47
102
}
330
47
100
AcDbScale
 70
     0
300
3/4" = 1'-0"
140
0.75
141
12.0
290
     0
  0
SCALE
  5
64
102
{ACAD_REACTORS
330
47
102
}
330
47
100
AcDbScale
 70
     0
300
1" = 1'-0"
140
1.0
141
12.0
290
     0
  0
SCALE
  5
65
102
{ACAD_REACTORS
330
47
102
}
330
47
100
AcDbScale
 70
     0
300
1-1/2" = 1'-0"
140
1.5
141
12.0
290
     0
  0
SCALE
  5
66
102
{ACAD_REACTORS
330
47
102
}
330
47
100
AcDbScale
 70
     0
300
3" = 1'-0"
140
3.0
141
12.0
290
     0
  0
SCALE
  5
67
102
{ACAD_REACTORS
330
47
102
}
330
47
100
AcDbScale
 70
     0
300
6" = 1'-0"
140
6.0
141
12.0
290
     0
  0
SCALE
  5
68
102
{ACAD_REACTORS
330
47
102
}
330
47
100
AcDbScale
 70
     0
300
1'-0" = 1'-0"
140
12.0
141
12.0
290
     0
  0
VISUALSTYLE
  5
2F
102
{ACAD_REACTORS
330
2A
102
}
102
{ACAD_XDICTIONARY
360
34E
102
}
330
2A
100
AcDbVisualStyle
  2
2dWireframe
 70
     4
177
     2
291
     0
 71
     0
176
     1
 72
     2
176
     1
 73
     0
176
     1
 90
        0
176
     1
 40
0.6
176
     1
 41
30.0
176
     1
 62
     5
 63
     7
421
 16777215
176
     1
 74
     1
176
     1
 91
        4
176
     1
 64
     7
176
     1
 65
   257
176
     1
 75
     1
176
     1
175
     1
176
     1
 42
1.0
176
     1
 92
        0
176
     1
 66
   257
176
     1
 43
1.0
176
     1
 76
     1
176
     1
 77
     6
176
     1
 78
     2
176
     1
 67
     7
176
     1
 79
     5
176
     1
170
     0
176
     1
171
     0
176
     1
290
     0
176
     1
 93
        1
176
     1
 44
0.0
176
     1
173
     0
176
     1
  0
VISUALSTYLE
  5
32
102
{ACAD_REACTORS
330
2A
102
}
102
{ACAD_XDICTIONARY
360
354
102
}
330
2A
100
AcDbVisualStyle
  2
Basic
 70
     7
177
     2
291
     1
 71
     1
176
     1
 72
     0
176
     1
 73
     1
176
     1
 90
        0
176
     1
 40
0.6
176
     1
 41
30.0
176
     1
 62
     5
 63
     7
421
 16777215
176
     1
 74
     0
176
     1
 91
        4
176
     1
 64
     7
176
     1
 65
   257
176
     1
 75
     1
176
     1
175
     1
176
     1
 42
1.0
176
     1
 92
        8
176
     1
 66
     7
176
     1
 43
1.0
176
     1
 76
     1
176
     1
 77
     6
176
     1
 78
     2
176
     1
 67
     7
176
     1
 79
     5
176
     1
170
     0
176
     1
171
     0
176
     1
290
     0
176
     1
 93
        1
176
     1
 44
0.0
176
     1
173
     0
176
     1
  0
VISUALSTYLE
  5
36
102
{ACAD_REACTORS
330
2A
102
}
102
{ACAD_XDICTIONARY
360
35C
102
}
330
2A
100
AcDbVisualStyle
  2
Brighten
 70
    12
177
     2
291
     1
 71
     2
176
     1
 72
     2
176
     1
 73
     0
176
     1
 90
        0
176
     1
 40
0.6
176
     1
 41
30.0
176
     1
 62
     5
 63
     7
421
 16777215
176
     1
 74
     1
176
     1
 91
        4
176
     1
 64
     7
176
     1
 65
   257
176
     1
 75
     1
176
     1
175
     1
176
     1
 42
1.0
176
     1
 92
        8
176
     1
 66
     7
176
     1
 43
1.0
176
     1
 76
     1
176
     1
 77
     6
176
     1
 78
     2
176
     1
 67
     7
176
     1
 79
     5
176
     1
170
     0
176
     1
171
     0
176
     1
290
     0
176
     1
 93
        1
176
     1
 44
50.0
176
     1
173
     0
176
     1
  0
VISUALSTYLE
  5
3A
102
{ACAD_REACTORS
330
2A
102
}
102
{ACAD_XDICTIONARY
360
364
102
}
330
2A
100
AcDbVisualStyle
  2
ColorChange
 70
    16
177
     2
291
     1
 71
     2
176
     1
 72
     2
176
     1
 73
     3
176
     1
 90
        0
176
     1
 40
0.6
176
     1
 41
30.0
176
     1
 62
     5
 63
     8
421
  8421504
176
     1
 74
     1
176
     1
 91
        4
176
     1
 64
     7
176
     1
 65
   257
176
     1
 75
     1
176
     1
175
     1
176
     1
 42
1.0
176
     1
 92
        8
176
     1
 66
     8
424
  8421504
176
     1
 43
1.0
176
     1
 76
     1
176
     1
 77
     6
176
     1
 78
     2
176
     1
 67
     7
176
     1
 79
     5
176
     1
170
     0
176
     1
171
     0
176
     1
290
     0
176
     1
 93
        1
176
     1
 44
0.0
176
     1
173
     0
176
     1
  0
VISUALSTYLE
  5
34
102
{ACAD_REACTORS
330
2A
102
}
102
{ACAD_XDICTIONARY
360
358
102
}
330
2A
100
AcDbVisualStyle
  2
Conceptual
 70
     9
177
     2
291
     0
 71
     3
176
     1
 72
     2
176
     1
 73
     0
176
     1
 90
        0
176
     1
 40
0.6
176
     1
 41
30.0
176
     1
 62
     5
 63
     7
421
 16777215
176
     1
 74
     2
176
     1
 91
        2
176
     1
 64
     7
176
     1
 65
   257
176
     1
 75
     1
176
     1
175
     1
176
     1
 42
179.0
176
     1
 92
        8
176
     1
 66
     7
176
     1
 43
1.0
176
     1
 76
     1
176
     1
 77
     6
176
     1
 78
     2
176
     1
 67
     7
176
     1
 79
     3
176
     1
170
     0
176
     1
171
     0
176
     1
290
     0
176
     1
 93
        1
176
     1
 44
0.0
176
     1
173
     0
176
     1
  0
VISUALSTYLE
  5
35
102
{ACAD_REACTORS
330
2A
102
}
102
{ACAD_XDICTIONARY
360
35A
102
}
330
2A
100
AcDbVisualStyle
  2
Dim
 70
    11
177
     2
291
     1
 71
     2
176
     1
 72
     2
176
     1
 73
     0
176
     1
 90
        0
176
     1
 40
0.6
176
     1
 41
30.0
176
     1
 62
     5
 63
     7
421
 16777215
176
     1
 74
     1
176
     1
 91
        4
176
     1
 64
     7
176
     1
 65
   257
176
     1
 75
     1
176
     1
175
     1
176
     1
 42
1.0
176
     1
 92
        8
176
     1
 66
     7
176
     1
 43
1.0
176
     1
 76
     1
176
     1
 77
     6
176
     1
 78
     2
176
     1
 67
     7
176
     1
 79
     5
176
     1
170
     0
176
     1
171
     0
176
     1
290
     0
176
     1
 93
        1
176
     1
 44
-50.0
176
     1
173
     0
176
     1
  0
VISUALSTYLE
  5
3D
102
{ACAD_REACTORS
330
2A
102
}
102
{ACAD_XDICTIONARY
360
36A
102
}
330
2A
100
AcDbVisualStyle
  2
EdgeColorOff
 70
    22
177
     2
291
     1
 71
     2
176
     0
 72
     2
176
     0
 73
     0
176
     0
 90
        0
176
     0
 40
0.6
176
     0
 41
30.0
176
     0
 62
     5
 63
     7
421
 16777215
176
     0
 74
     1
176
     0
 91
        4
176
     0
 64
     7
176
     0
 65
   257
176
     0
 75
     1
176
     0
175
     1
176
     0
 42
1.0
176
     0
 92
        8
176
     2
 66
     7
176
     0
 43
1.0
176
     0
 76
     1
176
     0
 77
     6
176
     0
 78
     2
176
     0
 67
     7
176
     0
 79
     5
176
     0
170
     0
176
     0
171
     0
176
     0
290
     0
176
     0
 93
        1
176
     0
 44
0.0
176
     0
173
     0
176
     0
  0
VISUALSTYLE
  5
39
102
{ACAD_REACTORS
330
2A
102
}
102
{ACAD_XDICTIONARY
360
362
102
}
330
2A
100
AcDbVisualStyle
  2
Facepattern
 70
    15
177
     2
291
     1
 71
     2
176
     1
 72
     2
176
     1
 73
     0
176
     1
 90
        0
176
     1
 40
0.6
176
     1
 41
30.0
176
     1
 62
     5
 63
     7
421
 16777215
176
     1
 74
     1
176
     1
 91
        4
176
     1
 64
     7
176
     1
 65
   257
176
     1
 75
     1
176
     1
175
     1
176
     1
 42
1.0
176
     1
 92
        8
176
     1
 66
     7
176
     1
 43
1.0
176
     1
 76
     1
176
     1
 77
     6
176
     1
 78
     2
176
     1
 67
     7
176
     1
 79
     5
176
     1
170
     0
176
     1
171
     0
176
     1
290
     0
176
     1
 93
        1
176
     1
 44
0.0
176
     1
173
     0
176
     1
  0
VISUALSTYLE
  5
2B
102
{ACAD_REACTORS
330
2A
102
}
102
{ACAD_XDICTIONARY
360
346
102
}
330
2A
100
AcDbVisualStyle
  2
Flat
 70
     0
177
     2
291
     1
 71
     2
176
     1
 72
     1
176
     1
 73
     1
176
     1
 90
        2
176
     1
 40
0.6
176
     1
 41
30.0
176
     1
 62
     5
 63
     7
421
 16777215
176
     1
 74
     0
176
     1
 91
        0
176
     1
 64
     7
176
     1
 65
   257
176
     1
 75
     1
176
     1
175
     1
176
     1
 42
1.0
176
     1
 92
        8
176
     1
 66
     7
176
     1
 43
1.0
176
     1
 76
     1
176
     1
 77
     6
176
     1
 78
     2
176
     1
 67
     7
176
     1
 79
     5
176
     1
170
     0
176
     1
171
     0
176
     1
290
     0
176
     1
 93
       13
176
     1
 44
0.0
176
     1
173
     0
176
     1
  0
VISUALSTYLE
  5
2C
102
{ACAD_REACTORS
330
2A
102
}
102
{ACAD_XDICTIONARY
360
348
102
}
330
2A
100
AcDbVisualStyle
  2
FlatWithEdges
 70
     1
177
     2
291
     1
 71
     2
176
     1
 72
     1
176
     1
 73
     1
176
     1
 90
        2
176
     1
 40
0.6
176
     1
 41
30.0
176
     1
 62
     5
 63
     7
421
 16777215
176
     1
 74
     1
176
     1
 91
        0
176
     1
 64
     7
176
     1
 65
   257
176
     1
 75
     1
176
     1
175
     1
176
     1
 42
1.0
176
     1
 92
        0
176
     1
 66
   257
176
     1
 43
1.0
176
     1
 76
     1
176
     1
 77
     6
176
     1
 78
     2
176
     1
 67
     7
176
     1
 79
     5
176
     1
170
     0
176
     1
171
     0
176
     1
290
     0
176
     1
 93
       13
176
     1
 44
0.0
176
     1
173
     0
176
     1
  0
VISUALSTYLE
  5
2D
102
{ACAD_REACTORS
330
2A
102
}
102
{ACAD_XDICTIONARY
360
34A
102
}
330
2A
100
AcDbVisualStyle
  2
Gouraud
 70
     2
177
     2
291
     1
 71
     2
176
     1
 72
     2
176
     1
 73
     1
176
     1
 90
        2
176
     1
 40
0.6
176
     1
 41
30.0
176
     1
 62
     5
 63
     7
421
 16777215
176
     1
 74
     0
176
     1
 91
        0
176
     1
 64
     7
176
     1
 65
   257
176
     1
 75
     1
176
     1
175
     1
176
     1
 42
1.0
176
     1
 92
        0
176
     1
 66
     7
176
     1
 43
1.0
176
     1
 76
     1
176
     1
 77
     6
176
     1
 78
     2
176
     1
 67
     7
176
     1
 79
     5
176
     1
170
     0
176
     1
171
     0
176
     1
290
     0
176
     1
 93
       13
176
     1
 44
0.0
176
     1
173
     0
176
     1
  0
VISUALSTYLE
  5
2E
102
{ACAD_REACTORS
330
2A
102
}
102
{ACAD_XDICTIONARY
360
34C
102
}
330
2A
100
AcDbVisualStyle
  2
GouraudWithEdges
 70
     3
177
     2
291
     1
 71
     2
176
     1
 72
     2
176
     1
 73
     1
176
     1
 90
        2
176
     1
 40
0.6
176
     1
 41
30.0
176
     1
 62
     5
 63
     7
421
 16777215
176
     1
 74
     1
176
     1
 91
        0
176
     1
 64
     7
176
     1
 65
   257
176
     1
 75
     1
176
     1
175
     1
176
     1
 42
1.0
176
     1
 92
        0
176
     1
 66
   257
176
     1
 43
1.0
176
     1
 76
     1
176
     1
 77
     6
176
     1
 78
     2
176
     1
 67
     7
176
     1
 79
     5
176
     1
170
     0
176
     1
171
     0
176
     1
290
     0
176
     1
 93
       13
176
     1
 44
0.0
176
     1
173
     0
176
     1
  0
VISUALSTYLE
  5
31
102
{ACAD_REACTORS
330
2A
102
}
102
{ACAD_XDICTIONARY
360
352
102
}
330
2A
100
AcDbVisualStyle
  2
Hidden
 70
     6
177
     2
291
     0
 71
     1
176
     1
 72
     2
176
     1
 73
     2
176
     1
 90
        0
176
     1
 40
0.6
176
     1
 41
30.0
176
     1
 62
     5
 63
     7
421
 16777215
176
     1
 74
     2
176
     1
 91
        2
176
     1
 64
     7
176
     1
 65
   257
176
     1
 75
     2
176
     1
175
     1
176
     1
 42
40.0
176
     1
 92
        0
176
     1
 66
   257
176
     1
 43
1.0
176
     1
 76
     1
176
     1
 77
     6
176
     1
 78
     2
176
     1
 67
     7
176
     1
 79
     3
176
     1
170
     0
176
     1
171
     0
176
     1
290
     0
176
     1
 93
        1
176
     1
 44
0.0
176
     1
173
     0
176
     1
  0
VISUALSTYLE
  5
3B
102
{ACAD_REACTORS
330
2A
102
}
102
{ACAD_XDICTIONARY
360
366
102
}
330
2A
100
AcDbVisualStyle
  2
JitterOff
 70
    20
177
     2
291
     1
 71
     2
176
     0
 72
     2
176
     0
 73
     0
176
     0
 90
        0
176
     0
 40
0.6
176
     0
 41
30.0
176
     0
 62
     5
 63
     7
421
 16777215
176
     0
 74
     1
176
     0
 91
        4
176
     0
 64
     7
176
     0
 65
   257
176
     0
 75
     1
176
     0
175
     1
176
     0
 42
1.0
176
     0
 92
       10
176
     2
 66
     7
176
     0
 43
1.0
176
     0
 76
     1
176
     0
 77
     6
176
     0
 78
     2
176
     0
 67
     7
176
     0
 79
     5
176
     0
170
     0
176
     0
171
     0
176
     0
290
     0
176
     0
 93
        1
176
     0
 44
0.0
176
     0
173
     0
176
     0
  0
VISUALSTYLE
  5
38
102
{ACAD_REACTORS
330
2A
102
}
102
{ACAD_XDICTIONARY
360
360
102
}
330
2A
100
AcDbVisualStyle
  2
Linepattern
 70
    14
177
     2
291
     1
 71
     2
176
     1
 72
     2
176
     1
 73
     0
176
     1
 90
        0
176
     1
 40
0.6
176
     1
 41
30.0
176
     1
 62
     5
 63
     7
421
 16777215
176
     1
 74
     1
176
     1
 91
        4
176
     1
 64
     7
176
     1
 65
   257
176
     1
 75
     7
176
     1
175
     7
176
     1
 42
1.0
176
     1
 92
        8
176
     1
 66
     7
176
     1
 43
1.0
176
     1
 76
     1
176
     1
 77
     6
176
     1
 78
     2
176
     1
 67
     7
176
     1
 79
     5
176
     1
170
     0
176
     1
171
     0
176
     1
290
     0
176
     1
 93
        1
176
     1
 44
0.0
176
     1
173
     0
176
     1
  0
VISUALSTYLE
  5
3C
102
{ACAD_REACTORS
330
2A
102
}
102
{ACAD_XDICTIONARY
360
368
102
}
330
2A
100
AcDbVisualStyle
  2
OverhangOff
 70
    21
177
     2
291
     1
 71
     2
176
     0
 72
     2
176
     0
 73
     0
176
     0
 90
        0
176
     0
 40
0.6
176
     0
 41
30.0
176
     0
 62
     5
 63
     7
421
 16777215
176
     0
 74
     1
176
     0
 91
        4
176
     0
 64
     7
176
     0
 65
   257
176
     0
 75
     1
176
     0
175
     1
176
     0
 42
1.0
176
     0
 92
        9
176
     2
 66
     7
176
     0
 43
1.0
176
     0
 76
     1
176
     0
 77
     6
176
     0
 78
     2
176
     0
 67
     7
176
     0
 79
     5
176
     0
170
     0
176
     0
171
     0
176
     0
290
     0
176
     0
 93
        1
176
     0
 44
0.0
176
     0
173
     0
176
     0
  0
VISUALSTYLE
  5
33
102
{ACAD_REACTORS
330
2A
102
}
102
{ACAD_XDICTIONARY
360
356
102
}
330
2A
100
AcDbVisualStyle
  2
Realistic
 70
     8
177
     2
291
     0
 71
     2
176
     1
 72
     3
176
     1
 73
     0
176
     1
 90
        2
176
     1
 40
0.6
176
     1
 41
30.0
176
     1
 62
     5
 63
     7
421
 16777215
176
     1
 74
     0
176
     1
 91
        0
176
     1
 64
     7
176
     1
 65
   257
176
     1
 75
     1
176
     1
175
     1
176
     1
 42
1.0
176
     1
 92
        8
176
     1
 66
   257
176
     1
 43
1.0
176
     1
 76
     1
176
     1
 77
     6
176
     1
 78
     2
176
     1
 67
     7
176
     1
 79
     3
176
     1
170
     0
176
     1
171
     0
176
     1
290
     0
176
     1
 93
       13
176
     1
 44
0.0
176
     1
173
     0
176
     1
  0
VISUALSTYLE
  5
42
102
{ACAD_REACTORS
330
2A
102
}
102
{ACAD_XDICTIONARY
360
374
102
}
330
2A
100
AcDbVisualStyle
  2
Shaded
 70
    27
177
     2
291
     0
 71
     2
176
     1
 72
     2
176
     1
 73
     1
176
     1
 90
        2
176
     1
 40
0.6
176
     1
 41
30.0
176
     1
 62
     5
 63
     7
421
 16777215
176
     1
 74
     0
176
     1
 91
        4
176
     1
 64
     7
176
     1
 65
   257
176
     1
 75
     1
176
     1
175
     1
176
     1
 42
1.0
176
     1
 92
        8
176
     1
 66
   257
176
     1
 43
1.0
176
     1
 76
     1
176
     1
 77
     6
176
     1
 78
     2
176
     1
 67
     8
425
  7895160
176
     1
 79
     3
176
     1
170
     0
176
     1
171
     0
176
     1
290
     0
176
     1
 93
        5
176
     1
 44
0.0
176
     1
173
     0
176
     1
  0
VISUALSTYLE
  5
41
102
{ACAD_REACTORS
330
2A
102
}
102
{ACAD_XDICTIONARY
360
372
102
}
330
2A
100
AcDbVisualStyle
  2
Shaded with edges
 70
    26
177
     2
291
     0
 71
     2
176
     1
 72
     2
176
     1
 73
     1
176
     1
 90
        2
176
     1
 40
0.6
176
     1
 41
30.0
176
     1
 62
     5
 63
     7
421
 16777215
176
     1
 74
     1
176
     1
 91
       10
176
     1
 64
     7
176
     1
 65
   257
176
     1
 75
     2
176
     1
175
     1
176
     1
 42
1.0
176
     1
 92
        8
176
     1
 66
   257
176
     1
 43
1.0
176
     1
 76
     1
176
     1
 77
     6
176
     1
 78
     2
176
     1
 67
     7
176
     1
 79
     3
176
     1
170
     0
176
     1
171
     0
176
     1
290
     0
176
     1
 93
        5
176
     1
 44
0.0
176
     1
173
     0
176
     1
  0
VISUALSTYLE
  5
3E
102
{ACAD_REACTORS
330
2A
102
}
102
{ACAD_XDICTIONARY
360
36C
102
}
330
2A
100
AcDbVisualStyle
  2
Shades of Gray
 70
    23
177
     2
291
     0
 71
     2
176
     1
 72
     2
176
     1
 73
     3
176
     1
 90
        0
176
     1
 40
0.6
176
     1
 41
30.0
176
     1
 62
     5
 63
     7
421
 16777215
176
     1
 74
     2
176
     1
 91
        2
176
     1
 64
     7
176
     1
 65
     7
176
     1
 75
     1
176
     1
175
     1
176
     1
 42
40.0
176
     1
 92
        8
176
     1
 66
     7
176
     1
 43
1.0
176
     1
 76
     1
176
     1
 77
     6
176
     1
 78
     2
176
     1
 67
     7
176
     1
 79
     3
176
     1
170
     0
176
     1
171
     0
176
     1
290
     0
176
     1
 93
        1
176
     1
 44
0.0
176
     1
173
     0
176
     1
  0
VISUALSTYLE
  5
3F
102
{ACAD_REACTORS
330
2A
102
}
102
{ACAD_XDICTIONARY
360
36E
102
}
330
2A
100
AcDbVisualStyle
  2
Sketchy
 70
    24
177
     2
291
     0
 71
     1
176
     1
 72
     2
176
     1
 73
     2
176
     1
 90
        0
176
     1
 40
0.6
176
     1
 41
30.0
176
     1
 62
     5
 63
     7
421
 16777215
176
     1
 74
     2
176
     1
 91
        2
176
     1
 64
     7
176
     1
 65
     7
176
     1
 75
     1
176
     1
175
     1
176
     1
 42
40.0
176
     1
 92
       11
176
     1
 66
     7
176
     1
 43
1.0
176
     1
 76
     1
176
     1
 77
     6
176
     1
 78
     2
176
     1
 67
     7
176
     1
 79
     6
176
     1
170
     0
176
     1
171
     0
176
     1
290
     0
176
     1
 93
        1
176
     1
 44
0.0
176
     1
173
     0
176
     1
  0
VISUALSTYLE
  5
37
102
{ACAD_REACTORS
330
2A
102
}
102
{ACAD_XDICTIONARY
360
35E
102
}
330
2A
100
AcDbVisualStyle
  2
Thicken
 70
    13
177
     2
291
     1
 71
     2
176
     1
 72
     2
176
     1
 73
     0
176
     1
 90
        0
176
     1
 40
0.6
176
     1
 41
30.0
176
     1
 62
     5
 63
     7
421
 16777215
176
     1
 74
     1
176
     1
 91
        4
176
     1
 64
     7
176
     1
 65
   257
176
     1
 75
     1
176
     1
175
     1
176
     1
 42
1.0
176
     1
 92
       12
176
     1
 66
     7
176
     1
 43
1.0
176
     1
 76
     1
176
     1
 77
     6
176
     1
 78
     2
176
     1
 67
     7
176
     1
 79
     5
176
     1
170
     0
176
     1
171
     0
176
     1
290
     0
176
     1
 93
        1
176
     1
 44
0.0
176
     1
173
     0
176
     1
  0
VISUALSTYLE
  5
30
102
{ACAD_REACTORS
330
2A
102
}
102
{ACAD_XDICTIONARY
360
350
102
}
330
2A
100
AcDbVisualStyle
  2
Wireframe
 70
     5
177
     2
291
     0
 71
     0
176
     1
 72
     2
176
     1
 73
     0
176
     1
 90
        0
176
     1
 40
0.6
176
     1
 41
30.0
176
     1
 62
     5
 63
     7
421
 16777215
176
     1
 74
     1
176
     1
 91
        4
176
     1
 64
     7
176
     1
 65
   257
176
     1
 75
     1
176
     1
175
     1
176
     1
 42
1.0
176
     1
 92
        0
176
     1
 66
   257
176
     1
 43
1.0
176
     1
 76
     1
176
     1
 77
     6
176
     1
 78
     2
176
     1
 67
     7
176
     1
 79
     3
176
     1
170
     0
176
     1
171
     0
176
     1
290
     0
176
     1
 93
        1
176
     1
 44
0.0
176
     1
173
     0
176
     1
  0
VISUALSTYLE
  5
40
102
{ACAD_REACTORS
330
2A
102
}
102
{ACAD_XDICTIONARY
360
370
102
}
330
2A
100
AcDbVisualStyle
  2
X-Ray
 70
    25
177
     2
291
     0
 71
     2
176
     1
 72
     2
176
     1
 73
     1
176
     1
 90
        1
176
     1
 40
0.5
176
     1
 41
30.0
176
     1
 62
     5
 63
     7
421
 16777215
176
     1
 74
     1
176
     1
 91
        0
176
     1
 64
     7
176
     1
 65
   257
176
     1
 75
     1
176
     1
175
     1
176
     1
 42
1.0
176
     1
 92
        8
176
     1
 66
     7
176
     1
 43
1.0
176
     1
 76
     1
176
     1
 77
     6
176
     1
 78
     2
176
     1
 67
     7
176
     1
 79
     3
176
     1
170
     0
176
     1
171
     0
176
     1
290
     0
176
     1
 93
       13
176
     1
 44
0.0
176
     1
173
     0
176
     1
  0
DICTIONARYVAR
  5
345
102
{ACAD_REACTORS
330
344
102
}
330
344
100
DictionaryVariables
280
     0
  1
1:1
  0
DICTIONARY
  5
34E
330
2F
100
AcDbDictionary
280
     1
281
     1
  3
ACAD_XREC_ROUNDTRIP
360
34F
  0
DICTIONARY
  5
354
330
32
100
AcDbDictionary
280
     1
281
     1
  3
ACAD_XREC_ROUNDTRIP
360
355
  0
DICTIONARY
  5
35C
330
36
100
AcDbDictionary
280
     1
281
     1
  3
ACAD_XREC_ROUNDTRIP
360
35D
  0
DICTIONARY
  5
364
330
3A
100
AcDbDictionary
280
     1
281
     1
  3
ACAD_XREC_ROUNDTRIP
360
365
  0
DICTIONARY
  5
358
330
34
100
AcDbDictionary
280
     1
281
     1
  3
ACAD_XREC_ROUNDTRIP
360
359
  0
DICTIONARY
  5
35A
330
35
100
AcDbDictionary
280
     1
281
     1
  3
ACAD_XREC_ROUNDTRIP
360
35B
  0
DICTIONARY
  5
36A
330
3D
100
AcDbDictionary
280
     1
281
     1
  3
ACAD_XREC_ROUNDTRIP
360
36B
  0
DICTIONARY
  5
362
330
39
100
AcDbDictionary
280
     1
281
     1
  3
ACAD_XREC_ROUNDTRIP
360
363
  0
DICTIONARY
  5
346
330
2B
100
AcDbDictionary
280
     1
281
     1
  3
ACAD_XREC_ROUNDTRIP
360
347
  0
DICTIONARY
  5
348
330
2C
100
AcDbDictionary
280
     1
281
     1
  3
ACAD_XREC_ROUNDTRIP
360
349
  0
DICTIONARY
  5
34A
330
2D
100
AcDbDictionary
280
     1
281
     1
  3
ACAD_XREC_ROUNDTRIP
360
34B
  0
DICTIONARY
  5
34C
330
2E
100
AcDbDictionary
280
     1
281
     1
  3
ACAD_XREC_ROUNDTRIP
360
34D
  0
DICTIONARY
  5
352
330
31
100
AcDbDictionary
280
     1
281
     1
  3
ACAD_XREC_ROUNDTRIP
360
353
  0
DICTIONARY
  5
366
330
3B
100
AcDbDictionary
280
     1
281
     1
  3
ACAD_XREC_ROUNDTRIP
360
367
  0
DICTIONARY
  5
360
330
38
100
AcDbDictionary
280
     1
281
     1
  3
ACAD_XREC_ROUNDTRIP
360
361
  0
DICTIONARY
  5
368
330
3C
100
AcDbDictionary
280
     1
281
     1
  3
ACAD_XREC_ROUNDTRIP
360
369
  0
DICTIONARY
  5
356
330
33
100
AcDbDictionary
280
     1
281
     1
  3
ACAD_XREC_ROUNDTRIP
360
357
  0
DICTIONARY
  5
374
330
42
100
AcDbDictionary
280
     1
281
     1
  3
ACAD_XREC_ROUNDTRIP
360
375
  0
DICTIONARY
  5
372
330
41
100
AcDbDictionary
280
     1
281
     1
  3
ACAD_XREC_ROUNDTRIP
360
373
  0
DICTIONARY
  5
36C
330
3E
100
AcDbDictionary
280
     1
281
     1
  3
ACAD_XREC_ROUNDTRIP
360
36D
  0
DICTIONARY
  5
36E
330
3F
100
AcDbDictionary
280
     1
281
     1
  3
ACAD_XREC_ROUNDTRIP
360
36F
  0
DICTIONARY
  5
35E
330
37
100
AcDbDictionary
280
     1
281
     1
  3
ACAD_XREC_ROUNDTRIP
360
35F
  0
DICTIONARY
  5
350
330
30
100
AcDbDictionary
280
     1
281
     1
  3
ACAD_XREC_ROUNDTRIP
360
351
  0
DICTIONARY
  5
370
330
40
100
AcDbDictionary
280
     1
281
     1
  3
ACAD_XREC_ROUNDTRIP
360
371
  0
XRECORD
  5
34F
102
{ACAD_REACTORS
330
34E
102
}
330
34E
100
AcDbXrecord
280
     1
102
RTVSPost2010Prop28
280
     1
102
RTVSPost2010PropOp28
 70
     1
102
RTVSPost2010Prop29
280
     1
102
RTVSPost2010PropOp29
 70
     1
102
RTVSPost2010Prop30
280
     0
102
RTVSPost2010PropOp30
 70
     1
102
RTVSPost2010Prop31
280
     0
102
RTVSPost2010PropOp31
 70
     1
102
RTVSPost2010Prop32
280
     0
102
RTVSPost2010PropOp32
 70
     1
102
RTVSPost2010Prop33
280
     0
102
RTVSPost2010PropOp33
 70
     1
102
RTVSPost2010Prop34
280
     0
102
RTVSPost2010PropOp34
 70
     1
102
RTVSPost2010Prop35
280
     0
102
RTVSPost2010PropOp35
 70
     1
102
RTVSPost2010Prop36
280
     0
102
RTVSPost2010PropOp36
 70
     1
102
RTVSPost2010Prop37
 90
       50
102
RTVSPost2010PropOp37
 70
     1
102
RTVSPost2010Prop38
140
0.0
102
RTVSPost2010PropOp38
 70
     1
102
RTVSPost2010Prop39
140
1.0
102
RTVSPost2010PropOp39
 70
     1
102
RTVSPost2010Prop40
 90
        0
102
RTVSPost2010PropOp40
 70
     1
102
RTVSPost2010Prop41ColorIndex
 90
       18
102
RTVSPost2010Prop41ColorRGB
 90
        0
102
RTVSPost2010PropOp41
 70
     1
102
RTVSPost2010Prop42
 90
       50
102
RTVSPost2010PropOp42
 70
     1
102
RTVSPost2010Prop43
 90
        3
102
RTVSPost2010PropOp43
 70
     1
102
RTVSPost2010Prop44ColorIndex
 90
        5
102
RTVSPost2010Prop44ColorRGB
 90
      255
102
RTVSPost2010PropOp44
 70
     1
102
RTVSPost2010Prop45
280
     0
102
RTVSPost2010PropOp45
 70
     1
102
RTVSPost2010Prop46
 90
       50
102
RTVSPost2010PropOp46
 70
     1
102
RTVSPost2010Prop47
 90
       50
102
RTVSPost2010PropOp47
 70
     1
102
RTVSPost2010Prop48
 90
       50
102
RTVSPost2010PropOp48
 70
     1
102
RTVSPost2010Prop49
280
     0
102
RTVSPost2010PropOp49
 70
     1
102
RTVSPost2010Prop50
 90
       50
102
RTVSPost2010PropOp50
 70
     1
102
RTVSPost2010Prop51ColorIndex
 90
      256
102
RTVSPost2010Prop51ColorRGB
 90
-16777216
102
RTVSPost2010PropOp51
 70
     0
102
RTVSPost2010Prop52
140
1.0
102
RTVSPost2010PropOp52
 70
     0
102
RTVSPost2010Prop53
 90
        2
102
RTVSPost2010PropOp53
 70
     1
102
RTVSPost2010Prop54
  1
strokes_ogs.tif
102
RTVSPost2010PropOp54
 70
     1
102
RTVSPost2010Prop55
280
     0
102
RTVSPost2010PropOp55
 70
     1
102
RTVSPost2010Prop56
140
1.0
102
RTVSPost2010PropOp56
 70
     1
102
RTVSPost2010Prop57
140
1.0
102
RTVSPost2010PropOp57
 70
     1
  0
XRECORD
  5
355
102
{ACAD_REACTORS
330
354
102
}
330
354
100
AcDbXrecord
280
     1
102
RTVSPost2010Prop28
280
     0
102
RTVSPost2010PropOp28
 70
     1
102
RTVSPost2010Prop29
280
     1
102
RTVSPost2010PropOp29
 70
     1
102
RTVSPost2010Prop30
280
     1
102
RTVSPost2010PropOp30
 70
     1
102
RTVSPost2010Prop31
280
     0
102
RTVSPost2010PropOp31
 70
     1
102
RTVSPost2010Prop32
280
     0
102
RTVSPost2010PropOp32
 70
     1
102
RTVSPost2010Prop33
280
     0
102
RTVSPost2010PropOp33
 70
     1
102
RTVSPost2010Prop34
280
     0
102
RTVSPost2010PropOp34
 70
     1
102
RTVSPost2010Prop35
280
     0
102
RTVSPost2010PropOp35
 70
     1
102
RTVSPost2010Prop36
280
     0
102
RTVSPost2010PropOp36
 70
     1
102
RTVSPost2010Prop37
 90
       50
102
RTVSPost2010PropOp37
 70
     1
102
RTVSPost2010Prop38
140
0.0
102
RTVSPost2010PropOp38
 70
     1
102
RTVSPost2010Prop39
140
1.0
102
RTVSPost2010PropOp39
 70
     1
102
RTVSPost2010Prop40
 90
        0
102
RTVSPost2010PropOp40
 70
     1
102
RTVSPost2010Prop41ColorIndex
 90
       18
102
RTVSPost2010Prop41ColorRGB
 90
        0
102
RTVSPost2010PropOp41
 70
     1
102
RTVSPost2010Prop42
 90
       50
102
RTVSPost2010PropOp42
 70
     1
102
RTVSPost2010Prop43
 90
        3
102
RTVSPost2010PropOp43
 70
     1
102
RTVSPost2010Prop44ColorIndex
 90
        5
102
RTVSPost2010Prop44ColorRGB
 90
      255
102
RTVSPost2010PropOp44
 70
     1
102
RTVSPost2010Prop45
280
     0
102
RTVSPost2010PropOp45
 70
     1
102
RTVSPost2010Prop46
 90
       50
102
RTVSPost2010PropOp46
 70
     1
102
RTVSPost2010Prop47
 90
       50
102
RTVSPost2010PropOp47
 70
     1
102
RTVSPost2010Prop48
 90
       50
102
RTVSPost2010PropOp48
 70
     1
102
RTVSPost2010Prop49
280
     0
102
RTVSPost2010PropOp49
 70
     1
102
RTVSPost2010Prop50
 90
       50
102
RTVSPost2010PropOp50
 70
     1
102
RTVSPost2010Prop51ColorIndex
 90
      256
102
RTVSPost2010Prop51ColorRGB
 90
-16777216
102
RTVSPost2010PropOp51
 70
     0
102
RTVSPost2010Prop52
140
1.0
102
RTVSPost2010PropOp52
 70
     0
102
RTVSPost2010Prop53
 90
        2
102
RTVSPost2010PropOp53
 70
     1
102
RTVSPost2010Prop54
  1
strokes_ogs.tif
102
RTVSPost2010PropOp54
 70
     1
102
RTVSPost2010Prop55
280
     0
102
RTVSPost2010PropOp55
 70
     1
102
RTVSPost2010Prop56
140
1.0
102
RTVSPost2010PropOp56
 70
     1
102
RTVSPost2010Prop57
140
1.0
102
RTVSPost2010PropOp57
 70
     1
  0
XRECORD
  5
35D
102
{ACAD_REACTORS
330
35C
102
}
330
35C
100
AcDbXrecord
280
     1
102
RTVSPost2010Prop28
280
     0
102
RTVSPost2010PropOp28
 70
     1
102
RTVSPost2010Prop29
280
     1
102
RTVSPost2010PropOp29
 70
     1
102
RTVSPost2010Prop30
280
     1
102
RTVSPost2010PropOp30
 70
     1
102
RTVSPost2010Prop31
280
     0
102
RTVSPost2010PropOp31
 70
     1
102
RTVSPost2010Prop32
280
     0
102
RTVSPost2010PropOp32
 70
     1
102
RTVSPost2010Prop33
280
     0
102
RTVSPost2010PropOp33
 70
     1
102
RTVSPost2010Prop34
280
     0
102
RTVSPost2010PropOp34
 70
     1
102
RTVSPost2010Prop35
280
     0
102
RTVSPost2010PropOp35
 70
     1
102
RTVSPost2010Prop36
280
     0
102
RTVSPost2010PropOp36
 70
     1
102
RTVSPost2010Prop37
 90
       50
102
RTVSPost2010PropOp37
 70
     1
102
RTVSPost2010Prop38
140
0.0
102
RTVSPost2010PropOp38
 70
     1
102
RTVSPost2010Prop39
140
1.0
102
RTVSPost2010PropOp39
 70
     1
102
RTVSPost2010Prop40
 90
        0
102
RTVSPost2010PropOp40
 70
     1
102
RTVSPost2010Prop41ColorIndex
 90
       18
102
RTVSPost2010Prop41ColorRGB
 90
        0
102
RTVSPost2010PropOp41
 70
     1
102
RTVSPost2010Prop42
 90
       50
102
RTVSPost2010PropOp42
 70
     1
102
RTVSPost2010Prop43
 90
        3
102
RTVSPost2010PropOp43
 70
     1
102
RTVSPost2010Prop44ColorIndex
 90
        5
102
RTVSPost2010Prop44ColorRGB
 90
      255
102
RTVSPost2010PropOp44
 70
     1
102
RTVSPost2010Prop45
280
     0
102
RTVSPost2010PropOp45
 70
     1
102
RTVSPost2010Prop46
 90
       50
102
RTVSPost2010PropOp46
 70
     1
102
RTVSPost2010Prop47
 90
       50
102
RTVSPost2010PropOp47
 70
     1
102
RTVSPost2010Prop48
 90
       50
102
RTVSPost2010PropOp48
 70
     1
102
RTVSPost2010Prop49
280
     0
102
RTVSPost2010PropOp49
 70
     1
102
RTVSPost2010Prop50
 90
       50
102
RTVSPost2010PropOp50
 70
     1
102
RTVSPost2010Prop51ColorIndex
 90
      256
102
RTVSPost2010Prop51ColorRGB
 90
-16777216
102
RTVSPost2010PropOp51
 70
     0
102
RTVSPost2010Prop52
140
1.0
102
RTVSPost2010PropOp52
 70
     0
102
RTVSPost2010Prop53
 90
        2
102
RTVSPost2010PropOp53
 70
     1
102
RTVSPost2010Prop54
  1
strokes_ogs.tif
102
RTVSPost2010PropOp54
 70
     1
102
RTVSPost2010Prop55
280
     0
102
RTVSPost2010PropOp55
 70
     1
102
RTVSPost2010Prop56
140
1.0
102
RTVSPost2010PropOp56
 70
     1
102
RTVSPost2010Prop57
140
1.0
102
RTVSPost2010PropOp57
 70
     1
  0
XRECORD
  5
365
102
{ACAD_REACTORS
330
364
102
}
330
364
100
AcDbXrecord
280
     1
102
RTVSPost2010Prop28
280
     0
102
RTVSPost2010PropOp28
 70
     1
102
RTVSPost2010Prop29
280
     1
102
RTVSPost2010PropOp29
 70
     1
102
RTVSPost2010Prop30
280
     1
102
RTVSPost2010PropOp30
 70
     1
102
RTVSPost2010Prop31
280
     0
102
RTVSPost2010PropOp31
 70
     1
102
RTVSPost2010Prop32
280
     0
102
RTVSPost2010PropOp32
 70
     1
102
RTVSPost2010Prop33
280
     0
102
RTVSPost2010PropOp33
 70
     1
102
RTVSPost2010Prop34
280
     0
102
RTVSPost2010PropOp34
 70
     1
102
RTVSPost2010Prop35
280
     0
102
RTVSPost2010PropOp35
 70
     1
102
RTVSPost2010Prop36
280
     0
102
RTVSPost2010PropOp36
 70
     1
102
RTVSPost2010Prop37
 90
       50
102
RTVSPost2010PropOp37
 70
     1
102
RTVSPost2010Prop38
140
0.0
102
RTVSPost2010PropOp38
 70
     1
102
RTVSPost2010Prop39
140
1.0
102
RTVSPost2010PropOp39
 70
     1
102
RTVSPost2010Prop40
 90
        0
102
RTVSPost2010PropOp40
 70
     1
102
RTVSPost2010Prop41ColorIndex
 90
       18
102
RTVSPost2010Prop41ColorRGB
 90
        0
102
RTVSPost2010PropOp41
 70
     1
102
RTVSPost2010Prop42
 90
       50
102
RTVSPost2010PropOp42
 70
     1
102
RTVSPost2010Prop43
 90
        3
102
RTVSPost2010PropOp43
 70
     1
102
RTVSPost2010Prop44ColorIndex
 90
        5
102
RTVSPost2010Prop44ColorRGB
 90
      255
102
RTVSPost2010PropOp44
 70
     1
102
RTVSPost2010Prop45
280
     0
102
RTVSPost2010PropOp45
 70
     1
102
RTVSPost2010Prop46
 90
       50
102
RTVSPost2010PropOp46
 70
     1
102
RTVSPost2010Prop47
 90
       50
102
RTVSPost2010PropOp47
 70
     1
102
RTVSPost2010Prop48
 90
       50
102
RTVSPost2010PropOp48
 70
     1
102
RTVSPost2010Prop49
280
     0
102
RTVSPost2010PropOp49
 70
     1
102
RTVSPost2010Prop50
 90
       50
102
RTVSPost2010PropOp50
 70
     1
102
RTVSPost2010Prop51ColorIndex
 90
      256
102
RTVSPost2010Prop51ColorRGB
 90
-16777216
102
RTVSPost2010PropOp51
 70
     0
102
RTVSPost2010Prop52
140
1.0
102
RTVSPost2010PropOp52
 70
     0
102
RTVSPost2010Prop53
 90
        2
102
RTVSPost2010PropOp53
 70
     1
102
RTVSPost2010Prop54
  1
strokes_ogs.tif
102
RTVSPost2010PropOp54
 70
     1
102
RTVSPost2010Prop55
280
     0
102
RTVSPost2010PropOp55
 70
     1
102
RTVSPost2010Prop56
140
1.0
102
RTVSPost2010PropOp56
 70
     1
102
RTVSPost2010Prop57
140
1.0
102
RTVSPost2010PropOp57
 70
     1
  0
XRECORD
  5
359
102
{ACAD_REACTORS
330
358
102
}
330
358
100
AcDbXrecord
280
     1
102
RTVSPost2010Prop28
280
     0
102
RTVSPost2010PropOp28
 70
     1
102
RTVSPost2010Prop29
280
     1
102
RTVSPost2010PropOp29
 70
     1
102
RTVSPost2010Prop30
280
     1
102
RTVSPost2010PropOp30
 70
     1
102
RTVSPost2010Prop31
280
     0
102
RTVSPost2010PropOp31
 70
     1
102
RTVSPost2010Prop32
280
     0
102
RTVSPost2010PropOp32
 70
     1
102
RTVSPost2010Prop33
280
     0
102
RTVSPost2010PropOp33
 70
     1
102
RTVSPost2010Prop34
280
     0
102
RTVSPost2010PropOp34
 70
     1
102
RTVSPost2010Prop35
280
     0
102
RTVSPost2010PropOp35
 70
     1
102
RTVSPost2010Prop36
280
     0
102
RTVSPost2010PropOp36
 70
     1
102
RTVSPost2010Prop37
 90
       50
102
RTVSPost2010PropOp37
 70
     1
102
RTVSPost2010Prop38
140
0.0
102
RTVSPost2010PropOp38
 70
     1
102
RTVSPost2010Prop39
140
1.0
102
RTVSPost2010PropOp39
 70
     1
102
RTVSPost2010Prop40
 90
        0
102
RTVSPost2010PropOp40
 70
     1
102
RTVSPost2010Prop41ColorIndex
 90
       18
102
RTVSPost2010Prop41ColorRGB
 90
        0
102
RTVSPost2010PropOp41
 70
     1
102
RTVSPost2010Prop42
 90
       50
102
RTVSPost2010PropOp42
 70
     1
102
RTVSPost2010Prop43
 90
        3
102
RTVSPost2010PropOp43
 70
     1
102
RTVSPost2010Prop44ColorIndex
 90
        5
102
RTVSPost2010Prop44ColorRGB
 90
      255
102
RTVSPost2010PropOp44
 70
     1
102
RTVSPost2010Prop45
280
     0
102
RTVSPost2010PropOp45
 70
     1
102
RTVSPost2010Prop46
 90
       50
102
RTVSPost2010PropOp46
 70
     1
102
RTVSPost2010Prop47
 90
       50
102
RTVSPost2010PropOp47
 70
     1
102
RTVSPost2010Prop48
 90
       50
102
RTVSPost2010PropOp48
 70
     1
102
RTVSPost2010Prop49
280
     0
102
RTVSPost2010PropOp49
 70
     1
102
RTVSPost2010Prop50
 90
       50
102
RTVSPost2010PropOp50
 70
     1
102
RTVSPost2010Prop51ColorIndex
 90
      256
102
RTVSPost2010Prop51ColorRGB
 90
-16777216
102
RTVSPost2010PropOp51
 70
     0
102
RTVSPost2010Prop52
140
1.0
102
RTVSPost2010PropOp52
 70
     0
102
RTVSPost2010Prop53
 90
        2
102
RTVSPost2010PropOp53
 70
     1
102
RTVSPost2010Prop54
  1
strokes_ogs.tif
102
RTVSPost2010PropOp54
 70
     1
102
RTVSPost2010Prop55
280
     0
102
RTVSPost2010PropOp55
 70
     1
102
RTVSPost2010Prop56
140
1.0
102
RTVSPost2010PropOp56
 70
     1
102
RTVSPost2010Prop57
140
1.0
102
RTVSPost2010PropOp57
 70
     1
  0
XRECORD
  5
35B
102
{ACAD_REACTORS
330
35A
102
}
330
35A
100
AcDbXrecord
280
     1
102
RTVSPost2010Prop28
280
     0
102
RTVSPost2010PropOp28
 70
     1
102
RTVSPost2010Prop29
280
     1
102
RTVSPost2010PropOp29
 70
     1
102
RTVSPost2010Prop30
280
     1
102
RTVSPost2010PropOp30
 70
     1
102
RTVSPost2010Prop31
280
     0
102
RTVSPost2010PropOp31
 70
     1
102
RTVSPost2010Prop32
280
     0
102
RTVSPost2010PropOp32
 70
     1
102
RTVSPost2010Prop33
280
     0
102
RTVSPost2010PropOp33
 70
     1
102
RTVSPost2010Prop34
280
     0
102
RTVSPost2010PropOp34
 70
     1
102
RTVSPost2010Prop35
280
     0
102
RTVSPost2010PropOp35
 70
     1
102
RTVSPost2010Prop36
280
     0
102
RTVSPost2010PropOp36
 70
     1
102
RTVSPost2010Prop37
 90
       50
102
RTVSPost2010PropOp37
 70
     1
102
RTVSPost2010Prop38
140
0.0
102
RTVSPost2010PropOp38
 70
     1
102
RTVSPost2010Prop39
140
1.0
102
RTVSPost2010PropOp39
 70
     1
102
RTVSPost2010Prop40
 90
        0
102
RTVSPost2010PropOp40
 70
     1
102
RTVSPost2010Prop41ColorIndex
 90
       18
102
RTVSPost2010Prop41ColorRGB
 90
        0
102
RTVSPost2010PropOp41
 70
     1
102
RTVSPost2010Prop42
 90
       50
102
RTVSPost2010PropOp42
 70
     1
102
RTVSPost2010Prop43
 90
        3
102
RTVSPost2010PropOp43
 70
     1
102
RTVSPost2010Prop44ColorIndex
 90
        5
102
RTVSPost2010Prop44ColorRGB
 90
      255
102
RTVSPost2010PropOp44
 70
     1
102
RTVSPost2010Prop45
280
     0
102
RTVSPost2010PropOp45
 70
     1
102
RTVSPost2010Prop46
 90
       50
102
RTVSPost2010PropOp46
 70
     1
102
RTVSPost2010Prop47
 90
       50
102
RTVSPost2010PropOp47
 70
     1
102
RTVSPost2010Prop48
 90
       50
102
RTVSPost2010PropOp48
 70
     1
102
RTVSPost2010Prop49
280
     0
102
RTVSPost2010PropOp49
 70
     1
102
RTVSPost2010Prop50
 90
       50
102
RTVSPost2010PropOp50
 70
     1
102
RTVSPost2010Prop51ColorIndex
 90
      256
102
RTVSPost2010Prop51ColorRGB
 90
-16777216
102
RTVSPost2010PropOp51
 70
     0
102
RTVSPost2010Prop52
140
1.0
102
RTVSPost2010PropOp52
 70
     0
102
RTVSPost2010Prop53
 90
        2
102
RTVSPost2010PropOp53
 70
     1
102
RTVSPost2010Prop54
  1
strokes_ogs.tif
102
RTVSPost2010PropOp54
 70
     1
102
RTVSPost2010Prop55
280
     0
102
RTVSPost2010PropOp55
 70
     1
102
RTVSPost2010Prop56
140
1.0
102
RTVSPost2010PropOp56
 70
     1
102
RTVSPost2010Prop57
140
1.0
102
RTVSPost2010PropOp57
 70
     1
  0
XRECORD
  5
36B
102
{ACAD_REACTORS
330
36A
102
}
330
36A
100
AcDbXrecord
280
     1
102
RTVSPost2010Prop28
280
     0
102
RTVSPost2010PropOp28
 70
     0
102
RTVSPost2010Prop29
280
     1
102
RTVSPost2010PropOp29
 70
     0
102
RTVSPost2010Prop30
280
     1
102
RTVSPost2010PropOp30
 70
     0
102
RTVSPost2010Prop31
280
     0
102
RTVSPost2010PropOp31
 70
     0
102
RTVSPost2010Prop32
280
     0
102
RTVSPost2010PropOp32
 70
     0
102
RTVSPost2010Prop33
280
     0
102
RTVSPost2010PropOp33
 70
     0
102
RTVSPost2010Prop34
280
     0
102
RTVSPost2010PropOp34
 70
     0
102
RTVSPost2010Prop35
280
     0
102
RTVSPost2010PropOp35
 70
     0
102
RTVSPost2010Prop36
280
     0
102
RTVSPost2010PropOp36
 70
     0
102
RTVSPost2010Prop37
 90
       50
102
RTVSPost2010PropOp37
 70
     0
102
RTVSPost2010Prop38
140
0.0
102
RTVSPost2010PropOp38
 70
     0
102
RTVSPost2010Prop39
140
1.0
102
RTVSPost2010PropOp39
 70
     0
102
RTVSPost2010Prop40
 90
        0
102
RTVSPost2010PropOp40
 70
     0
102
RTVSPost2010Prop41ColorIndex
 90
       18
102
RTVSPost2010Prop41ColorRGB
 90
        0
102
RTVSPost2010PropOp41
 70
     0
102
RTVSPost2010Prop42
 90
       50
102
RTVSPost2010PropOp42
 70
     0
102
RTVSPost2010Prop43
 90
        3
102
RTVSPost2010PropOp43
 70
     0
102
RTVSPost2010Prop44ColorIndex
 90
        5
102
RTVSPost2010Prop44ColorRGB
 90
      255
102
RTVSPost2010PropOp44
 70
     0
102
RTVSPost2010Prop45
280
     0
102
RTVSPost2010PropOp45
 70
     0
102
RTVSPost2010Prop46
 90
       50
102
RTVSPost2010PropOp46
 70
     0
102
RTVSPost2010Prop47
 90
       50
102
RTVSPost2010PropOp47
 70
     0
102
RTVSPost2010Prop48
 90
       50
102
RTVSPost2010PropOp48
 70
     0
102
RTVSPost2010Prop49
280
     0
102
RTVSPost2010PropOp49
 70
     0
102
RTVSPost2010Prop50
 90
       50
102
RTVSPost2010PropOp50
 70
     0
102
RTVSPost2010Prop51ColorIndex
 90
      256
102
RTVSPost2010Prop51ColorRGB
 90
-16777216
102
RTVSPost2010PropOp51
 70
     0
102
RTVSPost2010Prop52
140
1.0
102
RTVSPost2010PropOp52
 70
     0
102
RTVSPost2010Prop53
 90
        2
102
RTVSPost2010PropOp53
 70
     0
102
RTVSPost2010Prop54
  1
strokes_ogs.tif
102
RTVSPost2010PropOp54
 70
     0
102
RTVSPost2010Prop55
280
     0
102
RTVSPost2010PropOp55
 70
     0
102
RTVSPost2010Prop56
140
1.0
102
RTVSPost2010PropOp56
 70
     0
102
RTVSPost2010Prop57
140
1.0
102
RTVSPost2010PropOp57
 70
     0
  0
XRECORD
  5
363
102
{ACAD_REACTORS
330
362
102
}
330
362
100
AcDbXrecord
280
     1
102
RTVSPost2010Prop28
280
     0
102
RTVSPost2010PropOp28
 70
     1
102
RTVSPost2010Prop29
280
     1
102
RTVSPost2010PropOp29
 70
     1
102
RTVSPost2010Prop30
280
     1
102
RTVSPost2010PropOp30
 70
     1
102
RTVSPost2010Prop31
280
     0
102
RTVSPost2010PropOp31
 70
     1
102
RTVSPost2010Prop32
280
     0
102
RTVSPost2010PropOp32
 70
     1
102
RTVSPost2010Prop33
280
     0
102
RTVSPost2010PropOp33
 70
     1
102
RTVSPost2010Prop34
280
     0
102
RTVSPost2010PropOp34
 70
     1
102
RTVSPost2010Prop35
280
     0
102
RTVSPost2010PropOp35
 70
     1
102
RTVSPost2010Prop36
280
     0
102
RTVSPost2010PropOp36
 70
     1
102
RTVSPost2010Prop37
 90
       50
102
RTVSPost2010PropOp37
 70
     1
102
RTVSPost2010Prop38
140
0.0
102
RTVSPost2010PropOp38
 70
     1
102
RTVSPost2010Prop39
140
1.0
102
RTVSPost2010PropOp39
 70
     1
102
RTVSPost2010Prop40
 90
        0
102
RTVSPost2010PropOp40
 70
     1
102
RTVSPost2010Prop41ColorIndex
 90
       18
102
RTVSPost2010Prop41ColorRGB
 90
        0
102
RTVSPost2010PropOp41
 70
     1
102
RTVSPost2010Prop42
 90
       50
102
RTVSPost2010PropOp42
 70
     1
102
RTVSPost2010Prop43
 90
        3
102
RTVSPost2010PropOp43
 70
     1
102
RTVSPost2010Prop44ColorIndex
 90
        5
102
RTVSPost2010Prop44ColorRGB
 90
      255
102
RTVSPost2010PropOp44
 70
     1
102
RTVSPost2010Prop45
280
     0
102
RTVSPost2010PropOp45
 70
     1
102
RTVSPost2010Prop46
 90
       50
102
RTVSPost2010PropOp46
 70
     1
102
RTVSPost2010Prop47
 90
       50
102
RTVSPost2010PropOp47
 70
     1
102
RTVSPost2010Prop48
 90
       50
102
RTVSPost2010PropOp48
 70
     1
102
RTVSPost2010Prop49
280
     0
102
RTVSPost2010PropOp49
 70
     1
102
RTVSPost2010Prop50
 90
       50
102
RTVSPost2010PropOp50
 70
     1
102
RTVSPost2010Prop51ColorIndex
 90
      256
102
RTVSPost2010Prop51ColorRGB
 90
-16777216
102
RTVSPost2010PropOp51
 70
     0
102
RTVSPost2010Prop52
140
1.0
102
RTVSPost2010PropOp52
 70
     0
102
RTVSPost2010Prop53
 90
        2
102
RTVSPost2010PropOp53
 70
     1
102
RTVSPost2010Prop54
  1
strokes_ogs.tif
102
RTVSPost2010PropOp54
 70
     1
102
RTVSPost2010Prop55
280
     0
102
RTVSPost2010PropOp55
 70
     1
102
RTVSPost2010Prop56
140
1.0
102
RTVSPost2010PropOp56
 70
     1
102
RTVSPost2010Prop57
140
1.0
102
RTVSPost2010PropOp57
 70
     1
  0
XRECORD
  5
347
102
{ACAD_REACTORS
330
346
102
}
330
346
100
AcDbXrecord
280
     1
102
RTVSPost2010Prop28
280
     0
102
RTVSPost2010PropOp28
 70
     1
102
RTVSPost2010Prop29
280
     1
102
RTVSPost2010PropOp29
 70
     1
102
RTVSPost2010Prop30
280
     1
102
RTVSPost2010PropOp30
 70
     1
102
RTVSPost2010Prop31
280
     0
102
RTVSPost2010PropOp31
 70
     1
102
RTVSPost2010Prop32
280
     0
102
RTVSPost2010PropOp32
 70
     1
102
RTVSPost2010Prop33
280
     0
102
RTVSPost2010PropOp33
 70
     1
102
RTVSPost2010Prop34
280
     0
102
RTVSPost2010PropOp34
 70
     1
102
RTVSPost2010Prop35
280
     0
102
RTVSPost2010PropOp35
 70
     1
102
RTVSPost2010Prop36
280
     0
102
RTVSPost2010PropOp36
 70
     1
102
RTVSPost2010Prop37
 90
       50
102
RTVSPost2010PropOp37
 70
     1
102
RTVSPost2010Prop38
140
0.0
102
RTVSPost2010PropOp38
 70
     1
102
RTVSPost2010Prop39
140
1.0
102
RTVSPost2010PropOp39
 70
     1
102
RTVSPost2010Prop40
 90
        0
102
RTVSPost2010PropOp40
 70
     1
102
RTVSPost2010Prop41ColorIndex
 90
       18
102
RTVSPost2010Prop41ColorRGB
 90
        0
102
RTVSPost2010PropOp41
 70
     1
102
RTVSPost2010Prop42
 90
       50
102
RTVSPost2010PropOp42
 70
     1
102
RTVSPost2010Prop43
 90
        3
102
RTVSPost2010PropOp43
 70
     1
102
RTVSPost2010Prop44ColorIndex
 90
        5
102
RTVSPost2010Prop44ColorRGB
 90
      255
102
RTVSPost2010PropOp44
 70
     1
102
RTVSPost2010Prop45
280
     0
102
RTVSPost2010PropOp45
 70
     1
102
RTVSPost2010Prop46
 90
       50
102
RTVSPost2010PropOp46
 70
     1
102
RTVSPost2010Prop47
 90
       50
102
RTVSPost2010PropOp47
 70
     1
102
RTVSPost2010Prop48
 90
       50
102
RTVSPost2010PropOp48
 70
     1
102
RTVSPost2010Prop49
280
     0
102
RTVSPost2010PropOp49
 70
     1
102
RTVSPost2010Prop50
 90
       50
102
RTVSPost2010PropOp50
 70
     1
102
RTVSPost2010Prop51ColorIndex
 90
      256
102
RTVSPost2010Prop51ColorRGB
 90
-16777216
102
RTVSPost2010PropOp51
 70
     0
102
RTVSPost2010Prop52
140
1.0
102
RTVSPost2010PropOp52
 70
     0
102
RTVSPost2010Prop53
 90
        2
102
RTVSPost2010PropOp53
 70
     1
102
RTVSPost2010Prop54
  1
strokes_ogs.tif
102
RTVSPost2010PropOp54
 70
     1
102
RTVSPost2010Prop55
280
     0
102
RTVSPost2010PropOp55
 70
     1
102
RTVSPost2010Prop56
140
1.0
102
RTVSPost2010PropOp56
 70
     1
102
RTVSPost2010Prop57
140
1.0
102
RTVSPost2010PropOp57
 70
     1
  0
XRECORD
  5
349
102
{ACAD_REACTORS
330
348
102
}
330
348
100
AcDbXrecord
280
     1
102
RTVSPost2010Prop28
280
     0
102
RTVSPost2010PropOp28
 70
     1
102
RTVSPost2010Prop29
280
     1
102
RTVSPost2010PropOp29
 70
     1
102
RTVSPost2010Prop30
280
     1
102
RTVSPost2010PropOp30
 70
     1
102
RTVSPost2010Prop31
280
     0
102
RTVSPost2010PropOp31
 70
     1
102
RTVSPost2010Prop32
280
     0
102
RTVSPost2010PropOp32
 70
     1
102
RTVSPost2010Prop33
280
     0
102
RTVSPost2010PropOp33
 70
     1
102
RTVSPost2010Prop34
280
     0
102
RTVSPost2010PropOp34
 70
     1
102
RTVSPost2010Prop35
280
     0
102
RTVSPost2010PropOp35
 70
     1
102
RTVSPost2010Prop36
280
     0
102
RTVSPost2010PropOp36
 70
     1
102
RTVSPost2010Prop37
 90
       50
102
RTVSPost2010PropOp37
 70
     1
102
RTVSPost2010Prop38
140
0.0
102
RTVSPost2010PropOp38
 70
     1
102
RTVSPost2010Prop39
140
1.0
102
RTVSPost2010PropOp39
 70
     1
102
RTVSPost2010Prop40
 90
        0
102
RTVSPost2010PropOp40
 70
     1
102
RTVSPost2010Prop41ColorIndex
 90
       18
102
RTVSPost2010Prop41ColorRGB
 90
        0
102
RTVSPost2010PropOp41
 70
     1
102
RTVSPost2010Prop42
 90
       50
102
RTVSPost2010PropOp42
 70
     1
102
RTVSPost2010Prop43
 90
        3
102
RTVSPost2010PropOp43
 70
     1
102
RTVSPost2010Prop44ColorIndex
 90
        5
102
RTVSPost2010Prop44ColorRGB
 90
      255
102
RTVSPost2010PropOp44
 70
     1
102
RTVSPost2010Prop45
280
     0
102
RTVSPost2010PropOp45
 70
     1
102
RTVSPost2010Prop46
 90
       50
102
RTVSPost2010PropOp46
 70
     1
102
RTVSPost2010Prop47
 90
       50
102
RTVSPost2010PropOp47
 70
     1
102
RTVSPost2010Prop48
 90
       50
102
RTVSPost2010PropOp48
 70
     1
102
RTVSPost2010Prop49
280
     0
102
RTVSPost2010PropOp49
 70
     1
102
RTVSPost2010Prop50
 90
       50
102
RTVSPost2010PropOp50
 70
     1
102
RTVSPost2010Prop51ColorIndex
 90
      256
102
RTVSPost2010Prop51ColorRGB
 90
-16777216
102
RTVSPost2010PropOp51
 70
     0
102
RTVSPost2010Prop52
140
1.0
102
RTVSPost2010PropOp52
 70
     0
102
RTVSPost2010Prop53
 90
        2
102
RTVSPost2010PropOp53
 70
     1
102
RTVSPost2010Prop54
  1
strokes_ogs.tif
102
RTVSPost2010PropOp54
 70
     1
102
RTVSPost2010Prop55
280
     0
102
RTVSPost2010PropOp55
 70
     1
102
RTVSPost2010Prop56
140
1.0
102
RTVSPost2010PropOp56
 70
     1
102
RTVSPost2010Prop57
140
1.0
102
RTVSPost2010PropOp57
 70
     1
  0
XRECORD
  5
34B
102
{ACAD_REACTORS
330
34A
102
}
330
34A
100
AcDbXrecord
280
     1
102
RTVSPost2010Prop28
280
     0
102
RTVSPost2010PropOp28
 70
     1
102
RTVSPost2010Prop29
280
     1
102
RTVSPost2010PropOp29
 70
     1
102
RTVSPost2010Prop30
280
     1
102
RTVSPost2010PropOp30
 70
     1
102
RTVSPost2010Prop31
280
     0
102
RTVSPost2010PropOp31
 70
     1
102
RTVSPost2010Prop32
280
     0
102
RTVSPost2010PropOp32
 70
     1
102
RTVSPost2010Prop33
280
     0
102
RTVSPost2010PropOp33
 70
     1
102
RTVSPost2010Prop34
280
     0
102
RTVSPost2010PropOp34
 70
     1
102
RTVSPost2010Prop35
280
     0
102
RTVSPost2010PropOp35
 70
     1
102
RTVSPost2010Prop36
280
     0
102
RTVSPost2010PropOp36
 70
     1
102
RTVSPost2010Prop37
 90
       50
102
RTVSPost2010PropOp37
 70
     1
102
RTVSPost2010Prop38
140
0.0
102
RTVSPost2010PropOp38
 70
     1
102
RTVSPost2010Prop39
140
1.0
102
RTVSPost2010PropOp39
 70
     1
102
RTVSPost2010Prop40
 90
        0
102
RTVSPost2010PropOp40
 70
     1
102
RTVSPost2010Prop41ColorIndex
 90
       18
102
RTVSPost2010Prop41ColorRGB
 90
        0
102
RTVSPost2010PropOp41
 70
     1
102
RTVSPost2010Prop42
 90
       50
102
RTVSPost2010PropOp42
 70
     1
102
RTVSPost2010Prop43
 90
        3
102
RTVSPost2010PropOp43
 70
     1
102
RTVSPost2010Prop44ColorIndex
 90
        5
102
RTVSPost2010Prop44ColorRGB
 90
      255
102
RTVSPost2010PropOp44
 70
     1
102
RTVSPost2010Prop45
280
     0
102
RTVSPost2010PropOp45
 70
     1
102
RTVSPost2010Prop46
 90
       50
102
RTVSPost2010PropOp46
 70
     1
102
RTVSPost2010Prop47
 90
       50
102
RTVSPost2010PropOp47
 70
     1
102
RTVSPost2010Prop48
 90
       50
102
RTVSPost2010PropOp48
 70
     1
102
RTVSPost2010Prop49
280
     0
102
RTVSPost2010PropOp49
 70
     1
102
RTVSPost2010Prop50
 90
       50
102
RTVSPost2010PropOp50
 70
     1
102
RTVSPost2010Prop51ColorIndex
 90
      256
102
RTVSPost2010Prop51ColorRGB
 90
-16777216
102
RTVSPost2010PropOp51
 70
     0
102
RTVSPost2010Prop52
140
1.0
102
RTVSPost2010PropOp52
 70
     0
102
RTVSPost2010Prop53
 90
        2
102
RTVSPost2010PropOp53
 70
     1
102
RTVSPost2010Prop54
  1
strokes_ogs.tif
102
RTVSPost2010PropOp54
 70
     1
102
RTVSPost2010Prop55
280
     0
102
RTVSPost2010PropOp55
 70
     1
102
RTVSPost2010Prop56
140
1.0
102
RTVSPost2010PropOp56
 70
     1
102
RTVSPost2010Prop57
140
1.0
102
RTVSPost2010PropOp57
 70
     1
  0
XRECORD
  5
34D
102
{ACAD_REACTORS
330
34C
102
}
330
34C
100
AcDbXrecord
280
     1
102
RTVSPost2010Prop28
280
     0
102
RTVSPost2010PropOp28
 70
     1
102
RTVSPost2010Prop29
280
     1
102
RTVSPost2010PropOp29
 70
     1
102
RTVSPost2010Prop30
280
     1
102
RTVSPost2010PropOp30
 70
     1
102
RTVSPost2010Prop31
280
     0
102
RTVSPost2010PropOp31
 70
     1
102
RTVSPost2010Prop32
280
     0
102
RTVSPost2010PropOp32
 70
     1
102
RTVSPost2010Prop33
280
     0
102
RTVSPost2010PropOp33
 70
     1
102
RTVSPost2010Prop34
280
     0
102
RTVSPost2010PropOp34
 70
     1
102
RTVSPost2010Prop35
280
     0
102
RTVSPost2010PropOp35
 70
     1
102
RTVSPost2010Prop36
280
     0
102
RTVSPost2010PropOp36
 70
     1
102
RTVSPost2010Prop37
 90
       50
102
RTVSPost2010PropOp37
 70
     1
102
RTVSPost2010Prop38
140
0.0
102
RTVSPost2010PropOp38
 70
     1
102
RTVSPost2010Prop39
140
1.0
102
RTVSPost2010PropOp39
 70
     1
102
RTVSPost2010Prop40
 90
        0
102
RTVSPost2010PropOp40
 70
     1
102
RTVSPost2010Prop41ColorIndex
 90
       18
102
RTVSPost2010Prop41ColorRGB
 90
        0
102
RTVSPost2010PropOp41
 70
     1
102
RTVSPost2010Prop42
 90
       50
102
RTVSPost2010PropOp42
 70
     1
102
RTVSPost2010Prop43
 90
        3
102
RTVSPost2010PropOp43
 70
     1
102
RTVSPost2010Prop44ColorIndex
 90
        5
102
RTVSPost2010Prop44ColorRGB
 90
      255
102
RTVSPost2010PropOp44
 70
     1
102
RTVSPost2010Prop45
280
     0
102
RTVSPost2010PropOp45
 70
     1
102
RTVSPost2010Prop46
 90
       50
102
RTVSPost2010PropOp46
 70
     1
102
RTVSPost2010Prop47
 90
       50
102
RTVSPost2010PropOp47
 70
     1
102
RTVSPost2010Prop48
 90
       50
102
RTVSPost2010PropOp48
 70
     1
102
RTVSPost2010Prop49
280
     0
102
RTVSPost2010PropOp49
 70
     1
102
RTVSPost2010Prop50
 90
       50
102
RTVSPost2010PropOp50
 70
     1
102
RTVSPost2010Prop51ColorIndex
 90
      256
102
RTVSPost2010Prop51ColorRGB
 90
-16777216
102
RTVSPost2010PropOp51
 70
     0
102
RTVSPost2010Prop52
140
1.0
102
RTVSPost2010PropOp52
 70
     0
102
RTVSPost2010Prop53
 90
        2
102
RTVSPost2010PropOp53
 70
     1
102
RTVSPost2010Prop54
  1
strokes_ogs.tif
102
RTVSPost2010PropOp54
 70
     1
102
RTVSPost2010Prop55
280
     0
102
RTVSPost2010PropOp55
 70
     1
102
RTVSPost2010Prop56
140
1.0
102
RTVSPost2010PropOp56
 70
     1
102
RTVSPost2010Prop57
140
1.0
102
RTVSPost2010PropOp57
 70
     1
  0
XRECORD
  5
353
102
{ACAD_REACTORS
330
352
102
}
330
352
100
AcDbXrecord
280
     1
102
RTVSPost2010Prop28
280
     0
102
RTVSPost2010PropOp28
 70
     1
102
RTVSPost2010Prop29
280
     1
102
RTVSPost2010PropOp29
 70
     1
102
RTVSPost2010Prop30
280
     1
102
RTVSPost2010PropOp30
 70
     1
102
RTVSPost2010Prop31
280
     0
102
RTVSPost2010PropOp31
 70
     1
102
RTVSPost2010Prop32
280
     0
102
RTVSPost2010PropOp32
 70
     1
102
RTVSPost2010Prop33
280
     0
102
RTVSPost2010PropOp33
 70
     1
102
RTVSPost2010Prop34
280
     0
102
RTVSPost2010PropOp34
 70
     1
102
RTVSPost2010Prop35
280
     0
102
RTVSPost2010PropOp35
 70
     1
102
RTVSPost2010Prop36
280
     0
102
RTVSPost2010PropOp36
 70
     1
102
RTVSPost2010Prop37
 90
       50
102
RTVSPost2010PropOp37
 70
     1
102
RTVSPost2010Prop38
140
0.0
102
RTVSPost2010PropOp38
 70
     1
102
RTVSPost2010Prop39
140
1.0
102
RTVSPost2010PropOp39
 70
     1
102
RTVSPost2010Prop40
 90
        0
102
RTVSPost2010PropOp40
 70
     1
102
RTVSPost2010Prop41ColorIndex
 90
       18
102
RTVSPost2010Prop41ColorRGB
 90
        0
102
RTVSPost2010PropOp41
 70
     1
102
RTVSPost2010Prop42
 90
       50
102
RTVSPost2010PropOp42
 70
     1
102
RTVSPost2010Prop43
 90
        3
102
RTVSPost2010PropOp43
 70
     1
102
RTVSPost2010Prop44ColorIndex
 90
        5
102
RTVSPost2010Prop44ColorRGB
 90
      255
102
RTVSPost2010PropOp44
 70
     1
102
RTVSPost2010Prop45
280
     0
102
RTVSPost2010PropOp45
 70
     1
102
RTVSPost2010Prop46
 90
       50
102
RTVSPost2010PropOp46
 70
     1
102
RTVSPost2010Prop47
 90
       50
102
RTVSPost2010PropOp47
 70
     1
102
RTVSPost2010Prop48
 90
       50
102
RTVSPost2010PropOp48
 70
     1
102
RTVSPost2010Prop49
280
     0
102
RTVSPost2010PropOp49
 70
     1
102
RTVSPost2010Prop50
 90
       50
102
RTVSPost2010PropOp50
 70
     1
102
RTVSPost2010Prop51ColorIndex
 90
      256
102
RTVSPost2010Prop51ColorRGB
 90
-16777216
102
RTVSPost2010PropOp51
 70
     0
102
RTVSPost2010Prop52
140
1.0
102
RTVSPost2010PropOp52
 70
     0
102
RTVSPost2010Prop53
 90
        2
102
RTVSPost2010PropOp53
 70
     1
102
RTVSPost2010Prop54
  1
strokes_ogs.tif
102
RTVSPost2010PropOp54
 70
     1
102
RTVSPost2010Prop55
280
     0
102
RTVSPost2010PropOp55
 70
     1
102
RTVSPost2010Prop56
140
1.0
102
RTVSPost2010PropOp56
 70
     1
102
RTVSPost2010Prop57
140
1.0
102
RTVSPost2010PropOp57
 70
     1
  0
XRECORD
  5
367
102
{ACAD_REACTORS
330
366
102
}
330
366
100
AcDbXrecord
280
     1
102
RTVSPost2010Prop28
280
     0
102
RTVSPost2010PropOp28
 70
     0
102
RTVSPost2010Prop29
280
     1
102
RTVSPost2010PropOp29
 70
     0
102
RTVSPost2010Prop30
280
     1
102
RTVSPost2010PropOp30
 70
     0
102
RTVSPost2010Prop31
280
     0
102
RTVSPost2010PropOp31
 70
     0
102
RTVSPost2010Prop32
280
     0
102
RTVSPost2010PropOp32
 70
     0
102
RTVSPost2010Prop33
280
     0
102
RTVSPost2010PropOp33
 70
     0
102
RTVSPost2010Prop34
280
     0
102
RTVSPost2010PropOp34
 70
     0
102
RTVSPost2010Prop35
280
     0
102
RTVSPost2010PropOp35
 70
     0
102
RTVSPost2010Prop36
280
     0
102
RTVSPost2010PropOp36
 70
     0
102
RTVSPost2010Prop37
 90
       50
102
RTVSPost2010PropOp37
 70
     0
102
RTVSPost2010Prop38
140
0.0
102
RTVSPost2010PropOp38
 70
     0
102
RTVSPost2010Prop39
140
1.0
102
RTVSPost2010PropOp39
 70
     0
102
RTVSPost2010Prop40
 90
        0
102
RTVSPost2010PropOp40
 70
     0
102
RTVSPost2010Prop41ColorIndex
 90
       18
102
RTVSPost2010Prop41ColorRGB
 90
        0
102
RTVSPost2010PropOp41
 70
     0
102
RTVSPost2010Prop42
 90
       50
102
RTVSPost2010PropOp42
 70
     0
102
RTVSPost2010Prop43
 90
        3
102
RTVSPost2010PropOp43
 70
     0
102
RTVSPost2010Prop44ColorIndex
 90
        5
102
RTVSPost2010Prop44ColorRGB
 90
      255
102
RTVSPost2010PropOp44
 70
     0
102
RTVSPost2010Prop45
280
     0
102
RTVSPost2010PropOp45
 70
     0
102
RTVSPost2010Prop46
 90
       50
102
RTVSPost2010PropOp46
 70
     0
102
RTVSPost2010Prop47
 90
       50
102
RTVSPost2010PropOp47
 70
     0
102
RTVSPost2010Prop48
 90
       50
102
RTVSPost2010PropOp48
 70
     0
102
RTVSPost2010Prop49
280
     0
102
RTVSPost2010PropOp49
 70
     0
102
RTVSPost2010Prop50
 90
       50
102
RTVSPost2010PropOp50
 70
     0
102
RTVSPost2010Prop51ColorIndex
 90
      256
102
RTVSPost2010Prop51ColorRGB
 90
-16777216
102
RTVSPost2010PropOp51
 70
     0
102
RTVSPost2010Prop52
140
1.0
102
RTVSPost2010PropOp52
 70
     0
102
RTVSPost2010Prop53
 90
        2
102
RTVSPost2010PropOp53
 70
     0
102
RTVSPost2010Prop54
  1
strokes_ogs.tif
102
RTVSPost2010PropOp54
 70
     0
102
RTVSPost2010Prop55
280
     0
102
RTVSPost2010PropOp55
 70
     0
102
RTVSPost2010Prop56
140
1.0
102
RTVSPost2010PropOp56
 70
     0
102
RTVSPost2010Prop57
140
1.0
102
RTVSPost2010PropOp57
 70
     0
  0
XRECORD
  5
361
102
{ACAD_REACTORS
330
360
102
}
330
360
100
AcDbXrecord
280
     1
102
RTVSPost2010Prop28
280
     0
102
RTVSPost2010PropOp28
 70
     1
102
RTVSPost2010Prop29
280
     1
102
RTVSPost2010PropOp29
 70
     1
102
RTVSPost2010Prop30
280
     1
102
RTVSPost2010PropOp30
 70
     1
102
RTVSPost2010Prop31
280
     0
102
RTVSPost2010PropOp31
 70
     1
102
RTVSPost2010Prop32
280
     0
102
RTVSPost2010PropOp32
 70
     1
102
RTVSPost2010Prop33
280
     0
102
RTVSPost2010PropOp33
 70
     1
102
RTVSPost2010Prop34
280
     0
102
RTVSPost2010PropOp34
 70
     1
102
RTVSPost2010Prop35
280
     0
102
RTVSPost2010PropOp35
 70
     1
102
RTVSPost2010Prop36
280
     0
102
RTVSPost2010PropOp36
 70
     1
102
RTVSPost2010Prop37
 90
       50
102
RTVSPost2010PropOp37
 70
     1
102
RTVSPost2010Prop38
140
0.0
102
RTVSPost2010PropOp38
 70
     1
102
RTVSPost2010Prop39
140
1.0
102
RTVSPost2010PropOp39
 70
     1
102
RTVSPost2010Prop40
 90
        0
102
RTVSPost2010PropOp40
 70
     1
102
RTVSPost2010Prop41ColorIndex
 90
       18
102
RTVSPost2010Prop41ColorRGB
 90
        0
102
RTVSPost2010PropOp41
 70
     1
102
RTVSPost2010Prop42
 90
       50
102
RTVSPost2010PropOp42
 70
     1
102
RTVSPost2010Prop43
 90
        3
102
RTVSPost2010PropOp43
 70
     1
102
RTVSPost2010Prop44ColorIndex
 90
        5
102
RTVSPost2010Prop44ColorRGB
 90
      255
102
RTVSPost2010PropOp44
 70
     1
102
RTVSPost2010Prop45
280
     0
102
RTVSPost2010PropOp45
 70
     1
102
RTVSPost2010Prop46
 90
       50
102
RTVSPost2010PropOp46
 70
     1
102
RTVSPost2010Prop47
 90
       50
102
RTVSPost2010PropOp47
 70
     1
102
RTVSPost2010Prop48
 90
       50
102
RTVSPost2010PropOp48
 70
     1
102
RTVSPost2010Prop49
280
     0
102
RTVSPost2010PropOp49
 70
     1
102
RTVSPost2010Prop50
 90
       50
102
RTVSPost2010PropOp50
 70
     1
102
RTVSPost2010Prop51ColorIndex
 90
      256
102
RTVSPost2010Prop51ColorRGB
 90
-16777216
102
RTVSPost2010PropOp51
 70
     0
102
RTVSPost2010Prop52
140
1.0
102
RTVSPost2010PropOp52
 70
     0
102
RTVSPost2010Prop53
 90
        2
102
RTVSPost2010PropOp53
 70
     1
102
RTVSPost2010Prop54
  1
strokes_ogs.tif
102
RTVSPost2010PropOp54
 70
     1
102
RTVSPost2010Prop55
280
     0
102
RTVSPost2010PropOp55
 70
     1
102
RTVSPost2010Prop56
140
1.0
102
RTVSPost2010PropOp56
 70
     1
102
RTVSPost2010Prop57
140
1.0
102
RTVSPost2010PropOp57
 70
     1
  0
XRECORD
  5
369
102
{ACAD_REACTORS
330
368
102
}
330
368
100
AcDbXrecord
280
     1
102
RTVSPost2010Prop28
280
     0
102
RTVSPost2010PropOp28
 70
     0
102
RTVSPost2010Prop29
280
     1
102
RTVSPost2010PropOp29
 70
     0
102
RTVSPost2010Prop30
280
     1
102
RTVSPost2010PropOp30
 70
     0
102
RTVSPost2010Prop31
280
     0
102
RTVSPost2010PropOp31
 70
     0
102
RTVSPost2010Prop32
280
     0
102
RTVSPost2010PropOp32
 70
     0
102
RTVSPost2010Prop33
280
     0
102
RTVSPost2010PropOp33
 70
     0
102
RTVSPost2010Prop34
280
     0
102
RTVSPost2010PropOp34
 70
     0
102
RTVSPost2010Prop35
280
     0
102
RTVSPost2010PropOp35
 70
     0
102
RTVSPost2010Prop36
280
     0
102
RTVSPost2010PropOp36
 70
     0
102
RTVSPost2010Prop37
 90
       50
102
RTVSPost2010PropOp37
 70
     0
102
RTVSPost2010Prop38
140
0.0
102
RTVSPost2010PropOp38
 70
     0
102
RTVSPost2010Prop39
140
1.0
102
RTVSPost2010PropOp39
 70
     0
102
RTVSPost2010Prop40
 90
        0
102
RTVSPost2010PropOp40
 70
     0
102
RTVSPost2010Prop41ColorIndex
 90
       18
102
RTVSPost2010Prop41ColorRGB
 90
        0
102
RTVSPost2010PropOp41
 70
     0
102
RTVSPost2010Prop42
 90
       50
102
RTVSPost2010PropOp42
 70
     0
102
RTVSPost2010Prop43
 90
        3
102
RTVSPost2010PropOp43
 70
     0
102
RTVSPost2010Prop44ColorIndex
 90
        5
102
RTVSPost2010Prop44ColorRGB
 90
      255
102
RTVSPost2010PropOp44
 70
     0
102
RTVSPost2010Prop45
280
     0
102
RTVSPost2010PropOp45
 70
     0
102
RTVSPost2010Prop46
 90
       50
102
RTVSPost2010PropOp46
 70
     0
102
RTVSPost2010Prop47
 90
       50
102
RTVSPost2010PropOp47
 70
     0
102
RTVSPost2010Prop48
 90
       50
102
RTVSPost2010PropOp48
 70
     0
102
RTVSPost2010Prop49
280
     0
102
RTVSPost2010PropOp49
 70
     0
102
RTVSPost2010Prop50
 90
       50
102
RTVSPost2010PropOp50
 70
     0
102
RTVSPost2010Prop51ColorIndex
 90
      256
102
RTVSPost2010Prop51ColorRGB
 90
-16777216
102
RTVSPost2010PropOp51
 70
     0
102
RTVSPost2010Prop52
140
1.0
102
RTVSPost2010PropOp52
 70
     0
102
RTVSPost2010Prop53
 90
        2
102
RTVSPost2010PropOp53
 70
     0
102
RTVSPost2010Prop54
  1
strokes_ogs.tif
102
RTVSPost2010PropOp54
 70
     0
102
RTVSPost2010Prop55
280
     0
102
RTVSPost2010PropOp55
 70
     0
102
RTVSPost2010Prop56
140
1.0
102
RTVSPost2010PropOp56
 70
     0
102
RTVSPost2010Prop57
140
1.0
102
RTVSPost2010PropOp57
 70
     0
  0
XRECORD
  5
357
102
{ACAD_REACTORS
330
356
102
}
330
356
100
AcDbXrecord
280
     1
102
RTVSPost2010Prop28
280
     0
102
RTVSPost2010PropOp28
 70
     1
102
RTVSPost2010Prop29
280
     1
102
RTVSPost2010PropOp29
 70
     1
102
RTVSPost2010Prop30
280
     1
102
RTVSPost2010PropOp30
 70
     1
102
RTVSPost2010Prop31
280
     0
102
RTVSPost2010PropOp31
 70
     1
102
RTVSPost2010Prop32
280
     0
102
RTVSPost2010PropOp32
 70
     1
102
RTVSPost2010Prop33
280
     0
102
RTVSPost2010PropOp33
 70
     1
102
RTVSPost2010Prop34
280
     0
102
RTVSPost2010PropOp34
 70
     1
102
RTVSPost2010Prop35
280
     0
102
RTVSPost2010PropOp35
 70
     1
102
RTVSPost2010Prop36
280
     0
102
RTVSPost2010PropOp36
 70
     1
102
RTVSPost2010Prop37
 90
       50
102
RTVSPost2010PropOp37
 70
     1
102
RTVSPost2010Prop38
140
0.0
102
RTVSPost2010PropOp38
 70
     1
102
RTVSPost2010Prop39
140
1.0
102
RTVSPost2010PropOp39
 70
     1
102
RTVSPost2010Prop40
 90
        0
102
RTVSPost2010PropOp40
 70
     1
102
RTVSPost2010Prop41ColorIndex
 90
       18
102
RTVSPost2010Prop41ColorRGB
 90
        0
102
RTVSPost2010PropOp41
 70
     1
102
RTVSPost2010Prop42
 90
       50
102
RTVSPost2010PropOp42
 70
     1
102
RTVSPost2010Prop43
 90
        3
102
RTVSPost2010PropOp43
 70
     1
102
RTVSPost2010Prop44ColorIndex
 90
        5
102
RTVSPost2010Prop44ColorRGB
 90
      255
102
RTVSPost2010PropOp44
 70
     1
102
RTVSPost2010Prop45
280
     0
102
RTVSPost2010PropOp45
 70
     1
102
RTVSPost2010Prop46
 90
       50
102
RTVSPost2010PropOp46
 70
     1
102
RTVSPost2010Prop47
 90
       50
102
RTVSPost2010PropOp47
 70
     1
102
RTVSPost2010Prop48
 90
       50
102
RTVSPost2010PropOp48
 70
     1
102
RTVSPost2010Prop49
280
     0
102
RTVSPost2010PropOp49
 70
     1
102
RTVSPost2010Prop50
 90
       50
102
RTVSPost2010PropOp50
 70
     1
102
RTVSPost2010Prop51ColorIndex
 90
      256
102
RTVSPost2010Prop51ColorRGB
 90
-16777216
102
RTVSPost2010PropOp51
 70
     0
102
RTVSPost2010Prop52
140
1.0
102
RTVSPost2010PropOp52
 70
     0
102
RTVSPost2010Prop53
 90
        2
102
RTVSPost2010PropOp53
 70
     1
102
RTVSPost2010Prop54
  1
strokes_ogs.tif
102
RTVSPost2010PropOp54
 70
     1
102
RTVSPost2010Prop55
280
     0
102
RTVSPost2010PropOp55
 70
     1
102
RTVSPost2010Prop56
140
1.0
102
RTVSPost2010PropOp56
 70
     1
102
RTVSPost2010Prop57
140
1.0
102
RTVSPost2010PropOp57
 70
     1
  0
XRECORD
  5
375
102
{ACAD_REACTORS
330
374
102
}
330
374
100
AcDbXrecord
280
     1
102
RTVSPost2010Prop28
280
     0
102
RTVSPost2010PropOp28
 70
     1
102
RTVSPost2010Prop29
280
     1
102
RTVSPost2010PropOp29
 70
     1
102
RTVSPost2010Prop30
280
     1
102
RTVSPost2010PropOp30
 70
     1
102
RTVSPost2010Prop31
280
     0
102
RTVSPost2010PropOp31
 70
     1
102
RTVSPost2010Prop32
280
     0
102
RTVSPost2010PropOp32
 70
     1
102
RTVSPost2010Prop33
280
     0
102
RTVSPost2010PropOp33
 70
     1
102
RTVSPost2010Prop34
280
     0
102
RTVSPost2010PropOp34
 70
     1
102
RTVSPost2010Prop35
280
     0
102
RTVSPost2010PropOp35
 70
     1
102
RTVSPost2010Prop36
280
     0
102
RTVSPost2010PropOp36
 70
     1
102
RTVSPost2010Prop37
 90
       50
102
RTVSPost2010PropOp37
 70
     1
102
RTVSPost2010Prop38
140
0.0
102
RTVSPost2010PropOp38
 70
     1
102
RTVSPost2010Prop39
140
1.0
102
RTVSPost2010PropOp39
 70
     1
102
RTVSPost2010Prop40
 90
        0
102
RTVSPost2010PropOp40
 70
     1
102
RTVSPost2010Prop41ColorIndex
 90
       18
102
RTVSPost2010Prop41ColorRGB
 90
        0
102
RTVSPost2010PropOp41
 70
     1
102
RTVSPost2010Prop42
 90
       50
102
RTVSPost2010PropOp42
 70
     1
102
RTVSPost2010Prop43
 90
        3
102
RTVSPost2010PropOp43
 70
     1
102
RTVSPost2010Prop44ColorIndex
 90
        5
102
RTVSPost2010Prop44ColorRGB
 90
      255
102
RTVSPost2010PropOp44
 70
     1
102
RTVSPost2010Prop45
280
     0
102
RTVSPost2010PropOp45
 70
     1
102
RTVSPost2010Prop46
 90
       50
102
RTVSPost2010PropOp46
 70
     1
102
RTVSPost2010Prop47
 90
       50
102
RTVSPost2010PropOp47
 70
     1
102
RTVSPost2010Prop48
 90
       50
102
RTVSPost2010PropOp48
 70
     1
102
RTVSPost2010Prop49
280
     0
102
RTVSPost2010PropOp49
 70
     1
102
RTVSPost2010Prop50
 90
       50
102
RTVSPost2010PropOp50
 70
     1
102
RTVSPost2010Prop51ColorIndex
 90
      256
102
RTVSPost2010Prop51ColorRGB
 90
-16777216
102
RTVSPost2010PropOp51
 70
     0
102
RTVSPost2010Prop52
140
1.0
102
RTVSPost2010PropOp52
 70
     0
102
RTVSPost2010Prop53
 90
        2
102
RTVSPost2010PropOp53
 70
     1
102
RTVSPost2010Prop54
  1
strokes_ogs.tif
102
RTVSPost2010PropOp54
 70
     1
102
RTVSPost2010Prop55
280
     0
102
RTVSPost2010PropOp55
 70
     1
102
RTVSPost2010Prop56
140
1.0
102
RTVSPost2010PropOp56
 70
     1
102
RTVSPost2010Prop57
140
1.0
102
RTVSPost2010PropOp57
 70
     1
  0
XRECORD
  5
373
102
{ACAD_REACTORS
330
372
102
}
330
372
100
AcDbXrecord
280
     1
102
RTVSPost2010Prop28
280
     0
102
RTVSPost2010PropOp28
 70
     1
102
RTVSPost2010Prop29
280
     1
102
RTVSPost2010PropOp29
 70
     1
102
RTVSPost2010Prop30
280
     1
102
RTVSPost2010PropOp30
 70
     1
102
RTVSPost2010Prop31
280
     0
102
RTVSPost2010PropOp31
 70
     1
102
RTVSPost2010Prop32
280
     0
102
RTVSPost2010PropOp32
 70
     1
102
RTVSPost2010Prop33
280
     0
102
RTVSPost2010PropOp33
 70
     1
102
RTVSPost2010Prop34
280
     0
102
RTVSPost2010PropOp34
 70
     1
102
RTVSPost2010Prop35
280
     0
102
RTVSPost2010PropOp35
 70
     1
102
RTVSPost2010Prop36
280
     0
102
RTVSPost2010PropOp36
 70
     1
102
RTVSPost2010Prop37
 90
       50
102
RTVSPost2010PropOp37
 70
     1
102
RTVSPost2010Prop38
140
0.0
102
RTVSPost2010PropOp38
 70
     1
102
RTVSPost2010Prop39
140
1.0
102
RTVSPost2010PropOp39
 70
     1
102
RTVSPost2010Prop40
 90
        0
102
RTVSPost2010PropOp40
 70
     1
102
RTVSPost2010Prop41ColorIndex
 90
       18
102
RTVSPost2010Prop41ColorRGB
 90
        0
102
RTVSPost2010PropOp41
 70
     1
102
RTVSPost2010Prop42
 90
       50
102
RTVSPost2010PropOp42
 70
     1
102
RTVSPost2010Prop43
 90
        3
102
RTVSPost2010PropOp43
 70
     1
102
RTVSPost2010Prop44ColorIndex
 90
        5
102
RTVSPost2010Prop44ColorRGB
 90
      255
102
RTVSPost2010PropOp44
 70
     1
102
RTVSPost2010Prop45
280
     0
102
RTVSPost2010PropOp45
 70
     1
102
RTVSPost2010Prop46
 90
       50
102
RTVSPost2010PropOp46
 70
     1
102
RTVSPost2010Prop47
 90
       50
102
RTVSPost2010PropOp47
 70
     1
102
RTVSPost2010Prop48
 90
       50
102
RTVSPost2010PropOp48
 70
     1
102
RTVSPost2010Prop49
280
     0
102
RTVSPost2010PropOp49
 70
     1
102
RTVSPost2010Prop50
 90
       50
102
RTVSPost2010PropOp50
 70
     1
102
RTVSPost2010Prop51ColorIndex
 90
      256
102
RTVSPost2010Prop51ColorRGB
 90
-16777216
102
RTVSPost2010PropOp51
 70
     0
102
RTVSPost2010Prop52
140
1.0
102
RTVSPost2010PropOp52
 70
     0
102
RTVSPost2010Prop53
 90
        2
102
RTVSPost2010PropOp53
 70
     1
102
RTVSPost2010Prop54
  1
strokes_ogs.tif
102
RTVSPost2010PropOp54
 70
     1
102
RTVSPost2010Prop55
280
     0
102
RTVSPost2010PropOp55
 70
     1
102
RTVSPost2010Prop56
140
1.0
102
RTVSPost2010PropOp56
 70
     1
102
RTVSPost2010Prop57
140
1.0
102
RTVSPost2010PropOp57
 70
     1
  0
XRECORD
  5
36D
102
{ACAD_REACTORS
330
36C
102
}
330
36C
100
AcDbXrecord
280
     1
102
RTVSPost2010Prop28
280
     0
102
RTVSPost2010PropOp28
 70
     1
102
RTVSPost2010Prop29
280
     1
102
RTVSPost2010PropOp29
 70
     1
102
RTVSPost2010Prop30
280
     1
102
RTVSPost2010PropOp30
 70
     1
102
RTVSPost2010Prop31
280
     0
102
RTVSPost2010PropOp31
 70
     1
102
RTVSPost2010Prop32
280
     0
102
RTVSPost2010PropOp32
 70
     1
102
RTVSPost2010Prop33
280
     0
102
RTVSPost2010PropOp33
 70
     1
102
RTVSPost2010Prop34
280
     0
102
RTVSPost2010PropOp34
 70
     1
102
RTVSPost2010Prop35
280
     0
102
RTVSPost2010PropOp35
 70
     1
102
RTVSPost2010Prop36
280
     0
102
RTVSPost2010PropOp36
 70
     1
102
RTVSPost2010Prop37
 90
       50
102
RTVSPost2010PropOp37
 70
     1
102
RTVSPost2010Prop38
140
0.0
102
RTVSPost2010PropOp38
 70
     1
102
RTVSPost2010Prop39
140
1.0
102
RTVSPost2010PropOp39
 70
     1
102
RTVSPost2010Prop40
 90
        0
102
RTVSPost2010PropOp40
 70
     1
102
RTVSPost2010Prop41ColorIndex
 90
       18
102
RTVSPost2010Prop41ColorRGB
 90
        0
102
RTVSPost2010PropOp41
 70
     1
102
RTVSPost2010Prop42
 90
       50
102
RTVSPost2010PropOp42
 70
     1
102
RTVSPost2010Prop43
 90
        3
102
RTVSPost2010PropOp43
 70
     1
102
RTVSPost2010Prop44ColorIndex
 90
        5
102
RTVSPost2010Prop44ColorRGB
 90
      255
102
RTVSPost2010PropOp44
 70
     1
102
RTVSPost2010Prop45
280
     0
102
RTVSPost2010PropOp45
 70
     1
102
RTVSPost2010Prop46
 90
       50
102
RTVSPost2010PropOp46
 70
     1
102
RTVSPost2010Prop47
 90
       50
102
RTVSPost2010PropOp47
 70
     1
102
RTVSPost2010Prop48
 90
       50
102
RTVSPost2010PropOp48
 70
     1
102
RTVSPost2010Prop49
280
     0
102
RTVSPost2010PropOp49
 70
     1
102
RTVSPost2010Prop50
 90
       50
102
RTVSPost2010PropOp50
 70
     1
102
RTVSPost2010Prop51ColorIndex
 90
      256
102
RTVSPost2010Prop51ColorRGB
 90
-16777216
102
RTVSPost2010PropOp51
 70
     0
102
RTVSPost2010Prop52
140
1.0
102
RTVSPost2010PropOp52
 70
     0
102
RTVSPost2010Prop53
 90
        2
102
RTVSPost2010PropOp53
 70
     1
102
RTVSPost2010Prop54
  1
strokes_ogs.tif
102
RTVSPost2010PropOp54
 70
     1
102
RTVSPost2010Prop55
280
     0
102
RTVSPost2010PropOp55
 70
     1
102
RTVSPost2010Prop56
140
1.0
102
RTVSPost2010PropOp56
 70
     1
102
RTVSPost2010Prop57
140
1.0
102
RTVSPost2010PropOp57
 70
     1
  0
XRECORD
  5
36F
102
{ACAD_REACTORS
330
36E
102
}
330
36E
100
AcDbXrecord
280
     1
102
RTVSPost2010Prop28
280
     0
102
RTVSPost2010PropOp28
 70
     1
102
RTVSPost2010Prop29
280
     1
102
RTVSPost2010PropOp29
 70
     1
102
RTVSPost2010Prop30
280
     1
102
RTVSPost2010PropOp30
 70
     1
102
RTVSPost2010Prop31
280
     0
102
RTVSPost2010PropOp31
 70
     1
102
RTVSPost2010Prop32
280
     0
102
RTVSPost2010PropOp32
 70
     1
102
RTVSPost2010Prop33
280
     0
102
RTVSPost2010PropOp33
 70
     1
102
RTVSPost2010Prop34
280
     0
102
RTVSPost2010PropOp34
 70
     1
102
RTVSPost2010Prop35
280
     0
102
RTVSPost2010PropOp35
 70
     1
102
RTVSPost2010Prop36
280
     0
102
RTVSPost2010PropOp36
 70
     1
102
RTVSPost2010Prop37
 90
       50
102
RTVSPost2010PropOp37
 70
     1
102
RTVSPost2010Prop38
140
0.0
102
RTVSPost2010PropOp38
 70
     1
102
RTVSPost2010Prop39
140
1.0
102
RTVSPost2010PropOp39
 70
     1
102
RTVSPost2010Prop40
 90
        0
102
RTVSPost2010PropOp40
 70
     1
102
RTVSPost2010Prop41ColorIndex
 90
       18
102
RTVSPost2010Prop41ColorRGB
 90
        0
102
RTVSPost2010PropOp41
 70
     1
102
RTVSPost2010Prop42
 90
       50
102
RTVSPost2010PropOp42
 70
     1
102
RTVSPost2010Prop43
 90
        3
102
RTVSPost2010PropOp43
 70
     1
102
RTVSPost2010Prop44ColorIndex
 90
        5
102
RTVSPost2010Prop44ColorRGB
 90
      255
102
RTVSPost2010PropOp44
 70
     1
102
RTVSPost2010Prop45
280
     0
102
RTVSPost2010PropOp45
 70
     1
102
RTVSPost2010Prop46
 90
       50
102
RTVSPost2010PropOp46
 70
     1
102
RTVSPost2010Prop47
 90
       50
102
RTVSPost2010PropOp47
 70
     1
102
RTVSPost2010Prop48
 90
       50
102
RTVSPost2010PropOp48
 70
     1
102
RTVSPost2010Prop49
280
     0
102
RTVSPost2010PropOp49
 70
     1
102
RTVSPost2010Prop50
 90
       50
102
RTVSPost2010PropOp50
 70
     1
102
RTVSPost2010Prop51ColorIndex
 90
      256
102
RTVSPost2010Prop51ColorRGB
 90
-16777216
102
RTVSPost2010PropOp51
 70
     0
102
RTVSPost2010Prop52
140
1.0
102
RTVSPost2010PropOp52
 70
     0
102
RTVSPost2010Prop53
 90
        2
102
RTVSPost2010PropOp53
 70
     1
102
RTVSPost2010Prop54
  1
strokes_ogs.tif
102
RTVSPost2010PropOp54
 70
     1
102
RTVSPost2010Prop55
280
     0
102
RTVSPost2010PropOp55
 70
     1
102
RTVSPost2010Prop56
140
1.0
102
RTVSPost2010PropOp56
 70
     1
102
RTVSPost2010Prop57
140
1.0
102
RTVSPost2010PropOp57
 70
     1
  0
XRECORD
  5
35F
102
{ACAD_REACTORS
330
35E
102
}
330
35E
100
AcDbXrecord
280
     1
102
RTVSPost2010Prop28
280
     0
102
RTVSPost2010PropOp28
 70
     1
102
RTVSPost2010Prop29
280
     1
102
RTVSPost2010PropOp29
 70
     1
102
RTVSPost2010Prop30
280
     1
102
RTVSPost2010PropOp30
 70
     1
102
RTVSPost2010Prop31
280
     0
102
RTVSPost2010PropOp31
 70
     1
102
RTVSPost2010Prop32
280
     0
102
RTVSPost2010PropOp32
 70
     1
102
RTVSPost2010Prop33
280
     0
102
RTVSPost2010PropOp33
 70
     1
102
RTVSPost2010Prop34
280
     0
102
RTVSPost2010PropOp34
 70
     1
102
RTVSPost2010Prop35
280
     0
102
RTVSPost2010PropOp35
 70
     1
102
RTVSPost2010Prop36
280
     0
102
RTVSPost2010PropOp36
 70
     1
102
RTVSPost2010Prop37
 90
       50
102
RTVSPost2010PropOp37
 70
     1
102
RTVSPost2010Prop38
140
0.0
102
RTVSPost2010PropOp38
 70
     1
102
RTVSPost2010Prop39
140
1.0
102
RTVSPost2010PropOp39
 70
     1
102
RTVSPost2010Prop40
 90
        0
102
RTVSPost2010PropOp40
 70
     1
102
RTVSPost2010Prop41ColorIndex
 90
       18
102
RTVSPost2010Prop41ColorRGB
 90
        0
102
RTVSPost2010PropOp41
 70
     1
102
RTVSPost2010Prop42
 90
       50
102
RTVSPost2010PropOp42
 70
     1
102
RTVSPost2010Prop43
 90
        3
102
RTVSPost2010PropOp43
 70
     1
102
RTVSPost2010Prop44ColorIndex
 90
        5
102
RTVSPost2010Prop44ColorRGB
 90
      255
102
RTVSPost2010PropOp44
 70
     1
102
RTVSPost2010Prop45
280
     0
102
RTVSPost2010PropOp45
 70
     1
102
RTVSPost2010Prop46
 90
       50
102
RTVSPost2010PropOp46
 70
     1
102
RTVSPost2010Prop47
 90
       50
102
RTVSPost2010PropOp47
 70
     1
102
RTVSPost2010Prop48
 90
       50
102
RTVSPost2010PropOp48
 70
     1
102
RTVSPost2010Prop49
280
     0
102
RTVSPost2010PropOp49
 70
     1
102
RTVSPost2010Prop50
 90
       50
102
RTVSPost2010PropOp50
 70
     1
102
RTVSPost2010Prop51ColorIndex
 90
      256
102
RTVSPost2010Prop51ColorRGB
 90
-16777216
102
RTVSPost2010PropOp51
 70
     0
102
RTVSPost2010Prop52
140
1.0
102
RTVSPost2010PropOp52
 70
     0
102
RTVSPost2010Prop53
 90
        2
102
RTVSPost2010PropOp53
 70
     1
102
RTVSPost2010Prop54
  1
strokes_ogs.tif
102
RTVSPost2010PropOp54
 70
     1
102
RTVSPost2010Prop55
280
     0
102
RTVSPost2010PropOp55
 70
     1
102
RTVSPost2010Prop56
140
1.0
102
RTVSPost2010PropOp56
 70
     1
102
RTVSPost2010Prop57
140
1.0
102
RTVSPost2010PropOp57
 70
     1
  0
XRECORD
  5
351
102
{ACAD_REACTORS
330
350
102
}
330
350
100
AcDbXrecord
280
     1
102
RTVSPost2010Prop28
280
     0
102
RTVSPost2010PropOp28
 70
     1
102
RTVSPost2010Prop29
280
     1
102
RTVSPost2010PropOp29
 70
     1
102
RTVSPost2010Prop30
280
     1
102
RTVSPost2010PropOp30
 70
     1
102
RTVSPost2010Prop31
280
     0
102
RTVSPost2010PropOp31
 70
     1
102
RTVSPost2010Prop32
280
     0
102
RTVSPost2010PropOp32
 70
     1
102
RTVSPost2010Prop33
280
     0
102
RTVSPost2010PropOp33
 70
     1
102
RTVSPost2010Prop34
280
     0
102
RTVSPost2010PropOp34
 70
     1
102
RTVSPost2010Prop35
280
     0
102
RTVSPost2010PropOp35
 70
     1
102
RTVSPost2010Prop36
280
     0
102
RTVSPost2010PropOp36
 70
     1
102
RTVSPost2010Prop37
 90
       50
102
RTVSPost2010PropOp37
 70
     1
102
RTVSPost2010Prop38
140
0.0
102
RTVSPost2010PropOp38
 70
     1
102
RTVSPost2010Prop39
140
1.0
102
RTVSPost2010PropOp39
 70
     1
102
RTVSPost2010Prop40
 90
        0
102
RTVSPost2010PropOp40
 70
     1
102
RTVSPost2010Prop41ColorIndex
 90
       18
102
RTVSPost2010Prop41ColorRGB
 90
        0
102
RTVSPost2010PropOp41
 70
     1
102
RTVSPost2010Prop42
 90
       50
102
RTVSPost2010PropOp42
 70
     1
102
RTVSPost2010Prop43
 90
        3
102
RTVSPost2010PropOp43
 70
     1
102
RTVSPost2010Prop44ColorIndex
 90
        5
102
RTVSPost2010Prop44ColorRGB
 90
      255
102
RTVSPost2010PropOp44
 70
     1
102
RTVSPost2010Prop45
280
     0
102
RTVSPost2010PropOp45
 70
     1
102
RTVSPost2010Prop46
 90
       50
102
RTVSPost2010PropOp46
 70
     1
102
RTVSPost2010Prop47
 90
       50
102
RTVSPost2010PropOp47
 70
     1
102
RTVSPost2010Prop48
 90
       50
102
RTVSPost2010PropOp48
 70
     1
102
RTVSPost2010Prop49
280
     0
102
RTVSPost2010PropOp49
 70
     1
102
RTVSPost2010Prop50
 90
       50
102
RTVSPost2010PropOp50
 70
     1
102
RTVSPost2010Prop51ColorIndex
 90
      256
102
RTVSPost2010Prop51ColorRGB
 90
-16777216
102
RTVSPost2010PropOp51
 70
     0
102
RTVSPost2010Prop52
140
1.0
102
RTVSPost2010PropOp52
 70
     0
102
RTVSPost2010Prop53
 90
        2
102
RTVSPost2010PropOp53
 70
     1
102
RTVSPost2010Prop54
  1
strokes_ogs.tif
102
RTVSPost2010PropOp54
 70
     1
102
RTVSPost2010Prop55
280
     0
102
RTVSPost2010PropOp55
 70
     1
102
RTVSPost2010Prop56
140
1.0
102
RTVSPost2010PropOp56
 70
     1
102
RTVSPost2010Prop57
140
1.0
102
RTVSPost2010PropOp57
 70
     1
  0
XRECORD
  5
371
102
{ACAD_REACTORS
330
370
102
}
330
370
100
AcDbXrecord
280
     1
102
RTVSPost2010Prop28
280
     0
102
RTVSPost2010PropOp28
 70
     1
102
RTVSPost2010Prop29
280
     1
102
RTVSPost2010PropOp29
 70
     1
102
RTVSPost2010Prop30
280
     1
102
RTVSPost2010PropOp30
 70
     1
102
RTVSPost2010Prop31
280
     0
102
RTVSPost2010PropOp31
 70
     1
102
RTVSPost2010Prop32
280
     0
102
RTVSPost2010PropOp32
 70
     1
102
RTVSPost2010Prop33
280
     0
102
RTVSPost2010PropOp33
 70
     1
102
RTVSPost2010Prop34
280
     0
102
RTVSPost2010PropOp34
 70
     1
102
RTVSPost2010Prop35
280
     0
102
RTVSPost2010PropOp35
 70
     1
102
RTVSPost2010Prop36
280
     0
102
RTVSPost2010PropOp36
 70
     1
102
RTVSPost2010Prop37
 90
       50
102
RTVSPost2010PropOp37
 70
     1
102
RTVSPost2010Prop38
140
0.0
102
RTVSPost2010PropOp38
 70
     1
102
RTVSPost2010Prop39
140
1.0
102
RTVSPost2010PropOp39
 70
     1
102
RTVSPost2010Prop40
 90
        0
102
RTVSPost2010PropOp40
 70
     1
102
RTVSPost2010Prop41ColorIndex
 90
       18
102
RTVSPost2010Prop41ColorRGB
 90
        0
102
RTVSPost2010PropOp41
 70
     1
102
RTVSPost2010Prop42
 90
       50
102
RTVSPost2010PropOp42
 70
     1
102
RTVSPost2010Prop43
 90
        3
102
RTVSPost2010PropOp43
 70
     1
102
RTVSPost2010Prop44ColorIndex
 90
        5
102
RTVSPost2010Prop44ColorRGB
 90
      255
102
RTVSPost2010PropOp44
 70
     1
102
RTVSPost2010Prop45
280
     0
102
RTVSPost2010PropOp45
 70
     1
102
RTVSPost2010Prop46
 90
       50
102
RTVSPost2010PropOp46
 70
     1
102
RTVSPost2010Prop47
 90
       50
102
RTVSPost2010PropOp47
 70
     1
102
RTVSPost2010Prop48
 90
       50
102
RTVSPost2010PropOp48
 70
     1
102
RTVSPost2010Prop49
280
     0
102
RTVSPost2010PropOp49
 70
     1
102
RTVSPost2010Prop50
 90
       50
102
RTVSPost2010PropOp50
 70
     1
102
RTVSPost2010Prop51ColorIndex
 90
      256
102
RTVSPost2010Prop51ColorRGB
 90
-16777216
102
RTVSPost2010PropOp51
 70
     0
102
RTVSPost2010Prop52
140
1.0
102
RTVSPost2010PropOp52
 70
     0
102
RTVSPost2010Prop53
 90
        2
102
RTVSPost2010PropOp53
 70
     1
102
RTVSPost2010Prop54
  1
strokes_ogs.tif
102
RTVSPost2010PropOp54
 70
     1
102
RTVSPost2010Prop55
280
     0
102
RTVSPost2010PropOp55
 70
     1
102
RTVSPost2010Prop56
140
1.0
102
RTVSPost2010PropOp56
 70
     1
102
RTVSPost2010Prop57
140
1.0
102
RTVSPost2010PropOp57
 70
     1
  0
ENDSEC
  0
EOF
