  0
SECTION
  2
HEADER
  9
$ACADVER
  1
AC1012
  9
$DWGCODEPAGE
  3
dos850
  9
$INSBASE
 10
0.0
 20
0.0
 30
0.0
  9
$EXTMIN
 10
-148.650889
 20
-105.112052
 30
0.0
  9
$EXTMAX
 10
148.650889
 20
105.112052
 30
0.0
  9
$LIMMIN
 10
-148.650889
 20
-105.112052
  9
$LIMMAX
 10
0.0
 20
105.112052
  9
$ORTHOMODE
 70
     0
  9
$REGENMODE
 70
     1
  9
$FILLMODE
 70
     1
  9
$QTEXTMODE
 70
     0
  9
$MIRRTEXT
 70
     1
  9
$DRAGMODE
 70
     2
  9
$LTSCALE
 40
1.0
  9
$OSMODE
 70
     0
  9
$ATTMODE
 70
     1
  9
$TEXTSIZE
 40
0.2
  9
$TRACEWID
 40
0.05
  9
$TEXTSTYLE
  7
STANDARD
  9
$CLAYER
  8
0
  9
$CELTYPE
  6
CONTINUOUS
  9
$CECOLOR
 62
   256
  9
$CELTSCALE
 40
1.0
  9
$DELOBJ
 70
     1
  9
$DISPSILH
 70
     0
  9
$DIMSCALE
 40
1.0
  9
$DIMASZ
 40
0.18
  9
$DIMEXO
 40
0.0625
  9
$DIMDLI
 40
0.38
  9
$DIMRND
 40
0.0
  9
$DIMDLE
 40
0.0
  9
$DIMEXE
 40
0.18
  9
$DIMTP
 40
0.0
  9
$DIMTM
 40
0.0
  9
$DIMTXT
 40
0.18
  9
$DIMCEN
 40
0.09
  9
$DIMTSZ
 40
0.0
  9
$DIMTOL
 70
     0
  9
$DIMLIM
 70
     0
  9
$DIMTIH
 70
     1
  9
$DIMTOH
 70
     1
  9
$DIMSE1
 70
     0
  9
$DIMSE2
 70
     0
  9
$DIMTAD
 70
     0
  9
$DIMZIN
 70
     0
  9
$DIMBLK
  1

  9
$DIMASO
 70
     1
  9
$DIMSHO
 70
     1
  9
$DIMPOST
  1

  9
$DIMAPOST
  1

  9
$DIMALT
 70
     0
  9
$DIMALTD
 70
     2
  9
$DIMALTF
 40
25.4
  9
$DIMLFAC
 40
1.0
  9
$DIMTOFL
 70
     0
  9
$DIMTVP
 40
0.0
  9
$DIMTIX
 70
     0
  9
$DIMSOXD
 70
     0
  9
$DIMSAH
 70
     0
  9
$DIMBLK1
  1

  9
$DIMBLK2
  1

  9
$DIMSTYLE
  2
STANDARD
  9
$DIMCLRD
 70
     0
  9
$DIMCLRE
 70
     0
  9
$DIMCLRT
 70
     0
  9
$DIMTFAC
 40
1.0
  9
$DIMGAP
 40
0.09
  9
$DIMJUST
 70
     0
  9
$DIMSD1
 70
     0
  9
$DIMSD2
 70
     0
  9
$DIMTOLJ
 70
     1
  9
$DIMTZIN
 70
     0
  9
$DIMALTZ
 70
     0
  9
$DIMALTTZ
 70
     0
  9
$DIMFIT
 70
     3
  9
$DIMUPT
 70
     0
  9
$DIMUNIT
 70
     2
  9
$DIMDEC
 70
     4
  9
$DIMTDEC
 70
     4
  9
$DIMALTU
 70
     2
  9
$DIMALTTD
 70
     2
  9
$DIMTXSTY
  7
STANDARD
  9
$DIMAUNIT
 70
     0
  9
$LUNITS
 70
     2
  9
$LUPREC
 70
     4
  9
$SKETCHINC
 40
0.1
  9
$FILLETRAD
 40
0.0
  9
$AUNITS
 70
     0
  9
$AUPREC
 70
     0
  9
$MENU
  1
acad
  9
$ELEVATION
 40
0.0
  9
$PELEVATION
 40
0.0
  9
$THICKNESS
 40
0.0
  9
$LIMCHECK
 70
     0
  9
$BLIPMODE
 70
     1
  9
$CHAMFERA
 40
0.0
  9
$CHAMFERB
 40
0.0
  9
$CHAMFERC
 40
0.0
  9
$CHAMFERD
 40
0.0
  9
$SKPOLY
 70
     0
  9
$TDCREATE
 40
0.000000000
  9
$TDUPDATE
 40
0.000000000
  9
$TDINDWG
 40
0.0000000000
  9
$TDUSRTIMER
 40
0.0000000000
  9
$USRTIMER
 70
     1
  9
$ANGBASE
 50
0.0
  9
$ANGDIR
 70
     0
  9
$PDMODE
 70
     0
  9
$PDSIZE
 40
0.0
  9
$PLINEWID
 40
0.0
  9
$COORDS
 70
     0
  9
$SPLFRAME
 70
     0
  9
$SPLINETYPE
 70
     6
  9
$SPLINESEGS
 70
     8
  9
$ATTDIA
 70
     0
  9
$ATTREQ
 70
     1
  9
$HANDLING
 70
     1
  9
$HANDSEED
  5
4D5
  9
$SURFTAB1
 70
     6
  9
$SURFTAB2
 70
     6
  9
$SURFTYPE
 70
     6
  9
$SURFU
 70
     6
  9
$SURFV
 70
     6
  9
$UCSNAME
  2

  9
$UCSORG
 10
0.0
 20
0.0
 30
0.0
  9
$UCSXDIR
 10
1.0
 20
0.0
 30
0.0
  9
$UCSYDIR
 10
0.0
 20
1.0
 30
0.0
  9
$PUCSNAME
  2

  9
$PUCSORG
 10
0.0
 20
0.0
 30
0.0
  9
$PUCSXDIR
 10
1.0
 20
0.0
 30
0.0
  9
$PUCSYDIR
 10
0.0
 20
1.0
 30
0.0
  9
$USERI1
 70
     0
  9
$USERI2
 70
     0
  9
$USERI3
 70
     0
  9
$USERI4
 70
     0
  9
$USERI5
 70
     0
  9
$USERR1
 40
0.0
  9
$USERR2
 40
0.0
  9
$USERR3
 40
0.0
  9
$USERR4
 40
0.0
  9
$USERR5
 40
0.0
  9
$WORLDVIEW
 70
     1
  9
$SHADEDGE
 70
     3
  9
$SHADEDIF
 70
    70
  9
$TILEMODE
 70
     1
  9
$MAXACTVP
 70
    16
  9
$PINSBASE
 10
0.0
 20
0.0
 30
0.0
  9
$PLIMCHECK
 70
     0
  9
$PEXTMIN
 10
1.000000E+20
 20
1.000000E+20
 30
1.000000E+20
  9
$PEXTMAX
 10
-1.000000E+20
 20
-1.000000E+20
 30
-1.000000E+20
  9
$PLIMMIN
 10
0.0
 20
0.0
  9
$PLIMMAX
 10
12.0
 20
9.0
  9
$UNITMODE
 70
     0
  9
$VISRETAIN
 70
     0
  9
$PLINEGEN
 70
     1
  9
$PSLTSCALE
 70
     0
  9
$TREEDEPTH
 70
  3020
  9
$PICKSTYLE
 70
     1
  9
$CMLSTYLE
  2
STANDARD
  9
$CMLJUST
 70
     0
  9
$CMLSCALE
 40
1.0
  9
$SAVEIMAGES
 70
     0
  0
ENDSEC
  0
SECTION
  2
CLASSES
  0
CLASS
  1
LWPOLYLINE
  2
AcDbPolyline
  3
"AutoCAD"
 90
        0
280
     0
281
     1
  0
CLASS
  1
IMAGE
  2
AcDbRasterImage
  3
ISM
 90
      127
280
     0
281
     1
  0
CLASS
  1
OLE2FRAME
  2
AcDbOle2Frame
  3
""
 90
        0
280
     0
281
     1
  0
CLASS
  1
HATCH
  2
AcDbHatch
  3
"ACAD_SEDONA"
 90
        0
280
     0
281
     1
  0
CLASS
  1
DICTIONARYVAR
  2
AcDbDictionaryVar
  3
"AutoCAD"
 90
        0
280
     0
281
     0
  0
CLASS
  1
RASTERVARIABLES
  2
AcDbRasterVariables
  3
ISM
 90
        0
280
     0
281
     0
  0
CLASS
  1
IMAGEDEF
  2
AcDbRasterImageDef
  3
ISM
 90
        0
280
     0
281
     0
  0
CLASS
  1
IMAGEDEF_REACTOR
  2
AcDbRasterImageDefReactor
  3
ISM
 90
        1
280
     0
281
     0
  0
CLASS
  1
IDBUFFER
  2
AcDbIdBuffer
  3
"Acad"
 90
        0
280
     0
281
     0
  0
CLASS
  1
SPATIAL_FILTER
  2
AcDbSpatialFilter
  3
"Acad"
 90
        0
280
     0
281
     0
  0
CLASS
  1
XRECORD
  2
AcDbXrecord
  3
"<Built In>"
 90
        0
280
     0
281
     0
  0
CLASS
  1
SORTENTSTABLE
  2
AcDbSortentsTable
  3
"AutoCAD"
 90
        0
280
     0
281
     0
  0
CLASS
  1
LAYER_INDEX
  2
AcDbLayerIndex
  3
"Acad"
 90
        0
280
     0
281
     0
  0
CLASS
  1
SPATIAL_INDEX
  2
AcDbSpatialIndex
  3
"Acad"
 90
        0
280
     0
281
     0
  0
CLASS
  1
OBJECT_PTR
  2
CAseDLPNTableRecord
  3
"ASE-LPNTableRecord"
 90
        1
280
     0
281
     0
  0
CLASS
  1
LAYOUT
  2
AcDbLayout
  3
"AutoCAD 2000"
 90
        1
280
     0
281
     0
  0
CLASS
  1
PLOTSETTINGS
  2
AcDbPlotSettings
  3
"AutoCAD 2000"
 90
        1
280
     0
281
     0
  0
CLASS
  1
ACDBDICTIONARYWDFLT
  2
AcDbDictionaryWithDefault
  3
"AutoCAD 2000"
 90
        1
280
     0
281
     0
  0
CLASS
  1
ACDBPLACEHOLDER
  2
AcDbPlaceHolder
  3
"AutoCAD 2000"
 90
        1
280
     0
281
     0
  0
ENDSEC
  0
SECTION
  2
TABLES
  0
TABLE
  2
VPORT
  5
7
100
AcDbSymbolTable
 70
     1
  0
VPORT
  5
15
100
AcDbSymbolTableRecord
100
AcDbViewportTableRecord
  2
*ACTIVE
 70
     0
 10
0.0
 20
0.0
 11
1.0
 21
1.0
 12
6.591288
 22
4.579184
 13
0.0
 23
0.0
 14
1.0
 24
1.0
 15
0.0
 25
0.0
 16
0.0
 26
0.0
 36
1.0
 17
0.0
 27
0.0
 37
0.0
 40
9.158369
 41
0.688564
 42
50.0
 43
0.0
 44
0.0
 50
0.0
 51
0.0
 71
     0
 72
   100
 73
     1
 74
     1
 75
     0
 76
     0
 77
     0
 78
     0
  0
ENDTAB
  0
TABLE
  2
LTYPE
  5
4
100
AcDbSymbolTable
 70
    11
  0
LTYPE
  5
11
100
AcDbSymbolTableRecord
100
AcDbLinetypeTableRecord
  2
BYBLOCK
 70
    64
  3

 72
    65
 73
     0
 40
0.0
  0
LTYPE
  5
12
100
AcDbSymbolTableRecord
100
AcDbLinetypeTableRecord
  2
BYLAYER
 70
    64
  3

 72
    65
 73
     0
 40
0.0
  0
LTYPE
  5
13
100
AcDbSymbolTableRecord
100
AcDbLinetypeTableRecord
  2
CONTINUOUS
 70
    64
  3
Solid line
 72
    65
 73
     0
 40
0.0
  0
LTYPE
  5
1D
100
AcDbSymbolTableRecord
100
AcDbLinetypeTableRecord
  2
DOT
 70
     0
  3
____    ____    
 72
    65
 73
     4
 40
16.0
 49
4.0
 74
     0
 49
-4.0
 74
     0
 49
4.0
 74
     0
 49
-4.0
 74
     0
  0
LTYPE
  5
1E
100
AcDbSymbolTableRecord
100
AcDbLinetypeTableRecord
  2
HIDDEN
 70
     0
  3
__  __  __  __  
 72
    65
 73
     8
 40
16.0
 49
2.0
 74
     0
 49
-2.0
 74
     0
 49
2.0
 74
     0
 49
-2.0
 74
     0
 49
2.0
 74
     0
 49
-2.0
 74
     0
 49
2.0
 74
     0
 49
-2.0
 74
     0
  0
LTYPE
  5
1F
100
AcDbSymbolTableRecord
100
AcDbLinetypeTableRecord
  2
DASHED
 70
     0
  3
________        
 72
    65
 73
     2
 40
16.0
 49
8.0
 74
     0
 49
-8.0
 74
     0
  0
LTYPE
  5
20
100
AcDbSymbolTableRecord
100
AcDbLinetypeTableRecord
  2
DASHDOT
 70
     0
  3
____________    
 72
    65
 73
     2
 40
16.0
 49
12.0
 74
     0
 49
-4.0
 74
     0
  0
LTYPE
  5
21
100
AcDbSymbolTableRecord
100
AcDbLinetypeTableRecord
  2
BORDER
 70
     0
  3
_____________ _ 
 72
    65
 73
     4
 40
16.0
 49
13.0
 74
     0
 49
-1.0
 74
     0
 49
1.0
 74
     0
 49
-1.0
 74
     0
  0
LTYPE
  5
22
100
AcDbSymbolTableRecord
100
AcDbLinetypeTableRecord
  2
CENTER
 70
     0
  3
_________  ___  
 72
    65
 73
     4
 40
16.0
 49
9.0
 74
     0
 49
-2.0
 74
     0
 49
3.0
 74
     0
 49
-2.0
 74
     0
  0
LTYPE
  5
23
100
AcDbSymbolTableRecord
100
AcDbLinetypeTableRecord
  2
PHANTOM
 70
     0
  3
_______   ___   
 72
    65
 73
     4
 40
16.0
 49
7.0
 74
     0
 49
-3.0
 74
     0
 49
3.0
 74
     0
 49
-3.0
 74
     0
  0
LTYPE
  5
24
100
AcDbSymbolTableRecord
100
AcDbLinetypeTableRecord
  2
DIVIDE
 70
     0
  3
_______  __ __  
 72
    65
 73
     6
 40
16.0
 49
7.0
 74
     0
 49
-2.0
 74
     0
 49
2.0
 74
     0
 49
-1.0
 74
     0
 49
2.0
 74
     0
 49
-2.0
 74
     0
  0
ENDTAB
  0
TABLE
  2
LAYER
  5
2
100
AcDbSymbolTable
 70
     4
  0
LAYER
  5
14
100
AcDbSymbolTableRecord
100
AcDbLayerTableRecord
  2
0
 70
     0
 62
     7
  6
CONTINUOUS
  0
LAYER
  5
26
100
AcDbSymbolTableRecord
100
AcDbLayerTableRecord
  2
1
 70
     0
 62
     1
  6
CONTINUOUS
  0
LAYER
  5
2A2
100
AcDbSymbolTableRecord
100
AcDbLayerTableRecord
  2
GEN_LAYER
 70
     0
 62
     1
  6
CONTINUOUS
  0
LAYER
  5
38A
100
AcDbSymbolTableRecord
100
AcDbLayerTableRecord
  2
FIXING
 70
     0
 62
     1
  6
CONTINUOUS
  0
ENDTAB
  0
TABLE
  2
STYLE
  5
3
100
AcDbSymbolTable
 70
     2
  0
STYLE
  5
17
100
AcDbSymbolTableRecord
100
AcDbTextStyleTableRecord
  2
STANDARD
 70
     0
 40
0.0
 41
1.0
 50
0.0
 71
     0
 42
0.0
  3
TXT
  4

  0
STYLE
  5
25
100
AcDbSymbolTableRecord
100
AcDbTextStyleTableRecord
  2
ARIAL
 70
     0
 40
0.2
 41
1.0
 50
0.0
 71
     0
 42
0.2
  3
ARIAL.TTF
  4

  0
ENDTAB
  0
TABLE
  2
VIEW
  5
5
100
AcDbSymbolTable
 70
     0
  0
ENDTAB
  0
TABLE
  2
UCS
  5
6
100
AcDbSymbolTable
 70
     0
  0
ENDTAB
  0
TABLE
  2
APPID
  5
8
100
AcDbSymbolTable
 70
     1
  0
APPID
  5
16
100
AcDbSymbolTableRecord
100
AcDbRegAppTableRecord
  2
ACAD
 70
     0
  0
ENDTAB
  0
TABLE
  2
DIMSTYLE
  5
9
100
AcDbSymbolTable
 70
     1
  0
DIMSTYLE
105
18
100
AcDbSymbolTableRecord
100
AcDbDimStyleTableRecord
  2
STANDARD
 70
     0
  3

  4

  5

  6

  7

 40
1.0
 41
0.18
 42
0.0625
 43
0.38
 44
0.18
 45
0.0
 46
0.0
 47
0.0
 48
0.0
 71
     0
 72
     0
 73
     1
 74
     1
 75
     0
 76
     0
 77
     0
 78
     0
140
0.18
141
0.09
142
0.0
143
25.4
144
1.0
145
0.0
146
1.0
147
0.09
170
     0
171
     2
172
     0
173
     0
174
     0
175
     0
176
     0
177
     0
178
     0
270
     2
271
     4
272
     4
273
     2
274
     2
275
     0
280
     0
281
     0
282
     0
283
     1
284
     0
285
     0
286
     0
287
     0
288
     0
340
17
  0
ENDTAB
  0
TABLE
  2
BLOCK_RECORD
  5
1
100
AcDbSymbolTable
 70
    10
  0
BLOCK_RECORD
  5
A
100
AcDbSymbolTableRecord
100
AcDbBlockTableRecord
  2
*MODEL_SPACE
  0
BLOCK_RECORD
  5
B
100
AcDbSymbolTableRecord
100
AcDbBlockTableRecord
  2
*PAPER_SPACE
  0
BLOCK_RECORD
  5
27
100
AcDbSymbolTableRecord
100
AcDbBlockTableRecord
  2
GEN_BLOCK
  0
BLOCK_RECORD
  5
54
100
AcDbSymbolTableRecord
100
AcDbBlockTableRecord
  2
GEN_BLOCK00001
  0
BLOCK_RECORD
  5
7E
100
AcDbSymbolTableRecord
100
AcDbBlockTableRecord
  2
GEN_BLOCK00002
  0
BLOCK_RECORD
  5
C1
100
AcDbSymbolTableRecord
100
AcDbBlockTableRecord
  2
GEN_BLOCK00003
  0
BLOCK_RECORD
  5
CC
100
AcDbSymbolTableRecord
100
AcDbBlockTableRecord
  2
GEN_BLOCK00004
  0
BLOCK_RECORD
  5
277
100
AcDbSymbolTableRecord
100
AcDbBlockTableRecord
  2
GEN_BLOCK00005
  0
BLOCK_RECORD
  5
285
100
AcDbSymbolTableRecord
100
AcDbBlockTableRecord
  2
PROTO
  0
BLOCK_RECORD
  5
2A3
100
AcDbSymbolTableRecord
100
AcDbBlockTableRecord
  2
GEN_BLOCK00007
  0
BLOCK_RECORD
  5
33C
100
AcDbSymbolTableRecord
100
AcDbBlockTableRecord
  2
GEN_BLOCK00008
  0
BLOCK_RECORD
  5
38B
100
AcDbSymbolTableRecord
100
AcDbBlockTableRecord
  2
8569S
  0
ENDTAB
  0
ENDSEC
  0
SECTION
  2
BLOCKS
  0
BLOCK
  5
D
100
AcDbEntity
  8
0
100
AcDbBlockBegin
  2
*MODEL_SPACE
 70
     0
 10
0.0
 20
0.0
 30
0.0
  3
*MODEL_SPACE
  1

  0
ENDBLK
  5
E
100
AcDbEntity
  8
0
100
AcDbBlockEnd
  0
BLOCK
  5
F
100
AcDbEntity
 67
     1
  8
0
100
AcDbBlockBegin
  2
*PAPER_SPACE
 70
     0
 10
0.0
 20
0.0
 30
0.0
  3
*PAPER_SPACE
  1

  0
ENDBLK
  5
10
100
AcDbEntity
 67
     1
  8
0
100
AcDbBlockEnd
  0
BLOCK
  5
28
100
AcDbEntity
  8
1
100
AcDbBlockBegin
  2
GEN_BLOCK
 70
     0
 10
0.0
 20
0.0
 30
0.0
  3
GEN_BLOCK
  1

  0
LINE
  5
2A
100
AcDbEntity
  8
1
  6
CONTINUOUS
 62
    15
100
AcDbLine
 10
24.707611
 20
26.58631
 30
0.0
 11
24.707611
 21
20.08631
 31
0.0
  0
LINE
  5
2B
100
AcDbEntity
  8
1
  6
CONTINUOUS
 62
    15
100
AcDbLine
 10
24.707611
 20
26.58631
 30
0.0
 11
24.707611
 21
33.086309
 31
0.0
  0
LINE
  5
2C
100
AcDbEntity
  8
1
  6
CONTINUOUS
 62
    15
100
AcDbLine
 10
25.457611
 20
23.08631
 30
0.0
 11
24.707611
 21
20.08631
 31
0.0
  0
LINE
  5
2D
100
AcDbEntity
  8
1
  6
CONTINUOUS
 62
    15
100
AcDbLine
 10
24.707611
 20
20.08631
 30
0.0
 11
23.957611
 21
23.08631
 31
0.0
  0
LINE
  5
2E
100
AcDbEntity
  8
1
  6
CONTINUOUS
 62
    15
100
AcDbLine
 10
23.957611
 20
30.086309
 30
0.0
 11
24.707611
 21
33.086309
 31
0.0
  0
LINE
  5
2F
100
AcDbEntity
  8
1
  6
CONTINUOUS
 62
    15
100
AcDbLine
 10
24.707611
 20
33.086309
 30
0.0
 11
25.457611
 21
30.086309
 31
0.0
  0
LINE
  5
30
100
AcDbEntity
  8
1
  6
CONTINUOUS
 62
    15
100
AcDbLine
 10
11.194206
 20
20.08631
 30
0.0
 11
27.307611
 21
20.08631
 31
0.0
  0
LINE
  5
31
100
AcDbEntity
  8
1
  6
CONTINUOUS
 62
    15
100
AcDbLine
 10
-8.805798
 20
33.086308
 30
0.0
 11
27.307611
 21
33.086309
 31
0.0
  0
TEXT
  5
32
100
AcDbEntity
  8
1
  6
CONTINUOUS
 62
    15
100
AcDbText
 10
24.507586
 20
23.221268
 30
0.0
 40
2.0
  1
13.0
 50
89.713524
 41
0.9
 11
24.507586
 21
23.221268
 31
0.0
100
AcDbText
 73
     1
  0
LINE
  5
33
100
AcDbEntity
  8
1
  6
CONTINUOUS
 62
    15
100
AcDbLine
 10
-4.805798
 20
29.836308
 30
0.0
 11
-4.805798
 21
27.786308
 31
0.0
  0
ARC
  5
34
100
AcDbEntity
  8
1
  6
CONTINUOUS
 62
    15
100
AcDbCircle
 10
-4.805798
 20
27.036308
 30
0.0
 40
0.75
100
AcDbArc
 50
-90.0
 51
90.0
  0
LINE
  5
35
100
AcDbEntity
  8
1
  6
CONTINUOUS
 62
    15
100
AcDbLine
 10
-4.805798
 20
26.286308
 30
0.0
 11
-5.732575
 21
27.213085
 31
0.0
  0
LINE
  5
36
100
AcDbEntity
  8
1
  6
CONTINUOUS
 62
    15
100
AcDbLine
 10
-5.805798
 20
27.389862
 30
0.0
 11
-5.805798
 21
29.836308
 31
0.0
  0
LINE
  5
37
100
AcDbEntity
  8
1
  6
CONTINUOUS
 62
    15
100
AcDbLine
 10
-3.555798
 20
31.086308
 30
0.0
 11
-8.477371
 21
31.086308
 31
0.0
  0
ARC
  5
38
100
AcDbEntity
  8
1
  6
CONTINUOUS
 62
    15
100
AcDbCircle
 10
-11.305798
 20
30.086308
 30
0.0
 40
3.0
100
AcDbArc
 50
19.471221
 51
90.0
  0
ARC
  5
39
100
AcDbEntity
  8
1
  6
CONTINUOUS
 62
    15
100
AcDbCircle
 10
-11.305798
 20
30.086308
 30
0.0
 40
2.0
100
AcDbArc
 50
19.471221
 51
90.0
  0
LINE
  5
3A
100
AcDbEntity
  8
1
  6
CONTINUOUS
 62
    15
100
AcDbLine
 10
-3.305798
 20
30.836308
 30
0.0
 11
-3.305798
 21
30.336308
 31
0.0
  0
ARC
  5
3B
100
AcDbEntity
  8
1
  6
CONTINUOUS
 62
    15
100
AcDbCircle
 10
-3.555798
 20
30.836308
 30
0.0
 40
0.25
100
AcDbArc
 50
0.0
 51
90.0
  0
ARC
  5
3C
100
AcDbEntity
  8
1
  6
CONTINUOUS
 62
    15
100
AcDbCircle
 10
-8.477371
 20
31.086308
 30
0.0
 40
1.0
100
AcDbArc
 50
-160.528779
 51
-90.0
  0
LINE
  5
3D
100
AcDbEntity
  8
1
  6
CONTINUOUS
 62
    15
100
AcDbLine
 10
-4.555798
 20
30.086308
 30
0.0
 11
-3.555798
 21
30.086308
 31
0.0
  0
ARC
  5
3E
100
AcDbEntity
  8
1
  6
CONTINUOUS
 62
    15
100
AcDbCircle
 10
-3.555798
 20
30.336308
 30
0.0
 40
0.25
100
AcDbArc
 50
-90.0
 51
0.0
  0
LINE
  5
3F
100
AcDbEntity
  8
1
  6
CONTINUOUS
 62
    15
100
AcDbLine
 10
-6.055798
 20
30.086308
 30
0.0
 11
-8.477371
 21
30.086308
 31
0.0
  0
ARC
  5
40
100
AcDbEntity
  8
1
  6
CONTINUOUS
 62
    15
100
AcDbCircle
 10
-6.055798
 20
29.836308
 30
0.0
 40
0.25
100
AcDbArc
 50
0.0
 51
90.0
  0
ARC
  5
41
100
AcDbEntity
  8
1
  6
CONTINUOUS
 62
    15
100
AcDbCircle
 10
-4.555798
 20
29.836308
 30
0.0
 40
0.25
100
AcDbArc
 50
90.0
 51
180.0
  0
ARC
  5
42
100
AcDbEntity
  8
1
  6
CONTINUOUS
 62
    15
100
AcDbCircle
 10
-5.555798
 20
27.389862
 30
0.0
 40
0.25
100
AcDbArc
 50
180.0
 51
-135.0
  0
LINE
  5
43
100
AcDbEntity
  8
1
  6
CONTINUOUS
 62
    15
100
AcDbLine
 10
-17.805798
 20
29.836308
 30
0.0
 11
-17.805798
 21
27.786308
 31
0.0
  0
ARC
  5
44
100
AcDbEntity
  8
1
  6
CONTINUOUS
 62
    15
100
AcDbCircle
 10
-17.805798
 20
27.036308
 30
0.0
 40
0.75
100
AcDbArc
 50
90.0
 51
-90.0
  0
LINE
  5
45
100
AcDbEntity
  8
1
  6
CONTINUOUS
 62
    15
100
AcDbLine
 10
-17.805798
 20
26.286308
 30
0.0
 11
-16.879021
 21
27.213085
 31
0.0
  0
LINE
  5
46
100
AcDbEntity
  8
1
  6
CONTINUOUS
 62
    15
100
AcDbLine
 10
-16.805798
 20
27.389862
 30
0.0
 11
-16.805798
 21
29.836308
 31
0.0
  0
LINE
  5
47
100
AcDbEntity
  8
1
  6
CONTINUOUS
 62
    15
100
AcDbLine
 10
-19.055798
 20
31.086308
 30
0.0
 11
-14.134225
 21
31.086308
 31
0.0
  0
ARC
  5
48
100
AcDbEntity
  8
1
  6
CONTINUOUS
 62
    15
100
AcDbCircle
 10
-11.305798
 20
30.086308
 30
0.0
 40
3.0
100
AcDbArc
 50
90.0
 51
160.528779
  0
ARC
  5
49
100
AcDbEntity
  8
1
  6
CONTINUOUS
 62
    15
100
AcDbCircle
 10
-11.305798
 20
30.086308
 30
0.0
 40
2.0
100
AcDbArc
 50
90.0
 51
160.528779
  0
LINE
  5
4A
100
AcDbEntity
  8
1
  6
CONTINUOUS
 62
    15
100
AcDbLine
 10
-19.305798
 20
30.836308
 30
0.0
 11
-19.305798
 21
30.336308
 31
0.0
  0
ARC
  5
4B
100
AcDbEntity
  8
1
  6
CONTINUOUS
 62
    15
100
AcDbCircle
 10
-19.055798
 20
30.836308
 30
0.0
 40
0.25
100
AcDbArc
 50
90.0
 51
180.0
  0
ARC
  5
4C
100
AcDbEntity
  8
1
  6
CONTINUOUS
 62
    15
100
AcDbCircle
 10
-14.134225
 20
31.086308
 30
0.0
 40
1.0
100
AcDbArc
 50
-90.0
 51
-19.471221
  0
LINE
  5
4D
100
AcDbEntity
  8
1
  6
CONTINUOUS
 62
    15
100
AcDbLine
 10
-18.055798
 20
30.086308
 30
0.0
 11
-19.055798
 21
30.086308
 31
0.0
  0
ARC
  5
4E
100
AcDbEntity
  8
1
  6
CONTINUOUS
 62
    15
100
AcDbCircle
 10
-19.055798
 20
30.336308
 30
0.0
 40
0.25
100
AcDbArc
 50
180.0
 51
-90.0
  0
LINE
  5
4F
100
AcDbEntity
  8
1
  6
CONTINUOUS
 62
    15
100
AcDbLine
 10
-16.555798
 20
30.086308
 30
0.0
 11
-14.134225
 21
30.086308
 31
0.0
  0
ARC
  5
50
100
AcDbEntity
  8
1
  6
CONTINUOUS
 62
    15
100
AcDbCircle
 10
-16.555798
 20
29.836308
 30
0.0
 40
0.25
100
AcDbArc
 50
90.0
 51
180.0
  0
ARC
  5
51
100
AcDbEntity
  8
1
  6
CONTINUOUS
 62
    15
100
AcDbCircle
 10
-18.055798
 20
29.836308
 30
0.0
 40
0.25
100
AcDbArc
 50
0.0
 51
90.0
  0
ARC
  5
52
100
AcDbEntity
  8
1
  6
CONTINUOUS
 62
    15
100
AcDbCircle
 10
-17.055798
 20
27.389862
 30
0.0
 40
0.25
100
AcDbArc
 50
-45.0
 51
0.0
  0
ENDBLK
  5
53
100
AcDbEntity
  8
0
100
AcDbBlockEnd
  0
BLOCK
  5
55
100
AcDbEntity
  8
1
100
AcDbBlockBegin
  2
GEN_BLOCK00001
 70
     0
 10
0.0
 20
0.0
 30
0.0
  3
GEN_BLOCK00001
  1

  0
LINE
  5
57
100
AcDbEntity
  8
1
  6
CONTINUOUS
 62
    15
100
AcDbLine
 10
3.443135
 20
22.142835
 30
0.0
 11
2.193135
 21
22.392835
 31
0.0
  0
LINE
  5
58
100
AcDbEntity
  8
1
  6
CONTINUOUS
 62
    15
100
AcDbLine
 10
2.193135
 20
22.392835
 30
0.0
 11
1.193135
 21
22.392835
 31
0.0
  0
LINE
  5
59
100
AcDbEntity
  8
1
  6
CONTINUOUS
 62
    15
100
AcDbLine
 10
1.193135
 20
22.392835
 30
0.0
 11
-0.056865
 21
22.142835
 31
0.0
  0
LINE
  5
5A
100
AcDbEntity
  8
1
  6
CONTINUOUS
 62
    15
100
AcDbLine
 10
2.193135
 20
21.882933
 30
0.0
 11
3.443135
 21
21.632933
 31
0.0
  0
LINE
  5
5B
100
AcDbEntity
  8
1
  6
CONTINUOUS
 62
    15
100
AcDbLine
 10
3.443135
 20
21.632933
 30
0.0
 11
3.443135
 21
22.142835
 31
0.0
  0
LINE
  5
5C
100
AcDbEntity
  8
1
  6
CONTINUOUS
 62
    15
100
AcDbLine
 10
3.443135
 20
22.142835
 30
0.0
 11
2.193135
 21
22.392835
 31
0.0
  0
LINE
  5
5D
100
AcDbEntity
  8
1
  6
CONTINUOUS
 62
    15
100
AcDbLine
 10
2.193135
 20
22.392835
 30
0.0
 11
1.193135
 21
22.392835
 31
0.0
  0
LINE
  5
5E
100
AcDbEntity
  8
1
  6
CONTINUOUS
 62
    15
100
AcDbLine
 10
1.193135
 20
22.392835
 30
0.0
 11
-0.056865
 21
22.142835
 31
0.0
  0
LINE
  5
5F
100
AcDbEntity
  8
1
  6
CONTINUOUS
 62
    15
100
AcDbLine
 10
-0.056865
 20
22.142835
 30
0.0
 11
-0.056865
 21
21.632933
 31
0.0
  0
LINE
  5
60
100
AcDbEntity
  8
1
  6
CONTINUOUS
 62
    15
100
AcDbLine
 10
-0.056865
 20
21.632933
 30
0.0
 11
1.242644
 21
21.892835
 31
0.0
  0
LINE
  5
61
100
AcDbEntity
  8
1
  6
CONTINUOUS
 62
    15
100
AcDbLine
 10
1.193135
 20
21.882933
 30
0.0
 11
0.793135
 21
19.892835
 31
0.0
  0
LINE
  5
62
100
AcDbEntity
  8
1
  6
CONTINUOUS
 62
    15
100
AcDbLine
 10
2.593135
 20
19.892835
 30
0.0
 11
2.143625
 21
21.892835
 31
0.0
  0
LINE
  5
63
100
AcDbEntity
  8
1
  6
CONTINUOUS
 62
    15
100
AcDbLine
 10
2.593135
 20
19.892835
 30
0.0
 11
9.393135
 21
19.892835
 31
0.0
  0
LINE
  5
64
100
AcDbEntity
  8
1
  6
CONTINUOUS
 62
    15
100
AcDbLine
 10
9.393135
 20
19.892835
 30
0.0
 11
9.16421
 21
21.72423
 31
0.0
  0
LINE
  5
65
100
AcDbEntity
  8
1
  6
CONTINUOUS
 62
    15
100
AcDbLine
 10
9.313052
 20
21.892835
 30
0.0
 11
9.928713
 21
21.892835
 31
0.0
  0
LINE
  5
66
100
AcDbEntity
  8
1
  6
CONTINUOUS
 62
    15
100
AcDbLine
 10
10.073378
 20
21.782483
 30
0.0
 11
10.201484
 21
21.315049
 31
0.0
  0
LINE
  5
67
100
AcDbEntity
  8
1
  6
CONTINUOUS
 62
    15
100
AcDbLine
 10
8.743135
 20
18.642835
 30
0.0
 11
6.743135
 21
18.642835
 31
0.0
  0
LINE
  5
68
100
AcDbEntity
  8
1
  6
CONTINUOUS
 62
    15
100
AcDbLine
 10
5.543135
 20
18.642835
 30
0.0
 11
3.543135
 21
18.642835
 31
0.0
  0
LINE
  5
69
100
AcDbEntity
  8
1
  6
CONTINUOUS
 62
    15
100
AcDbLine
 10
2.343135
 20
18.642835
 30
0.0
 11
0.443135
 21
18.642835
 31
0.0
  0
LINE
  5
6A
100
AcDbEntity
  8
1
  6
CONTINUOUS
 62
    15
100
AcDbLine
 10
-0.306865
 20
19.892835
 30
0.0
 11
0.793135
 21
19.892835
 31
0.0
  0
LINE
  5
6B
100
AcDbEntity
  8
1
  6
CONTINUOUS
 62
    15
100
AcDbLine
 10
-0.641687
 20
18.642835
 30
0.0
 11
-0.306865
 21
19.892835
 31
0.0
  0
ARC
  5
6C
100
AcDbEntity
  8
1
  6
CONTINUOUS
 62
    15
100
AcDbCircle
 10
9.928713
 20
21.742835
 30
0.0
 40
0.15
100
AcDbArc
 50
15.326302
 51
90.0
  0
ARC
  5
6D
100
AcDbEntity
  8
1
  6
CONTINUOUS
 62
    15
100
AcDbCircle
 10
9.313052
 20
21.742835
 30
0.0
 40
0.15
100
AcDbArc
 50
90.0
 51
-172.874984
  0
ARC
  5
6E
100
AcDbEntity
  8
1
  6
CONTINUOUS
 62
    15
100
AcDbCircle
 10
14.059229
 20
22.372313
 30
0.0
 40
4.0
100
AcDbArc
 50
-164.673698
 51
-90.278178
  0
ARC
  5
6F
100
AcDbEntity
  8
1
  6
CONTINUOUS
 62
    15
100
AcDbCircle
 10
14.181429
 20
17.892835
 30
0.0
 40
0.5
100
AcDbArc
 50
-90.0
 51
76.67158
  0
ARC
  5
70
100
AcDbEntity
  8
1
  6
CONTINUOUS
 62
    15
100
AcDbCircle
 10
13.141845
 20
25.325002
 30
0.0
 40
8.0
100
AcDbArc
 50
-120.685034
 51
-82.037342
  0
ARC
  5
71
100
AcDbEntity
  8
1
  6
CONTINUOUS
 62
    15
100
AcDbCircle
 10
13.141845
 20
25.325002
 30
0.0
 40
8.0
100
AcDbArc
 50
-123.355952
 51
-120.685034
  0
ARC
  5
72
100
AcDbEntity
  8
1
  6
CONTINUOUS
 62
    15
100
AcDbCircle
 10
9.225209
 20
23.380169
 30
0.0
 40
6.0
100
AcDbArc
 50
-127.855995
 51
-93.723584
  0
LINE
  5
73
100
AcDbEntity
  8
1
  6
CONTINUOUS
 62
    15
100
AcDbLine
 10
8.83555
 20
17.392835
 30
0.0
 11
9.395407
 21
17.892835
 31
0.0
  0
ARC
  5
74
100
AcDbEntity
  8
1
  6
CONTINUOUS
 62
    15
100
AcDbCircle
 10
9.658259
 20
23.887075
 30
0.0
 40
6.0
100
AcDbArc
 50
-119.068445
 51
-92.510859
  0
ARC
  5
75
100
AcDbEntity
  8
1
  6
CONTINUOUS
 62
    15
100
AcDbCircle
 10
6.394031
 20
24.351622
 30
0.0
 40
7.0
100
AcDbArc
 50
-125.359119
 51
-96.22046
  0
LINE
  5
76
100
AcDbEntity
  8
1
  6
CONTINUOUS
 62
    15
100
AcDbLine
 10
5.63555
 20
17.392835
 30
0.0
 11
6.123346
 21
17.892835
 31
0.0
  0
ARC
  5
77
100
AcDbEntity
  8
1
  6
CONTINUOUS
 62
    15
100
AcDbCircle
 10
6.750765
 20
24.86466
 30
0.0
 40
7.0
100
AcDbArc
 50
-117.273138
 51
-95.142392
  0
ARC
  5
78
100
AcDbEntity
  8
1
  6
CONTINUOUS
 62
    15
100
AcDbCircle
 10
-2.016526
 20
20.360412
 30
0.0
 40
3.0
100
AcDbArc
 50
-81.568617
 51
-34.926525
  0
LINE
  5
79
100
AcDbEntity
  8
1
  6
CONTINUOUS
 62
    15
100
AcDbLine
 10
-1.576651
 20
17.392835
 30
0.0
 11
-2.054753
 21
17.882496
 31
0.0
  0
LINE
  5
7A
100
AcDbEntity
  8
1
  6
CONTINUOUS
 62
    15
100
AcDbLine
 10
-2.054753
 20
17.882496
 30
0.0
 11
-0.641687
 21
18.642835
 31
0.0
  0
ARC
  5
7B
100
AcDbEntity
  8
1
  6
CONTINUOUS
 62
    15
100
AcDbCircle
 10
14.059229
 20
22.372313
 30
0.0
 40
4.0
100
AcDbArc
 50
-164.673698
 51
-92.669838
  0
ARC
  5
7C
100
AcDbEntity
  8
1
  6
CONTINUOUS
 62
    15
100
AcDbCircle
 10
14.059229
 20
22.372313
 30
0.0
 40
4.0
100
AcDbArc
 50
-92.669838
 51
-86.596549
  0
ENDBLK
  5
7D
100
AcDbEntity
  8
0
100
AcDbBlockEnd
  0
BLOCK
  5
7F
100
AcDbEntity
  8
1
100
AcDbBlockBegin
  2
GEN_BLOCK00002
 70
     0
 10
0.0
 20
0.0
 30
0.0
  3
GEN_BLOCK00002
  1

  0
LINE
  5
81
100
AcDbEntity
  8
1
  6
CONTINUOUS
 62
    15
100
AcDbLine
 10
-33.19111
 20
-4.138797
 30
0.0
 11
10.144202
 21
-4.138797
 31
0.0
  0
LINE
  5
82
100
AcDbEntity
  8
1
  6
CONTINUOUS
 62
    15
100
AcDbLine
 10
-33.19111
 20
-4.138797
 30
0.0
 11
-24.555798
 21
-4.138797
 31
0.0
  0
LINE
  5
83
100
AcDbEntity
  8
1
  6
CONTINUOUS
 62
    15
100
AcDbLine
 10
-32.134135
 20
-2.838797
 30
0.0
 11
-30.134889
 21
-2.838797
 31
0.0
  0
LINE
  5
84
100
AcDbEntity
  8
1
  6
CONTINUOUS
 62
    15
100
AcDbLine
 10
-28.945798
 20
-2.838797
 30
0.0
 11
-26.933071
 21
-2.838797
 31
0.0
  0
LINE
  5
85
100
AcDbEntity
  8
1
  6
CONTINUOUS
 62
    15
100
AcDbLine
 10
-25.745798
 20
-2.838797
 30
0.0
 11
-23.776766
 21
-2.838797
 31
0.0
  0
LINE
  5
86
100
AcDbEntity
  8
1
  6
CONTINUOUS
 62
    15
100
AcDbLine
 10
-21.055798
 20
-4.138797
 30
0.0
 11
-11.305798
 21
-4.138797
 31
0.0
  0
LINE
  5
87
100
AcDbEntity
  8
1
  6
CONTINUOUS
 62
    15
100
AcDbLine
 10
-14.305798
 20
-2.838797
 30
0.0
 11
-22.707584
 21
-2.838797
 31
0.0
  0
LINE
  5
88
100
AcDbEntity
  8
1
  6
CONTINUOUS
 62
    15
100
AcDbLine
 10
-14.305798
 20
-2.838797
 30
0.0
 11
-14.305798
 21
0.861203
 31
0.0
  0
ARC
  5
89
100
AcDbEntity
  8
1
  6
CONTINUOUS
 62
    15
100
AcDbCircle
 10
-13.805798
 20
0.861203
 30
0.0
 40
0.5
100
AcDbArc
 50
0.0
 51
180.0
  0
LINE
  5
8A
100
AcDbEntity
  8
1
  6
CONTINUOUS
 62
    15
100
AcDbLine
 10
-13.305798
 20
0.861203
 30
0.0
 11
-13.305798
 21
-0.984097
 31
0.0
  0
LINE
  5
8B
100
AcDbEntity
  8
1
  6
CONTINUOUS
 62
    15
100
AcDbLine
 10
-13.305798
 20
-0.984097
 30
0.0
 11
-11.305798
 21
-2.138797
 31
0.0
  0
LINE
  5
8C
100
AcDbEntity
  8
1
  6
CONTINUOUS
 62
    15
100
AcDbLine
 10
-11.305798
 20
-2.138797
 30
0.0
 11
-9.305798
 21
-0.984097
 31
0.0
  0
LINE
  5
8D
100
AcDbEntity
  8
1
  6
CONTINUOUS
 62
    15
100
AcDbLine
 10
-9.305798
 20
-0.984097
 30
0.0
 11
-9.305798
 21
0.861203
 31
0.0
  0
ARC
  5
8E
100
AcDbEntity
  8
1
  6
CONTINUOUS
 62
    15
100
AcDbCircle
 10
-8.805798
 20
0.861203
 30
0.0
 40
0.5
100
AcDbArc
 50
0.0
 51
180.0
  0
LINE
  5
8F
100
AcDbEntity
  8
1
  6
CONTINUOUS
 62
    15
100
AcDbLine
 10
-8.305798
 20
0.861203
 30
0.0
 11
-8.305798
 21
-2.838797
 31
0.0
  0
CIRCLE
  5
90
100
AcDbEntity
  8
1
  6
CONTINUOUS
 62
    15
100
AcDbCircle
 10
-11.305798
 20
-3.138797
 30
0.0
 40
0.25
  0
LINE
  5
91
100
AcDbEntity
  8
1
  6
CONTINUOUS
 62
    15
100
AcDbLine
 10
-11.305798
 20
-2.638797
 30
0.0
 11
-11.305798
 21
-3.638797
 31
0.0
  0
LINE
  5
92
100
AcDbEntity
  8
1
  6
CONTINUOUS
 62
    15
100
AcDbLine
 10
-11.805798
 20
-3.138797
 30
0.0
 11
-10.805798
 21
-3.138797
 31
0.0
  0
LINE
  5
93
100
AcDbEntity
  8
1
  6
CONTINUOUS
 62
    15
100
AcDbLine
 10
-25.955798
 20
-4.138797
 30
0.0
 11
-32.755798
 21
-4.138797
 31
0.0
  0
LINE
  5
94
100
AcDbEntity
  8
1
  6
CONTINUOUS
 62
    15
100
AcDbLine
 10
-34.155546
 20
-3.403113
 30
0.0
 11
-35.288016
 21
0.729045
 31
0.0
  0
ARC
  5
95
100
AcDbEntity
  8
1
  6
CONTINUOUS
 62
    15
100
AcDbCircle
 10
-34.805798
 20
0.861203
 30
0.0
 40
0.5
100
AcDbArc
 50
29.54206
 51
-164.673698
  0
LINE
  5
96
100
AcDbEntity
  8
1
  6
CONTINUOUS
 62
    15
100
AcDbLine
 10
-34.370801
 20
1.107734
 30
0.0
 11
-32.134135
 21
-2.838797
 31
0.0
  0
LINE
  5
97
100
AcDbEntity
  8
1
  6
CONTINUOUS
 62
    15
100
AcDbLine
 10
-30.134889
 20
-2.838797
 30
0.0
 11
-31.705798
 21
-0.138797
 31
0.0
  0
LINE
  5
98
100
AcDbEntity
  8
1
  6
CONTINUOUS
 62
    15
100
AcDbLine
 10
-31.705798
 20
-0.138797
 30
0.0
 11
-31.105798
 21
-0.138797
 31
0.0
  0
LINE
  5
99
100
AcDbEntity
  8
1
  6
CONTINUOUS
 62
    15
100
AcDbLine
 10
-31.105798
 20
-0.138797
 30
0.0
 11
-28.945798
 21
-2.838797
 31
0.0
  0
LINE
  5
9A
100
AcDbEntity
  8
1
  6
CONTINUOUS
 62
    15
100
AcDbLine
 10
-26.933071
 20
-2.838797
 30
0.0
 11
-28.405798
 21
-0.138797
 31
0.0
  0
LINE
  5
9B
100
AcDbEntity
  8
1
  6
CONTINUOUS
 62
    15
100
AcDbLine
 10
-28.405798
 20
-0.138797
 30
0.0
 11
-27.905798
 21
-0.138797
 31
0.0
  0
LINE
  5
9C
100
AcDbEntity
  8
1
  6
CONTINUOUS
 62
    15
100
AcDbLine
 10
-27.905798
 20
-0.138797
 30
0.0
 11
-25.745798
 21
-2.838797
 31
0.0
  0
LINE
  5
9D
100
AcDbEntity
  8
1
  6
CONTINUOUS
 62
    15
100
AcDbLine
 10
-23.776766
 20
-2.838797
 30
0.0
 11
-22.905798
 21
-1.338797
 31
0.0
  0
LINE
  5
9E
100
AcDbEntity
  8
1
  6
CONTINUOUS
 62
    15
100
AcDbLine
 10
-22.905798
 20
-1.338797
 30
0.0
 11
-22.305798
 21
-1.338797
 31
0.0
  0
LINE
  5
9F
100
AcDbEntity
  8
1
  6
CONTINUOUS
 62
    15
100
AcDbLine
 10
-22.305798
 20
-1.338797
 30
0.0
 11
-22.707584
 21
-2.838797
 31
0.0
  0
LINE
  5
A0
100
AcDbEntity
  8
1
  6
CONTINUOUS
 62
    15
100
AcDbLine
 10
10.144202
 20
-4.138797
 30
0.0
 11
1.944202
 21
-4.138797
 31
0.0
  0
LINE
  5
A1
100
AcDbEntity
  8
1
  6
CONTINUOUS
 62
    15
100
AcDbLine
 10
9.522539
 20
-2.838797
 30
0.0
 11
7.523293
 21
-2.838797
 31
0.0
  0
LINE
  5
A2
100
AcDbEntity
  8
1
  6
CONTINUOUS
 62
    15
100
AcDbLine
 10
6.334202
 20
-2.838797
 30
0.0
 11
4.321475
 21
-2.838797
 31
0.0
  0
LINE
  5
A3
100
AcDbEntity
  8
1
  6
CONTINUOUS
 62
    15
100
AcDbLine
 10
3.134202
 20
-2.838797
 30
0.0
 11
1.16517
 21
-2.838797
 31
0.0
  0
LINE
  5
A4
100
AcDbEntity
  8
1
  6
CONTINUOUS
 62
    15
100
AcDbLine
 10
-1.555798
 20
-4.138797
 30
0.0
 11
-11.305798
 21
-4.138797
 31
0.0
  0
LINE
  5
A5
100
AcDbEntity
  8
1
  6
CONTINUOUS
 62
    15
100
AcDbLine
 10
-8.305798
 20
-2.838797
 30
0.0
 11
0.095988
 21
-2.838797
 31
0.0
  0
LINE
  5
A6
100
AcDbEntity
  8
1
  6
CONTINUOUS
 62
    15
100
AcDbLine
 10
-8.305798
 20
-2.838797
 30
0.0
 11
-8.305798
 21
0.861203
 31
0.0
  0
ARC
  5
A7
100
AcDbEntity
  8
1
  6
CONTINUOUS
 62
    15
100
AcDbCircle
 10
-8.805798
 20
0.861203
 30
0.0
 40
0.5
100
AcDbArc
 50
0.0
 51
180.0
  0
LINE
  5
A8
100
AcDbEntity
  8
1
  6
CONTINUOUS
 62
    15
100
AcDbLine
 10
-9.305798
 20
0.861203
 30
0.0
 11
-9.305798
 21
-0.984097
 31
0.0
  0
LINE
  5
A9
100
AcDbEntity
  8
1
  6
CONTINUOUS
 62
    15
100
AcDbLine
 10
-9.305798
 20
-0.984097
 30
0.0
 11
-11.305798
 21
-2.138797
 31
0.0
  0
LINE
  5
AA
100
AcDbEntity
  8
1
  6
CONTINUOUS
 62
    15
100
AcDbLine
 10
-11.305798
 20
-2.138797
 30
0.0
 11
-13.305798
 21
-0.984097
 31
0.0
  0
LINE
  5
AB
100
AcDbEntity
  8
1
  6
CONTINUOUS
 62
    15
100
AcDbLine
 10
-13.305798
 20
-0.984097
 30
0.0
 11
-13.305798
 21
0.861203
 31
0.0
  0
ARC
  5
AC
100
AcDbEntity
  8
1
  6
CONTINUOUS
 62
    15
100
AcDbCircle
 10
-13.805798
 20
0.861203
 30
0.0
 40
0.5
100
AcDbArc
 50
0.0
 51
180.0
  0
LINE
  5
AD
100
AcDbEntity
  8
1
  6
CONTINUOUS
 62
    15
100
AcDbLine
 10
-14.305798
 20
0.861203
 30
0.0
 11
-14.305798
 21
-2.838797
 31
0.0
  0
CIRCLE
  5
AE
100
AcDbEntity
  8
1
  6
CONTINUOUS
 62
    15
100
AcDbCircle
 10
-11.305798
 20
-3.138797
 30
0.0
 40
0.25
  0
LINE
  5
AF
100
AcDbEntity
  8
1
  6
CONTINUOUS
 62
    15
100
AcDbLine
 10
-11.305798
 20
-2.638797
 30
0.0
 11
-11.305798
 21
-3.638797
 31
0.0
  0
LINE
  5
B0
100
AcDbEntity
  8
1
  6
CONTINUOUS
 62
    15
100
AcDbLine
 10
-10.805798
 20
-3.138797
 30
0.0
 11
-11.805798
 21
-3.138797
 31
0.0
  0
LINE
  5
B1
100
AcDbEntity
  8
1
  6
CONTINUOUS
 62
    15
100
AcDbLine
 10
3.344202
 20
-4.138797
 30
0.0
 11
10.579515
 21
-4.138797
 31
0.0
  0
LINE
  5
B2
100
AcDbEntity
  8
1
  6
CONTINUOUS
 62
    15
100
AcDbLine
 10
11.543951
 20
-3.403113
 30
0.0
 11
12.67642
 21
0.729045
 31
0.0
  0
ARC
  5
B3
100
AcDbEntity
  8
1
  6
CONTINUOUS
 62
    15
100
AcDbCircle
 10
12.194202
 20
0.861203
 30
0.0
 40
0.5
100
AcDbArc
 50
-15.326302
 51
150.45794
  0
LINE
  5
B4
100
AcDbEntity
  8
1
  6
CONTINUOUS
 62
    15
100
AcDbLine
 10
11.759205
 20
1.107734
 30
0.0
 11
9.522539
 21
-2.838797
 31
0.0
  0
LINE
  5
B5
100
AcDbEntity
  8
1
  6
CONTINUOUS
 62
    15
100
AcDbLine
 10
7.523293
 20
-2.838797
 30
0.0
 11
9.094202
 21
-0.138797
 31
0.0
  0
LINE
  5
B6
100
AcDbEntity
  8
1
  6
CONTINUOUS
 62
    15
100
AcDbLine
 10
9.094202
 20
-0.138797
 30
0.0
 11
8.494202
 21
-0.138797
 31
0.0
  0
LINE
  5
B7
100
AcDbEntity
  8
1
  6
CONTINUOUS
 62
    15
100
AcDbLine
 10
8.494202
 20
-0.138797
 30
0.0
 11
6.334202
 21
-2.838797
 31
0.0
  0
LINE
  5
B8
100
AcDbEntity
  8
1
  6
CONTINUOUS
 62
    15
100
AcDbLine
 10
4.321475
 20
-2.838797
 30
0.0
 11
5.794202
 21
-0.138797
 31
0.0
  0
LINE
  5
B9
100
AcDbEntity
  8
1
  6
CONTINUOUS
 62
    15
100
AcDbLine
 10
5.794202
 20
-0.138797
 30
0.0
 11
5.294202
 21
-0.138797
 31
0.0
  0
LINE
  5
BA
100
AcDbEntity
  8
1
  6
CONTINUOUS
 62
    15
100
AcDbLine
 10
5.294202
 20
-0.138797
 30
0.0
 11
3.134202
 21
-2.838797
 31
0.0
  0
LINE
  5
BB
100
AcDbEntity
  8
1
  6
CONTINUOUS
 62
    15
100
AcDbLine
 10
1.16517
 20
-2.838797
 30
0.0
 11
0.294202
 21
-1.338797
 31
0.0
  0
LINE
  5
BC
100
AcDbEntity
  8
1
  6
CONTINUOUS
 62
    15
100
AcDbLine
 10
0.294202
 20
-1.338797
 30
0.0
 11
-0.305798
 21
-1.338797
 31
0.0
  0
LINE
  5
BD
100
AcDbEntity
  8
1
  6
CONTINUOUS
 62
    15
100
AcDbLine
 10
-0.305798
 20
-1.338797
 30
0.0
 11
0.095988
 21
-2.838797
 31
0.0
  0
ARC
  5
BE
100
AcDbEntity
  8
1
  6
CONTINUOUS
 62
    15
100
AcDbCircle
 10
-33.19111
 20
-3.138797
 30
0.0
 40
1.0
100
AcDbArc
 50
-164.673698
 51
-90.0
  0
ARC
  5
BF
100
AcDbEntity
  8
1
  6
CONTINUOUS
 62
    15
100
AcDbCircle
 10
10.579515
 20
-3.138797
 30
0.0
 40
1.0
100
AcDbArc
 50
-90.0
 51
-15.326302
  0
ENDBLK
  5
C0
100
AcDbEntity
  8
0
100
AcDbBlockEnd
  0
BLOCK
  5
C2
100
AcDbEntity
  8
1
100
AcDbBlockBegin
  2
GEN_BLOCK00003
 70
     0
 10
0.0
 20
0.0
 30
0.0
  3
GEN_BLOCK00003
  1

  0
LINE
  5
C4
100
AcDbEntity
  8
1
  6
CONTINUOUS
 62
    15
100
AcDbLine
 10
11.194202
 20
-5.138797
 30
0.0
 11
-33.805798
 21
-5.138797
 31
0.0
  0
LINE
  5
C5
100
AcDbEntity
  8
1
  6
CONTINUOUS
 62
    15
100
AcDbLine
 10
-33.805798
 20
-5.138797
 30
0.0
 11
-33.805798
 21
-55.804817
 31
0.0
  0
LINE
  5
C6
100
AcDbEntity
  8
1
  6
CONTINUOUS
 62
    15
100
AcDbLine
 10
-33.805798
 20
-55.804817
 30
0.0
 11
-20.018592
 21
-51.901024
 31
0.0
  0
LINE
  5
C7
100
AcDbEntity
  8
1
  6
CONTINUOUS
 62
    15
100
AcDbLine
 10
-20.018592
 20
-51.901024
 30
0.0
 11
-11.305798
 21
-60.033926
 31
0.0
  0
LINE
  5
C8
100
AcDbEntity
  8
1
  6
CONTINUOUS
 62
    15
100
AcDbLine
 10
-11.305798
 20
-60.033926
 30
0.0
 11
3.241508
 21
-55.804817
 31
0.0
  0
LINE
  5
C9
100
AcDbEntity
  8
1
  6
CONTINUOUS
 62
    15
100
AcDbLine
 10
3.241508
 20
-55.804817
 30
0.0
 11
11.194202
 21
-60.033926
 31
0.0
  0
LINE
  5
CA
100
AcDbEntity
  8
1
  6
CONTINUOUS
 62
    15
100
AcDbLine
 10
11.194202
 20
-60.033926
 30
0.0
 11
11.194202
 21
-5.138797
 31
0.0
  0
ENDBLK
  5
CB
100
AcDbEntity
  8
0
100
AcDbBlockEnd
  0
BLOCK
  5
CD
100
AcDbEntity
  8
0
100
AcDbBlockBegin
  2
GEN_BLOCK00004
 70
     0
 10
0.0
 20
0.0
 30
0.0
  3
GEN_BLOCK00004
  1

  0
LINE
  5
CF
100
AcDbEntity
  8
0
  6
CONTINUOUS
 62
    15
100
AcDbLine
 10
-141.788188
 20
-91.146336
 30
0.0
 11
-141.766552
 21
-91.535756
 31
0.0
  0
LINE
  5
D0
100
AcDbEntity
  8
0
  6
CONTINUOUS
 62
    15
100
AcDbLine
 10
-141.766552
 20
-91.535756
 30
0.0
 11
-141.701706
 21
-91.924108
 31
0.0
  0
LINE
  5
D1
100
AcDbEntity
  8
0
  6
CONTINUOUS
 62
    15
100
AcDbLine
 10
-141.701706
 20
-91.924108
 30
0.0
 11
-141.593825
 21
-92.310329
 31
0.0
  0
LINE
  5
D2
100
AcDbEntity
  8
0
  6
CONTINUOUS
 62
    15
100
AcDbLine
 10
-141.593825
 20
-92.310329
 30
0.0
 11
-141.443207
 21
-92.693359
 31
0.0
  0
LINE
  5
D3
100
AcDbEntity
  8
0
  6
CONTINUOUS
 62
    15
100
AcDbLine
 10
-141.443207
 20
-92.693359
 30
0.0
 11
-141.250264
 21
-93.072149
 31
0.0
  0
LINE
  5
D4
100
AcDbEntity
  8
0
  6
CONTINUOUS
 62
    15
100
AcDbLine
 10
-141.250264
 20
-93.072149
 30
0.0
 11
-141.015524
 21
-93.445661
 31
0.0
  0
LINE
  5
D5
100
AcDbEntity
  8
0
  6
CONTINUOUS
 62
    15
100
AcDbLine
 10
-141.015524
 20
-93.445661
 30
0.0
 11
-140.739632
 21
-93.81287
 31
0.0
  0
LINE
  5
D6
100
AcDbEntity
  8
0
  6
CONTINUOUS
 62
    15
100
AcDbLine
 10
-140.739632
 20
-93.81287
 30
0.0
 11
-140.423343
 21
-94.17277
 31
0.0
  0
LINE
  5
D7
100
AcDbEntity
  8
0
  6
CONTINUOUS
 62
    15
100
AcDbLine
 10
-140.423343
 20
-94.17277
 30
0.0
 11
-140.067524
 21
-94.524375
 31
0.0
  0
LINE
  5
D8
100
AcDbEntity
  8
0
  6
CONTINUOUS
 62
    15
100
AcDbLine
 10
-140.067524
 20
-94.524375
 30
0.0
 11
-139.673151
 21
-94.866721
 31
0.0
  0
LINE
  5
D9
100
AcDbEntity
  8
0
  6
CONTINUOUS
 62
    15
100
AcDbLine
 10
-139.673151
 20
-94.866721
 30
0.0
 11
-139.241305
 21
-95.19887
 31
0.0
  0
LINE
  5
DA
100
AcDbEntity
  8
0
  6
CONTINUOUS
 62
    15
100
AcDbLine
 10
-139.241305
 20
-95.19887
 30
0.0
 11
-138.773168
 21
-95.519911
 31
0.0
  0
LINE
  5
DB
100
AcDbEntity
  8
0
  6
CONTINUOUS
 62
    15
100
AcDbLine
 10
-138.773168
 20
-95.519911
 30
0.0
 11
-138.270025
 21
-95.828965
 31
0.0
  0
LINE
  5
DC
100
AcDbEntity
  8
0
  6
CONTINUOUS
 62
    15
100
AcDbLine
 10
-138.270025
 20
-95.828965
 30
0.0
 11
-137.733254
 21
-96.125184
 31
0.0
  0
LINE
  5
DD
100
AcDbEntity
  8
0
  6
CONTINUOUS
 62
    15
100
AcDbLine
 10
-137.733254
 20
-96.125184
 30
0.0
 11
-137.164327
 21
-96.407756
 31
0.0
  0
LINE
  5
DE
100
AcDbEntity
  8
0
  6
CONTINUOUS
 62
    15
100
AcDbLine
 10
-137.164327
 20
-96.407756
 30
0.0
 11
-136.564803
 21
-96.675906
 31
0.0
  0
LINE
  5
DF
100
AcDbEntity
  8
0
  6
CONTINUOUS
 62
    15
100
AcDbLine
 10
-136.564803
 20
-96.675906
 30
0.0
 11
-135.936326
 21
-96.928901
 31
0.0
  0
LINE
  5
E0
100
AcDbEntity
  8
0
  6
CONTINUOUS
 62
    15
100
AcDbLine
 10
-135.936326
 20
-96.928901
 30
0.0
 11
-135.280617
 21
-97.166046
 31
0.0
  0
LINE
  5
E1
100
AcDbEntity
  8
0
  6
CONTINUOUS
 62
    15
100
AcDbLine
 10
-135.280617
 20
-97.166046
 30
0.0
 11
-134.599474
 21
-97.386692
 31
0.0
  0
LINE
  5
E2
100
AcDbEntity
  8
0
  6
CONTINUOUS
 62
    15
100
AcDbLine
 10
-134.599474
 20
-97.386692
 30
0.0
 11
-133.894764
 21
-97.590233
 31
0.0
  0
LINE
  5
E3
100
AcDbEntity
  8
0
  6
CONTINUOUS
 62
    15
100
AcDbLine
 10
-133.894764
 20
-97.590233
 30
0.0
 11
-133.168419
 21
-97.776111
 31
0.0
  0
LINE
  5
E4
100
AcDbEntity
  8
0
  6
CONTINUOUS
 62
    15
100
AcDbLine
 10
-133.168419
 20
-97.776111
 30
0.0
 11
-132.42243
 21
-97.943818
 31
0.0
  0
LINE
  5
E5
100
AcDbEntity
  8
0
  6
CONTINUOUS
 62
    15
100
AcDbLine
 10
-132.42243
 20
-97.943818
 30
0.0
 11
-131.658841
 21
-98.092894
 31
0.0
  0
LINE
  5
E6
100
AcDbEntity
  8
0
  6
CONTINUOUS
 62
    15
100
AcDbLine
 10
-131.658841
 20
-98.092894
 30
0.0
 11
-130.879745
 21
-98.22293
 31
0.0
  0
LINE
  5
E7
100
AcDbEntity
  8
0
  6
CONTINUOUS
 62
    15
100
AcDbLine
 10
-130.879745
 20
-98.22293
 30
0.0
 11
-130.087278
 21
-98.333569
 31
0.0
  0
LINE
  5
E8
100
AcDbEntity
  8
0
  6
CONTINUOUS
 62
    15
100
AcDbLine
 10
-130.087278
 20
-98.333569
 30
0.0
 11
-129.283611
 21
-98.424508
 31
0.0
  0
LINE
  5
E9
100
AcDbEntity
  8
0
  6
CONTINUOUS
 62
    15
100
AcDbLine
 10
-129.283611
 20
-98.424508
 30
0.0
 11
-128.470948
 21
-98.495499
 31
0.0
  0
LINE
  5
EA
100
AcDbEntity
  8
0
  6
CONTINUOUS
 62
    15
100
AcDbLine
 10
-128.470948
 20
-98.495499
 30
0.0
 11
-127.651516
 21
-98.546346
 31
0.0
  0
LINE
  5
EB
100
AcDbEntity
  8
0
  6
CONTINUOUS
 62
    15
100
AcDbLine
 10
-127.651516
 20
-98.546346
 30
0.0
 11
-126.827561
 21
-98.57691
 31
0.0
  0
LINE
  5
EC
100
AcDbEntity
  8
0
  6
CONTINUOUS
 62
    15
100
AcDbLine
 10
-126.827561
 20
-98.57691
 30
0.0
 11
-126.001341
 21
-98.587107
 31
0.0
  0
LINE
  5
ED
100
AcDbEntity
  8
0
  6
CONTINUOUS
 62
    15
100
AcDbLine
 10
-126.001341
 20
-98.587107
 30
0.0
 11
-125.175121
 21
-98.57691
 31
0.0
  0
LINE
  5
EE
100
AcDbEntity
  8
0
  6
CONTINUOUS
 62
    15
100
AcDbLine
 10
-125.175121
 20
-98.57691
 30
0.0
 11
-124.351166
 21
-98.546346
 31
0.0
  0
LINE
  5
EF
100
AcDbEntity
  8
0
  6
CONTINUOUS
 62
    15
100
AcDbLine
 10
-124.351166
 20
-98.546346
 30
0.0
 11
-123.531734
 21
-98.495499
 31
0.0
  0
LINE
  5
F0
100
AcDbEntity
  8
0
  6
CONTINUOUS
 62
    15
100
AcDbLine
 10
-123.531734
 20
-98.495499
 30
0.0
 11
-122.719071
 21
-98.424508
 31
0.0
  0
LINE
  5
F1
100
AcDbEntity
  8
0
  6
CONTINUOUS
 62
    15
100
AcDbLine
 10
-122.719071
 20
-98.424508
 30
0.0
 11
-121.915405
 21
-98.333569
 31
0.0
  0
LINE
  5
F2
100
AcDbEntity
  8
0
  6
CONTINUOUS
 62
    15
100
AcDbLine
 10
-121.915405
 20
-98.333569
 30
0.0
 11
-121.122937
 21
-98.22293
 31
0.0
  0
LINE
  5
F3
100
AcDbEntity
  8
0
  6
CONTINUOUS
 62
    15
100
AcDbLine
 10
-121.122937
 20
-98.22293
 30
0.0
 11
-120.343841
 21
-98.092894
 31
0.0
  0
LINE
  5
F4
100
AcDbEntity
  8
0
  6
CONTINUOUS
 62
    15
100
AcDbLine
 10
-120.343841
 20
-98.092894
 30
0.0
 11
-119.580252
 21
-97.943818
 31
0.0
  0
LINE
  5
F5
100
AcDbEntity
  8
0
  6
CONTINUOUS
 62
    15
100
AcDbLine
 10
-119.580252
 20
-97.943818
 30
0.0
 11
-118.834263
 21
-97.776111
 31
0.0
  0
LINE
  5
F6
100
AcDbEntity
  8
0
  6
CONTINUOUS
 62
    15
100
AcDbLine
 10
-118.834263
 20
-97.776111
 30
0.0
 11
-118.107918
 21
-97.590233
 31
0.0
  0
LINE
  5
F7
100
AcDbEntity
  8
0
  6
CONTINUOUS
 62
    15
100
AcDbLine
 10
-118.107918
 20
-97.590233
 30
0.0
 11
-117.403208
 21
-97.386692
 31
0.0
  0
LINE
  5
F8
100
AcDbEntity
  8
0
  6
CONTINUOUS
 62
    15
100
AcDbLine
 10
-117.403208
 20
-97.386692
 30
0.0
 11
-116.722066
 21
-97.166046
 31
0.0
  0
LINE
  5
F9
100
AcDbEntity
  8
0
  6
CONTINUOUS
 62
    15
100
AcDbLine
 10
-116.722066
 20
-97.166046
 30
0.0
 11
-116.066357
 21
-96.928901
 31
0.0
  0
LINE
  5
FA
100
AcDbEntity
  8
0
  6
CONTINUOUS
 62
    15
100
AcDbLine
 10
-116.066357
 20
-96.928901
 30
0.0
 11
-115.437879
 21
-96.675906
 31
0.0
  0
LINE
  5
FB
100
AcDbEntity
  8
0
  6
CONTINUOUS
 62
    15
100
AcDbLine
 10
-115.437879
 20
-96.675906
 30
0.0
 11
-114.838355
 21
-96.407756
 31
0.0
  0
LINE
  5
FC
100
AcDbEntity
  8
0
  6
CONTINUOUS
 62
    15
100
AcDbLine
 10
-114.838355
 20
-96.407756
 30
0.0
 11
-114.269428
 21
-96.125184
 31
0.0
  0
LINE
  5
FD
100
AcDbEntity
  8
0
  6
CONTINUOUS
 62
    15
100
AcDbLine
 10
-114.269428
 20
-96.125184
 30
0.0
 11
-113.732657
 21
-95.828965
 31
0.0
  0
LINE
  5
FE
100
AcDbEntity
  8
0
  6
CONTINUOUS
 62
    15
100
AcDbLine
 10
-113.732657
 20
-95.828965
 30
0.0
 11
-113.229514
 21
-95.519911
 31
0.0
  0
LINE
  5
FF
100
AcDbEntity
  8
0
  6
CONTINUOUS
 62
    15
100
AcDbLine
 10
-113.229514
 20
-95.519911
 30
0.0
 11
-112.761378
 21
-95.19887
 31
0.0
  0
LINE
  5
100
100
AcDbEntity
  8
0
  6
CONTINUOUS
 62
    15
100
AcDbLine
 10
-112.761378
 20
-95.19887
 30
0.0
 11
-112.329531
 21
-94.866721
 31
0.0
  0
LINE
  5
101
100
AcDbEntity
  8
0
  6
CONTINUOUS
 62
    15
100
AcDbLine
 10
-112.329531
 20
-94.866721
 30
0.0
 11
-111.935158
 21
-94.524375
 31
0.0
  0
LINE
  5
102
100
AcDbEntity
  8
0
  6
CONTINUOUS
 62
    15
100
AcDbLine
 10
-111.935158
 20
-94.524375
 30
0.0
 11
-111.579339
 21
-94.17277
 31
0.0
  0
LINE
  5
103
100
AcDbEntity
  8
0
  6
CONTINUOUS
 62
    15
100
AcDbLine
 10
-111.579339
 20
-94.17277
 30
0.0
 11
-111.26305
 21
-93.81287
 31
0.0
  0
LINE
  5
104
100
AcDbEntity
  8
0
  6
CONTINUOUS
 62
    15
100
AcDbLine
 10
-111.26305
 20
-93.81287
 30
0.0
 11
-110.987158
 21
-93.445661
 31
0.0
  0
LINE
  5
105
100
AcDbEntity
  8
0
  6
CONTINUOUS
 62
    15
100
AcDbLine
 10
-110.987158
 20
-93.445661
 30
0.0
 11
-110.752419
 21
-93.072149
 31
0.0
  0
LINE
  5
106
100
AcDbEntity
  8
0
  6
CONTINUOUS
 62
    15
100
AcDbLine
 10
-110.752419
 20
-93.072149
 30
0.0
 11
-110.559475
 21
-92.693359
 31
0.0
  0
LINE
  5
107
100
AcDbEntity
  8
0
  6
CONTINUOUS
 62
    15
100
AcDbLine
 10
-110.559475
 20
-92.693359
 30
0.0
 11
-110.408857
 21
-92.310329
 31
0.0
  0
LINE
  5
108
100
AcDbEntity
  8
0
  6
CONTINUOUS
 62
    15
100
AcDbLine
 10
-110.408857
 20
-92.310329
 30
0.0
 11
-110.300977
 21
-91.924108
 31
0.0
  0
LINE
  5
109
100
AcDbEntity
  8
0
  6
CONTINUOUS
 62
    15
100
AcDbLine
 10
-110.300977
 20
-91.924108
 30
0.0
 11
-110.23613
 21
-91.535756
 31
0.0
  0
LINE
  5
10A
100
AcDbEntity
  8
0
  6
CONTINUOUS
 62
    15
100
AcDbLine
 10
-110.23613
 20
-91.535756
 30
0.0
 11
-110.214495
 21
-91.146336
 31
0.0
  0
LINE
  5
10B
100
AcDbEntity
  8
0
  6
CONTINUOUS
 62
    15
100
AcDbLine
 10
-110.214495
 20
-91.146336
 30
0.0
 11
-110.23613
 21
-90.756916
 31
0.0
  0
LINE
  5
10C
100
AcDbEntity
  8
0
  6
CONTINUOUS
 62
    15
100
AcDbLine
 10
-110.23613
 20
-90.756916
 30
0.0
 11
-110.300977
 21
-90.368564
 31
0.0
  0
LINE
  5
10D
100
AcDbEntity
  8
0
  6
CONTINUOUS
 62
    15
100
AcDbLine
 10
-110.300977
 20
-90.368564
 30
0.0
 11
-110.408857
 21
-89.982343
 31
0.0
  0
LINE
  5
10E
100
AcDbEntity
  8
0
  6
CONTINUOUS
 62
    15
100
AcDbLine
 10
-110.408857
 20
-89.982343
 30
0.0
 11
-110.559475
 21
-89.599313
 31
0.0
  0
LINE
  5
10F
100
AcDbEntity
  8
0
  6
CONTINUOUS
 62
    15
100
AcDbLine
 10
-110.559475
 20
-89.599313
 30
0.0
 11
-110.752419
 21
-89.220523
 31
0.0
  0
LINE
  5
110
100
AcDbEntity
  8
0
  6
CONTINUOUS
 62
    15
100
AcDbLine
 10
-110.752419
 20
-89.220523
 30
0.0
 11
-110.987158
 21
-88.847011
 31
0.0
  0
LINE
  5
111
100
AcDbEntity
  8
0
  6
CONTINUOUS
 62
    15
100
AcDbLine
 10
-110.987158
 20
-88.847011
 30
0.0
 11
-111.26305
 21
-88.479802
 31
0.0
  0
LINE
  5
112
100
AcDbEntity
  8
0
  6
CONTINUOUS
 62
    15
100
AcDbLine
 10
-111.26305
 20
-88.479802
 30
0.0
 11
-111.579339
 21
-88.119902
 31
0.0
  0
LINE
  5
113
100
AcDbEntity
  8
0
  6
CONTINUOUS
 62
    15
100
AcDbLine
 10
-111.579339
 20
-88.119902
 30
0.0
 11
-111.935158
 21
-87.768297
 31
0.0
  0
LINE
  5
114
100
AcDbEntity
  8
0
  6
CONTINUOUS
 62
    15
100
AcDbLine
 10
-111.935158
 20
-87.768297
 30
0.0
 11
-112.329531
 21
-87.425951
 31
0.0
  0
LINE
  5
115
100
AcDbEntity
  8
0
  6
CONTINUOUS
 62
    15
100
AcDbLine
 10
-112.329531
 20
-87.425951
 30
0.0
 11
-112.761378
 21
-87.093802
 31
0.0
  0
LINE
  5
116
100
AcDbEntity
  8
0
  6
CONTINUOUS
 62
    15
100
AcDbLine
 10
-112.761378
 20
-87.093802
 30
0.0
 11
-113.229514
 21
-86.772761
 31
0.0
  0
LINE
  5
117
100
AcDbEntity
  8
0
  6
CONTINUOUS
 62
    15
100
AcDbLine
 10
-113.229514
 20
-86.772761
 30
0.0
 11
-113.732657
 21
-86.463707
 31
0.0
  0
LINE
  5
118
100
AcDbEntity
  8
0
  6
CONTINUOUS
 62
    15
100
AcDbLine
 10
-113.732657
 20
-86.463707
 30
0.0
 11
-114.269428
 21
-86.167488
 31
0.0
  0
LINE
  5
119
100
AcDbEntity
  8
0
  6
CONTINUOUS
 62
    15
100
AcDbLine
 10
-114.269428
 20
-86.167488
 30
0.0
 11
-114.838355
 21
-85.884916
 31
0.0
  0
LINE
  5
11A
100
AcDbEntity
  8
0
  6
CONTINUOUS
 62
    15
100
AcDbLine
 10
-114.838355
 20
-85.884916
 30
0.0
 11
-115.437879
 21
-85.616766
 31
0.0
  0
LINE
  5
11B
100
AcDbEntity
  8
0
  6
CONTINUOUS
 62
    15
100
AcDbLine
 10
-115.437879
 20
-85.616766
 30
0.0
 11
-116.066357
 21
-85.363771
 31
0.0
  0
LINE
  5
11C
100
AcDbEntity
  8
0
  6
CONTINUOUS
 62
    15
100
AcDbLine
 10
-116.066357
 20
-85.363771
 30
0.0
 11
-116.722066
 21
-85.126626
 31
0.0
  0
LINE
  5
11D
100
AcDbEntity
  8
0
  6
CONTINUOUS
 62
    15
100
AcDbLine
 10
-116.722066
 20
-85.126626
 30
0.0
 11
-117.403208
 21
-84.90598
 31
0.0
  0
LINE
  5
11E
100
AcDbEntity
  8
0
  6
CONTINUOUS
 62
    15
100
AcDbLine
 10
-117.403208
 20
-84.90598
 30
0.0
 11
-118.107918
 21
-84.702439
 31
0.0
  0
LINE
  5
11F
100
AcDbEntity
  8
0
  6
CONTINUOUS
 62
    15
100
AcDbLine
 10
-118.107918
 20
-84.702439
 30
0.0
 11
-118.834263
 21
-84.516561
 31
0.0
  0
LINE
  5
120
100
AcDbEntity
  8
0
  6
CONTINUOUS
 62
    15
100
AcDbLine
 10
-118.834263
 20
-84.516561
 30
0.0
 11
-119.580252
 21
-84.348854
 31
0.0
  0
LINE
  5
121
100
AcDbEntity
  8
0
  6
CONTINUOUS
 62
    15
100
AcDbLine
 10
-119.580252
 20
-84.348854
 30
0.0
 11
-120.343841
 21
-84.199778
 31
0.0
  0
LINE
  5
122
100
AcDbEntity
  8
0
  6
CONTINUOUS
 62
    15
100
AcDbLine
 10
-120.343841
 20
-84.199778
 30
0.0
 11
-121.122937
 21
-84.069742
 31
0.0
  0
LINE
  5
123
100
AcDbEntity
  8
0
  6
CONTINUOUS
 62
    15
100
AcDbLine
 10
-121.122937
 20
-84.069742
 30
0.0
 11
-121.915405
 21
-83.959103
 31
0.0
  0
LINE
  5
124
100
AcDbEntity
  8
0
  6
CONTINUOUS
 62
    15
100
AcDbLine
 10
-121.915405
 20
-83.959103
 30
0.0
 11
-122.719071
 21
-83.868164
 31
0.0
  0
LINE
  5
125
100
AcDbEntity
  8
0
  6
CONTINUOUS
 62
    15
100
AcDbLine
 10
-122.719071
 20
-83.868164
 30
0.0
 11
-123.531734
 21
-83.797173
 31
0.0
  0
LINE
  5
126
100
AcDbEntity
  8
0
  6
CONTINUOUS
 62
    15
100
AcDbLine
 10
-123.531734
 20
-83.797173
 30
0.0
 11
-124.351166
 21
-83.746326
 31
0.0
  0
LINE
  5
127
100
AcDbEntity
  8
0
  6
CONTINUOUS
 62
    15
100
AcDbLine
 10
-124.351166
 20
-83.746326
 30
0.0
 11
-125.175121
 21
-83.715762
 31
0.0
  0
LINE
  5
128
100
AcDbEntity
  8
0
  6
CONTINUOUS
 62
    15
100
AcDbLine
 10
-125.175121
 20
-83.715762
 30
0.0
 11
-126.001341
 21
-83.705565
 31
0.0
  0
LINE
  5
129
100
AcDbEntity
  8
0
  6
CONTINUOUS
 62
    15
100
AcDbLine
 10
-126.001341
 20
-83.705565
 30
0.0
 11
-126.827561
 21
-83.715762
 31
0.0
  0
LINE
  5
12A
100
AcDbEntity
  8
0
  6
CONTINUOUS
 62
    15
100
AcDbLine
 10
-126.827561
 20
-83.715762
 30
0.0
 11
-127.651516
 21
-83.746326
 31
0.0
  0
LINE
  5
12B
100
AcDbEntity
  8
0
  6
CONTINUOUS
 62
    15
100
AcDbLine
 10
-127.651516
 20
-83.746326
 30
0.0
 11
-128.470948
 21
-83.797173
 31
0.0
  0
LINE
  5
12C
100
AcDbEntity
  8
0
  6
CONTINUOUS
 62
    15
100
AcDbLine
 10
-128.470948
 20
-83.797173
 30
0.0
 11
-129.283611
 21
-83.868164
 31
0.0
  0
LINE
  5
12D
100
AcDbEntity
  8
0
  6
CONTINUOUS
 62
    15
100
AcDbLine
 10
-129.283611
 20
-83.868164
 30
0.0
 11
-130.087278
 21
-83.959103
 31
0.0
  0
LINE
  5
12E
100
AcDbEntity
  8
0
  6
CONTINUOUS
 62
    15
100
AcDbLine
 10
-130.087278
 20
-83.959103
 30
0.0
 11
-130.879745
 21
-84.069742
 31
0.0
  0
LINE
  5
12F
100
AcDbEntity
  8
0
  6
CONTINUOUS
 62
    15
100
AcDbLine
 10
-130.879745
 20
-84.069742
 30
0.0
 11
-131.658841
 21
-84.199778
 31
0.0
  0
LINE
  5
130
100
AcDbEntity
  8
0
  6
CONTINUOUS
 62
    15
100
AcDbLine
 10
-131.658841
 20
-84.199778
 30
0.0
 11
-132.42243
 21
-84.348854
 31
0.0
  0
LINE
  5
131
100
AcDbEntity
  8
0
  6
CONTINUOUS
 62
    15
100
AcDbLine
 10
-132.42243
 20
-84.348854
 30
0.0
 11
-133.168419
 21
-84.516561
 31
0.0
  0
LINE
  5
132
100
AcDbEntity
  8
0
  6
CONTINUOUS
 62
    15
100
AcDbLine
 10
-133.168419
 20
-84.516561
 30
0.0
 11
-133.894764
 21
-84.702439
 31
0.0
  0
LINE
  5
133
100
AcDbEntity
  8
0
  6
CONTINUOUS
 62
    15
100
AcDbLine
 10
-133.894764
 20
-84.702439
 30
0.0
 11
-134.599474
 21
-84.90598
 31
0.0
  0
LINE
  5
134
100
AcDbEntity
  8
0
  6
CONTINUOUS
 62
    15
100
AcDbLine
 10
-134.599474
 20
-84.90598
 30
0.0
 11
-135.280617
 21
-85.126626
 31
0.0
  0
LINE
  5
135
100
AcDbEntity
  8
0
  6
CONTINUOUS
 62
    15
100
AcDbLine
 10
-135.280617
 20
-85.126626
 30
0.0
 11
-135.936326
 21
-85.363771
 31
0.0
  0
LINE
  5
136
100
AcDbEntity
  8
0
  6
CONTINUOUS
 62
    15
100
AcDbLine
 10
-135.936326
 20
-85.363771
 30
0.0
 11
-136.564803
 21
-85.616766
 31
0.0
  0
LINE
  5
137
100
AcDbEntity
  8
0
  6
CONTINUOUS
 62
    15
100
AcDbLine
 10
-136.564803
 20
-85.616766
 30
0.0
 11
-137.164327
 21
-85.884916
 31
0.0
  0
LINE
  5
138
100
AcDbEntity
  8
0
  6
CONTINUOUS
 62
    15
100
AcDbLine
 10
-137.164327
 20
-85.884916
 30
0.0
 11
-137.733254
 21
-86.167488
 31
0.0
  0
LINE
  5
139
100
AcDbEntity
  8
0
  6
CONTINUOUS
 62
    15
100
AcDbLine
 10
-137.733254
 20
-86.167488
 30
0.0
 11
-138.270025
 21
-86.463707
 31
0.0
  0
LINE
  5
13A
100
AcDbEntity
  8
0
  6
CONTINUOUS
 62
    15
100
AcDbLine
 10
-138.270025
 20
-86.463707
 30
0.0
 11
-138.773168
 21
-86.772761
 31
0.0
  0
LINE
  5
13B
100
AcDbEntity
  8
0
  6
CONTINUOUS
 62
    15
100
AcDbLine
 10
-138.773168
 20
-86.772761
 30
0.0
 11
-139.241305
 21
-87.093802
 31
0.0
  0
LINE
  5
13C
100
AcDbEntity
  8
0
  6
CONTINUOUS
 62
    15
100
AcDbLine
 10
-139.241305
 20
-87.093802
 30
0.0
 11
-139.673151
 21
-87.425951
 31
0.0
  0
LINE
  5
13D
100
AcDbEntity
  8
0
  6
CONTINUOUS
 62
    15
100
AcDbLine
 10
-139.673151
 20
-87.425951
 30
0.0
 11
-140.067524
 21
-87.768297
 31
0.0
  0
LINE
  5
13E
100
AcDbEntity
  8
0
  6
CONTINUOUS
 62
    15
100
AcDbLine
 10
-140.067524
 20
-87.768297
 30
0.0
 11
-140.423343
 21
-88.119902
 31
0.0
  0
LINE
  5
13F
100
AcDbEntity
  8
0
  6
CONTINUOUS
 62
    15
100
AcDbLine
 10
-140.423343
 20
-88.119902
 30
0.0
 11
-140.739632
 21
-88.479802
 31
0.0
  0
LINE
  5
140
100
AcDbEntity
  8
0
  6
CONTINUOUS
 62
    15
100
AcDbLine
 10
-140.739632
 20
-88.479802
 30
0.0
 11
-141.015524
 21
-88.847011
 31
0.0
  0
LINE
  5
141
100
AcDbEntity
  8
0
  6
CONTINUOUS
 62
    15
100
AcDbLine
 10
-141.015524
 20
-88.847011
 30
0.0
 11
-141.250264
 21
-89.220523
 31
0.0
  0
LINE
  5
142
100
AcDbEntity
  8
0
  6
CONTINUOUS
 62
    15
100
AcDbLine
 10
-141.250264
 20
-89.220523
 30
0.0
 11
-141.443207
 21
-89.599313
 31
0.0
  0
LINE
  5
143
100
AcDbEntity
  8
0
  6
CONTINUOUS
 62
    15
100
AcDbLine
 10
-141.443207
 20
-89.599313
 30
0.0
 11
-141.593825
 21
-89.982343
 31
0.0
  0
LINE
  5
144
100
AcDbEntity
  8
0
  6
CONTINUOUS
 62
    15
100
AcDbLine
 10
-141.593825
 20
-89.982343
 30
0.0
 11
-141.701706
 21
-90.368564
 31
0.0
  0
LINE
  5
145
100
AcDbEntity
  8
0
  6
CONTINUOUS
 62
    15
100
AcDbLine
 10
-141.701706
 20
-90.368564
 30
0.0
 11
-141.766552
 21
-90.756916
 31
0.0
  0
LINE
  5
146
100
AcDbEntity
  8
0
  6
CONTINUOUS
 62
    15
100
AcDbLine
 10
-141.766552
 20
-90.756916
 30
0.0
 11
-141.788188
 21
-91.146336
 31
0.0
  0
ARC
  5
147
100
AcDbEntity
  8
0
  6
CONTINUOUS
 62
    16
100
AcDbCircle
 10
-117.128596
 20
-95.442471
 30
0.0
 40
0.600591
100
AcDbArc
 50
61.06943
 51
142.6647
  0
ARC
  5
148
100
AcDbEntity
  8
0
  6
CONTINUOUS
 62
    16
100
AcDbCircle
 10
-117.128596
 20
-95.442471
 30
0.0
 40
0.966216
100
AcDbArc
 50
64.49038
 51
142.973858
  0
LINE
  5
149
100
AcDbEntity
  8
0
  6
CONTINUOUS
 62
    16
100
AcDbLine
 10
-133.94433
 20
-94.916829
 30
0.0
 11
-134.069908
 21
-94.570448
 31
0.0
  0
LINE
  5
14A
100
AcDbEntity
  8
0
  6
CONTINUOUS
 62
    16
100
AcDbLine
 10
-131.560271
 20
-95.514257
 30
0.0
 11
-131.685288
 21
-95.169421
 31
0.0
  0
ARC
  5
14B
100
AcDbEntity
  8
0
  6
CONTINUOUS
 62
    16
100
AcDbCircle
 10
-132.098369
 20
-94.295958
 30
0.0
 40
1.331841
100
AcDbArc
 50
-144.03027
 51
-66.169924
  0
ARC
  5
14C
100
AcDbEntity
  8
0
  6
CONTINUOUS
 62
    16
100
AcDbCircle
 10
-133.653795
 20
-95.442471
 30
0.0
 40
0.600591
100
AcDbArc
 50
37.3353
 51
118.93057
  0
ARC
  5
14D
100
AcDbEntity
  8
0
  6
CONTINUOUS
 62
    16
100
AcDbCircle
 10
-132.098369
 20
-94.295958
 30
0.0
 40
0.966216
100
AcDbArc
 50
-144.237877
 51
-64.689464
  0
ARC
  5
14E
100
AcDbEntity
  8
0
  6
CONTINUOUS
 62
    16
100
AcDbCircle
 10
-133.653795
 20
-95.442471
 30
0.0
 40
0.966216
100
AcDbArc
 50
37.026142
 51
115.50962
  0
LINE
  5
14F
100
AcDbEntity
  8
0
  6
CONTINUOUS
 62
    16
100
AcDbLine
 10
-119.22212
 20
-95.514257
 30
0.0
 11
-119.097102
 21
-95.169421
 31
0.0
  0
ARC
  5
150
100
AcDbEntity
  8
0
  6
CONTINUOUS
 62
    16
100
AcDbCircle
 10
-118.684022
 20
-94.295958
 30
0.0
 40
0.966216
100
AcDbArc
 50
-115.310536
 51
-35.762123
  0
ARC
  5
151
100
AcDbEntity
  8
0
  6
CONTINUOUS
 62
    16
100
AcDbCircle
 10
-118.684022
 20
-94.295958
 30
0.0
 40
1.331841
100
AcDbArc
 50
-113.830076
 51
-35.96973
  0
LINE
  5
152
100
AcDbEntity
  8
0
  6
CONTINUOUS
 62
    16
100
AcDbLine
 10
-116.83806
 20
-94.916829
 30
0.0
 11
-116.712483
 21
-94.570448
 31
0.0
  0
ARC
  5
153
100
AcDbEntity
  8
0
  6
CONTINUOUS
 62
    16
100
AcDbCircle
 10
-118.37907
 20
-90.856812
 30
0.0
 40
2.4375
100
AcDbArc
 50
-70.953953
 51
-51.766203
  0
LINE
  5
154
100
AcDbEntity
  8
0
  6
CONTINUOUS
 62
    16
100
AcDbLine
 10
-117.543874
 20
-89.985453
 30
0.0
 11
-115.350124
 21
-89.985453
 31
0.0
  0
LINE
  5
155
100
AcDbEntity
  8
0
  6
CONTINUOUS
 62
    16
100
AcDbLine
 10
-117.543874
 20
-93.397953
 30
0.0
 11
-116.081374
 21
-93.397953
 31
0.0
  0
LINE
  5
156
100
AcDbEntity
  8
0
  6
CONTINUOUS
 62
    16
100
AcDbLine
 10
-115.683134
 20
-91.835894
 30
0.0
 11
-117.164158
 21
-90.453605
 31
0.0
  0
LINE
  5
157
100
AcDbEntity
  8
0
  6
CONTINUOUS
 62
    16
100
AcDbLine
 10
-131.125593
 20
-91.835894
 30
0.0
 11
-132.606617
 21
-90.453605
 31
0.0
  0
LINE
  5
158
100
AcDbEntity
  8
0
  6
CONTINUOUS
 62
    16
100
AcDbLine
 10
-130.389481
 20
-91.255928
 30
0.0
 11
-131.220918
 21
-90.47992
 31
0.0
  0
LINE
  5
159
100
AcDbEntity
  8
0
  6
CONTINUOUS
 62
    16
100
AcDbLine
 10
-131.125593
 20
-91.835894
 30
0.0
 11
-132.313029
 21
-92.771448
 31
0.0
  0
LINE
  5
15A
100
AcDbEntity
  8
0
  6
CONTINUOUS
 62
    16
100
AcDbLine
 10
-130.891218
 20
-92.054644
 30
0.0
 11
-131.963733
 21
-92.899655
 31
0.0
  0
ARC
  5
15B
100
AcDbEntity
  8
0
  6
CONTINUOUS
 62
    16
100
AcDbCircle
 10
-131.137761
 20
-90.390822
 30
0.0
 40
0.121875
100
AcDbArc
 50
96.323695
 51
-133.025066
  0
LINE
  5
15C
100
AcDbEntity
  8
0
  6
CONTINUOUS
 62
    16
100
AcDbLine
 10
-132.986334
 20
-89.985453
 30
0.0
 11
-130.792584
 21
-89.985453
 31
0.0
  0
ARC
  5
15D
100
AcDbEntity
  8
0
  6
CONTINUOUS
 62
    16
100
AcDbCircle
 10
-131.888308
 20
-92.995387
 30
0.0
 40
0.121875
100
AcDbArc
 50
128.233797
 51
-95.605123
  0
LINE
  5
15E
100
AcDbEntity
  8
0
  6
CONTINUOUS
 62
    16
100
AcDbLine
 10
-131.51193
 20
-93.154786
 30
0.0
 11
-131.900212
 21
-93.116679
 31
0.0
  0
ARC
  5
15F
100
AcDbEntity
  8
0
  6
CONTINUOUS
 62
    16
100
AcDbCircle
 10
-131.523834
 20
-93.276078
 30
0.0
 40
0.121875
100
AcDbArc
 50
-90.0
 51
84.394877
  0
ARC
  5
160
100
AcDbEntity
  8
0
  6
CONTINUOUS
 62
    16
100
AcDbCircle
 10
-133.821529
 20
-90.856812
 30
0.0
 40
2.4375
100
AcDbArc
 50
-70.953953
 51
-51.766203
  0
ARC
  5
161
100
AcDbEntity
  8
0
  6
CONTINUOUS
 62
    16
100
AcDbCircle
 10
-132.986334
 20
-93.276078
 30
0.0
 40
0.121875
100
AcDbArc
 50
109.046047
 51
-90.0
  0
ARC
  5
162
100
AcDbEntity
  8
0
  6
CONTINUOUS
 62
    16
100
AcDbCircle
 10
-133.271877
 20
-91.166384
 30
0.0
 40
0.975
100
AcDbArc
 50
46.974934
 51
74.910663
  0
ARC
  5
163
100
AcDbEntity
  8
0
  6
CONTINUOUS
 62
    16
100
AcDbCircle
 10
-132.986334
 20
-90.107328
 30
0.0
 40
0.121875
100
AcDbArc
 50
90.0
 51
-105.089337
  0
LINE
  5
164
100
AcDbEntity
  8
0
  6
CONTINUOUS
 62
    16
100
AcDbLine
 10
-132.986334
 20
-93.397953
 30
0.0
 11
-131.523834
 21
-93.397953
 31
0.0
  0
ARC
  5
165
100
AcDbEntity
  8
0
  6
CONTINUOUS
 62
    16
100
AcDbCircle
 10
-134.873792
 20
-91.326078
 30
0.0
 40
1.70625
100
AcDbArc
 50
-90.0
 51
-27.818139
  0
ARC
  5
166
100
AcDbEntity
  8
0
  6
CONTINUOUS
 62
    16
100
AcDbCircle
 10
-133.256938
 20
-92.179203
 30
0.0
 40
0.121875
100
AcDbArc
 50
0.0
 51
152.181861
  0
ARC
  5
167
100
AcDbEntity
  8
0
  6
CONTINUOUS
 62
    16
100
AcDbCircle
 10
-134.353813
 20
-92.179203
 30
0.0
 40
1.21875
100
AcDbArc
 50
-90.0
 51
0.0
  0
ARC
  5
168
100
AcDbEntity
  8
0
  6
CONTINUOUS
 62
    16
100
AcDbCircle
 10
-136.181938
 20
-92.788578
 30
0.0
 40
0.24375
100
AcDbArc
 50
180.0
 51
-90.0
  0
ARC
  5
169
100
AcDbEntity
  8
0
  6
CONTINUOUS
 62
    16
100
AcDbCircle
 10
-135.19999
 20
-91.634355
 30
0.0
 40
0.771432
100
AcDbArc
 50
1.983446
 51
90.505274
  0
ARC
  5
16A
100
AcDbEntity
  8
0
  6
CONTINUOUS
 62
    16
100
AcDbCircle
 10
-134.307166
 20
-91.609897
 30
0.0
 40
0.121875
100
AcDbArc
 50
178.945911
 51
0.0
  0
ARC
  5
16B
100
AcDbEntity
  8
0
  6
CONTINUOUS
 62
    16
100
AcDbCircle
 10
-135.189701
 20
-89.741703
 30
0.0
 40
0.73125
100
AcDbArc
 50
-90.0
 51
-11.536959
  0
ARC
  5
16C
100
AcDbEntity
  8
0
  6
CONTINUOUS
 62
    16
100
AcDbCircle
 10
-134.353813
 20
-89.912328
 30
0.0
 40
0.121875
100
AcDbArc
 50
0.0
 51
168.463041
  0
LINE
  5
16D
100
AcDbEntity
  8
0
  6
CONTINUOUS
 62
    16
100
AcDbLine
 10
-134.231938
 20
-89.912328
 30
0.0
 11
-134.185291
 21
-91.609897
 31
0.0
  0
ARC
  5
16E
100
AcDbEntity
  8
0
  6
CONTINUOUS
 62
    16
100
AcDbCircle
 10
-136.303813
 20
-90.984828
 30
0.0
 40
0.121875
100
AcDbArc
 50
90.0
 51
180.0
  0
LINE
  5
16F
100
AcDbEntity
  8
0
  6
CONTINUOUS
 62
    16
100
AcDbLine
 10
-136.425688
 20
-90.984828
 30
0.0
 11
-136.425688
 21
-92.788578
 31
0.0
  0
ARC
  5
170
100
AcDbEntity
  8
0
  6
CONTINUOUS
 62
    16
100
AcDbCircle
 10
-136.303813
 20
-90.351078
 30
0.0
 40
0.121875
100
AcDbArc
 50
180.0
 51
-90.0
  0
LINE
  5
171
100
AcDbEntity
  8
0
  6
CONTINUOUS
 62
    16
100
AcDbLine
 10
-136.303813
 20
-90.862953
 30
0.0
 11
-135.206793
 21
-90.862953
 31
0.0
  0
LINE
  5
172
100
AcDbEntity
  8
0
  6
CONTINUOUS
 62
    16
100
AcDbLine
 10
-136.303813
 20
-90.472953
 30
0.0
 11
-135.189701
 21
-90.472953
 31
0.0
  0
ARC
  5
173
100
AcDbEntity
  8
0
  6
CONTINUOUS
 62
    16
100
AcDbCircle
 10
-136.279438
 20
-88.645881
 30
0.0
 40
0.14625
100
AcDbArc
 50
100.03753
 51
180.0
  0
ARC
  5
174
100
AcDbEntity
  8
0
  6
CONTINUOUS
 62
    16
100
AcDbCircle
 10
-134.104824
 20
-88.734685
 30
0.0
 40
0.24375
100
AcDbArc
 50
11.915541
 51
80.345042
  0
ARC
  5
175
100
AcDbEntity
  8
0
  6
CONTINUOUS
 62
    16
100
AcDbCircle
 10
-135.162882
 20
-94.954014
 30
0.0
 40
6.552438
100
AcDbArc
 50
80.345042
 51
100.03753
  0
LINE
  5
176
100
AcDbEntity
  8
0
  6
CONTINUOUS
 62
    16
100
AcDbLine
 10
-133.681591
 20
-89.294546
 30
0.0
 11
-133.866326
 21
-88.684358
 31
0.0
  0
ARC
  5
177
100
AcDbEntity
  8
0
  6
CONTINUOUS
 62
    16
100
AcDbCircle
 10
-133.566587
 20
-89.254203
 30
0.0
 40
0.121875
100
AcDbArc
 50
-175.499398
 51
0.0
  0
ARC
  5
178
100
AcDbEntity
  8
0
  6
CONTINUOUS
 62
    16
100
AcDbCircle
 10
-133.622563
 20
-88.157328
 30
0.0
 40
0.121875
100
AcDbArc
 50
0.0
 51
90.0
  0
LINE
  5
179
100
AcDbEntity
  8
0
  6
CONTINUOUS
 62
    16
100
AcDbLine
 10
-133.500688
 20
-88.157328
 30
0.0
 11
-133.444712
 21
-89.254203
 31
0.0
  0
ARC
  5
17A
100
AcDbEntity
  8
0
  6
CONTINUOUS
 62
    16
100
AcDbCircle
 10
-138.131938
 20
-88.82448
 30
0.0
 40
0.4875
100
AcDbArc
 50
0.0
 51
81.949746
  0
ARC
  5
17B
100
AcDbEntity
  8
0
  6
CONTINUOUS
 62
    16
100
AcDbCircle
 10
-138.131938
 20
-92.608926
 30
0.0
 40
0.4875
100
AcDbArc
 50
-81.949746
 51
0.0
  0
LINE
  5
17C
100
AcDbEntity
  8
0
  6
CONTINUOUS
 62
    16
100
AcDbLine
 10
-138.063667
 20
-93.091622
 30
0.0
 11
-138.51463
 21
-93.155404
 31
0.0
  0
LINE
  5
17D
100
AcDbEntity
  8
0
  6
CONTINUOUS
 62
    16
100
AcDbLine
 10
-138.063667
 20
-88.341784
 30
0.0
 11
-138.51463
 21
-88.278002
 31
0.0
  0
ARC
  5
17E
100
AcDbEntity
  8
0
  6
CONTINUOUS
 62
    16
100
AcDbCircle
 10
-138.497563
 20
-93.276078
 30
0.0
 40
0.121875
100
AcDbArc
 50
98.050254
 51
-90.0
  0
ARC
  5
17F
100
AcDbEntity
  8
0
  6
CONTINUOUS
 62
    16
100
AcDbCircle
 10
-138.497563
 20
-88.157328
 30
0.0
 40
0.121875
100
AcDbArc
 50
90.0
 51
-98.050254
  0
LINE
  5
180
100
AcDbEntity
  8
0
  6
CONTINUOUS
 62
    16
100
AcDbLine
 10
-136.181938
 20
-93.032328
 30
0.0
 11
-134.873792
 21
-93.032328
 31
0.0
  0
LINE
  5
181
100
AcDbEntity
  8
0
  6
CONTINUOUS
 62
    16
100
AcDbLine
 10
-136.425688
 20
-88.645881
 30
0.0
 11
-136.425688
 21
-90.351078
 31
0.0
  0
LINE
  5
182
100
AcDbEntity
  8
0
  6
CONTINUOUS
 62
    16
100
AcDbLine
 10
-138.497563
 20
-88.035453
 30
0.0
 11
-133.622563
 21
-88.035453
 31
0.0
  0
LINE
  5
183
100
AcDbEntity
  8
0
  6
CONTINUOUS
 62
    16
100
AcDbLine
 10
-138.497563
 20
-93.397953
 30
0.0
 11
-134.353813
 21
-93.397953
 31
0.0
  0
LINE
  5
184
100
AcDbEntity
  8
0
  6
CONTINUOUS
 62
    16
100
AcDbLine
 10
-137.644438
 20
-88.82448
 30
0.0
 11
-137.644438
 21
-92.608926
 31
0.0
  0
ARC
  5
185
100
AcDbEntity
  8
0
  6
CONTINUOUS
 62
    16
100
AcDbCircle
 10
-120.734346
 20
-91.199682
 30
0.0
 40
0.121875
100
AcDbArc
 50
-175.009732
 51
-90.0
  0
ARC
  5
186
100
AcDbEntity
  8
0
  6
CONTINUOUS
 62
    16
100
AcDbCircle
 10
-119.21626
 20
-91.199682
 30
0.0
 40
0.121875
100
AcDbArc
 50
-90.0
 51
-4.990268
  0
ARC
  5
187
100
AcDbEntity
  8
0
  6
CONTINUOUS
 62
    16
100
AcDbCircle
 10
-119.975303
 20
-91.133404
 30
0.0
 40
0.883806
100
AcDbArc
 50
-4.990268
 51
-175.009732
  0
ARC
  5
188
100
AcDbEntity
  8
0
  6
CONTINUOUS
 62
    16
100
AcDbCircle
 10
-117.543874
 20
-90.107328
 30
0.0
 40
0.121875
100
AcDbArc
 50
90.0
 51
-105.089337
  0
ARC
  5
189
100
AcDbEntity
  8
0
  6
CONTINUOUS
 62
    16
100
AcDbCircle
 10
-117.829418
 20
-91.166384
 30
0.0
 40
0.975
100
AcDbArc
 50
46.974934
 51
74.910663
  0
ARC
  5
18A
100
AcDbEntity
  8
0
  6
CONTINUOUS
 62
    16
100
AcDbCircle
 10
-117.543874
 20
-93.276078
 30
0.0
 40
0.121875
100
AcDbArc
 50
109.046047
 51
-90.0
  0
LINE
  5
18B
100
AcDbEntity
  8
0
  6
CONTINUOUS
 62
    16
100
AcDbLine
 10
-127.44821
 20
-93.397953
 30
0.0
 11
-125.264019
 21
-93.397953
 31
0.0
  0
LINE
  5
18C
100
AcDbEntity
  8
0
  6
CONTINUOUS
 62
    16
100
AcDbLine
 10
-119.69133
 20
-93.397953
 30
0.0
 11
-119.877803
 21
-93.396213
 31
0.0
  0
ARC
  5
18D
100
AcDbEntity
  8
0
  6
CONTINUOUS
 62
    16
100
AcDbCircle
 10
-118.060349
 20
-91.521078
 30
0.0
 40
0.121875
100
AcDbArc
 50
-90.0
 51
7.150316
  0
ARC
  5
18E
100
AcDbEntity
  8
0
  6
CONTINUOUS
 62
    16
100
AcDbCircle
 10
-120.735607
 20
-91.764828
 30
0.0
 40
0.121875
100
AcDbArc
 50
90.0
 51
-178.145644
  0
ARC
  5
18F
100
AcDbEntity
  8
0
  6
CONTINUOUS
 62
    16
100
AcDbCircle
 10
-119.746733
 20
-88.921855
 30
0.0
 40
3.923362
100
AcDbArc
 50
-89.982844
 51
-65.315854
  0
ARC
  5
190
100
AcDbEntity
  8
0
  6
CONTINUOUS
 62
    16
100
AcDbCircle
 10
-119.745558
 20
-91.732774
 30
0.0
 40
1.112442
100
AcDbArc
 50
-178.145644
 51
-89.554178
  0
ARC
  5
191
100
AcDbEntity
  8
0
  6
CONTINUOUS
 62
    16
100
AcDbCircle
 10
-119.69133
 20
-90.960453
 30
0.0
 40
2.4375
100
AcDbArc
 50
-90.0
 51
-44.850808
  0
ARC
  5
192
100
AcDbEntity
  8
0
  6
CONTINUOUS
 62
    16
100
AcDbCircle
 10
-118.049678
 20
-92.593578
 30
0.0
 40
0.121875
100
AcDbArc
 50
-44.850808
 51
118.737939
  0
LINE
  5
193
100
AcDbEntity
  8
0
  6
CONTINUOUS
 62
    16
100
AcDbLine
 10
-120.734346
 20
-91.321557
 30
0.0
 11
-119.21626
 21
-91.321557
 31
0.0
  0
LINE
  5
194
100
AcDbEntity
  8
0
  6
CONTINUOUS
 62
    16
100
AcDbLine
 10
-120.735607
 20
-91.642953
 30
0.0
 11
-118.060349
 21
-91.642953
 31
0.0
  0
LINE
  5
195
100
AcDbEntity
  8
0
  6
CONTINUOUS
 62
    16
100
AcDbLine
 10
-119.092689
 20
-90.131452
 30
0.0
 11
-119.187183
 21
-90.097674
 31
0.0
  0
LINE
  5
196
100
AcDbEntity
  8
0
  6
CONTINUOUS
 62
    16
100
AcDbLine
 10
-119.187183
 20
-90.097674
 30
0.0
 11
-119.28357
 21
-90.068264
 31
0.0
  0
LINE
  5
197
100
AcDbEntity
  8
0
  6
CONTINUOUS
 62
    16
100
AcDbLine
 10
-119.28357
 20
-90.068264
 30
0.0
 11
-119.381585
 21
-90.043305
 31
0.0
  0
LINE
  5
198
100
AcDbEntity
  8
0
  6
CONTINUOUS
 62
    16
100
AcDbLine
 10
-119.381585
 20
-90.043305
 30
0.0
 11
-119.480961
 21
-90.022863
 31
0.0
  0
LINE
  5
199
100
AcDbEntity
  8
0
  6
CONTINUOUS
 62
    16
100
AcDbLine
 10
-119.480961
 20
-90.022863
 30
0.0
 11
-119.581424
 21
-90.006996
 31
0.0
  0
LINE
  5
19A
100
AcDbEntity
  8
0
  6
CONTINUOUS
 62
    16
100
AcDbLine
 10
-119.581424
 20
-90.006996
 30
0.0
 11
-119.6827
 21
-89.995746
 31
0.0
  0
LINE
  5
19B
100
AcDbEntity
  8
0
  6
CONTINUOUS
 62
    16
100
AcDbLine
 10
-119.6827
 20
-89.995746
 30
0.0
 11
-119.78451
 21
-89.989145
 31
0.0
  0
LINE
  5
19C
100
AcDbEntity
  8
0
  6
CONTINUOUS
 62
    16
100
AcDbLine
 10
-119.78451
 20
-89.989145
 30
0.0
 11
-119.886576
 21
-89.98721
 31
0.0
  0
LINE
  5
19D
100
AcDbEntity
  8
0
  6
CONTINUOUS
 62
    16
100
AcDbLine
 10
-119.886576
 20
-89.98721
 30
0.0
 11
-119.988618
 21
-89.989948
 31
0.0
  0
LINE
  5
19E
100
AcDbEntity
  8
0
  6
CONTINUOUS
 62
    16
100
AcDbLine
 10
-119.988618
 20
-89.989948
 30
0.0
 11
-120.090357
 21
-89.997349
 31
0.0
  0
LINE
  5
19F
100
AcDbEntity
  8
0
  6
CONTINUOUS
 62
    16
100
AcDbLine
 10
-120.090357
 20
-89.997349
 30
0.0
 11
-120.191512
 21
-90.009395
 31
0.0
  0
LINE
  5
1A0
100
AcDbEntity
  8
0
  6
CONTINUOUS
 62
    16
100
AcDbLine
 10
-120.191512
 20
-90.009395
 30
0.0
 11
-120.291808
 21
-90.026052
 31
0.0
  0
LINE
  5
1A1
100
AcDbEntity
  8
0
  6
CONTINUOUS
 62
    16
100
AcDbLine
 10
-120.291808
 20
-90.026052
 30
0.0
 11
-120.390969
 21
-90.047274
 31
0.0
  0
LINE
  5
1A2
100
AcDbEntity
  8
0
  6
CONTINUOUS
 62
    16
100
AcDbLine
 10
-120.390969
 20
-90.047274
 30
0.0
 11
-120.488724
 21
-90.073004
 31
0.0
  0
LINE
  5
1A3
100
AcDbEntity
  8
0
  6
CONTINUOUS
 62
    16
100
AcDbLine
 10
-120.488724
 20
-90.073004
 30
0.0
 11
-120.584804
 21
-90.10317
 31
0.0
  0
LINE
  5
1A4
100
AcDbEntity
  8
0
  6
CONTINUOUS
 62
    16
100
AcDbLine
 10
-120.584804
 20
-90.10317
 30
0.0
 11
-120.678946
 21
-90.137691
 31
0.0
  0
LINE
  5
1A5
100
AcDbEntity
  8
0
  6
CONTINUOUS
 62
    16
100
AcDbLine
 10
-120.662916
 20
-93.251954
 30
0.0
 11
-120.568422
 21
-93.285732
 31
0.0
  0
LINE
  5
1A6
100
AcDbEntity
  8
0
  6
CONTINUOUS
 62
    16
100
AcDbLine
 10
-120.568422
 20
-93.285732
 30
0.0
 11
-120.472035
 21
-93.315142
 31
0.0
  0
LINE
  5
1A7
100
AcDbEntity
  8
0
  6
CONTINUOUS
 62
    16
100
AcDbLine
 10
-120.472035
 20
-93.315142
 30
0.0
 11
-120.37402
 21
-93.340101
 31
0.0
  0
LINE
  5
1A8
100
AcDbEntity
  8
0
  6
CONTINUOUS
 62
    16
100
AcDbLine
 10
-120.37402
 20
-93.340101
 30
0.0
 11
-120.274644
 21
-93.360543
 31
0.0
  0
LINE
  5
1A9
100
AcDbEntity
  8
0
  6
CONTINUOUS
 62
    16
100
AcDbLine
 10
-120.274644
 20
-93.360543
 30
0.0
 11
-120.174181
 21
-93.37641
 31
0.0
  0
LINE
  5
1AA
100
AcDbEntity
  8
0
  6
CONTINUOUS
 62
    16
100
AcDbLine
 10
-120.174181
 20
-93.37641
 30
0.0
 11
-120.072905
 21
-93.38766
 31
0.0
  0
LINE
  5
1AB
100
AcDbEntity
  8
0
  6
CONTINUOUS
 62
    16
100
AcDbLine
 10
-120.072905
 20
-93.38766
 30
0.0
 11
-119.971095
 21
-93.394261
 31
0.0
  0
ARC
  5
1AC
100
AcDbEntity
  8
0
  6
CONTINUOUS
 62
    16
100
AcDbCircle
 10
-123.588885
 20
-90.472345
 30
0.0
 40
2.925
100
AcDbArc
 50
-97.084921
 51
-58.986736
  0
ARC
  5
1AD
100
AcDbEntity
  8
0
  6
CONTINUOUS
 62
    16
100
AcDbCircle
 10
-122.875389
 20
-88.026492
 30
0.0
 40
4.875
100
AcDbArc
 50
-93.656295
 51
-81.212877
  0
ARC
  5
1AE
100
AcDbEntity
  8
0
  6
CONTINUOUS
 62
    16
100
AcDbCircle
 10
-123.16762
 20
-92.599664
 30
0.0
 40
0.2925
100
AcDbArc
 50
-180.0
 51
-93.656295
  0
ARC
  5
1AF
100
AcDbEntity
  8
0
  6
CONTINUOUS
 62
    16
100
AcDbCircle
 10
-123.874495
 20
-92.770289
 30
0.0
 40
0.609375
100
AcDbArc
 50
-180.0
 51
-97.084921
  0
ARC
  5
1B0
100
AcDbEntity
  8
0
  6
CONTINUOUS
 62
    16
100
AcDbCircle
 10
-122.119495
 20
-92.916539
 30
0.0
 40
0.073125
100
AcDbArc
 50
-66.672721
 51
98.787123
  0
LINE
  5
1B1
100
AcDbEntity
  8
0
  6
CONTINUOUS
 62
    16
100
AcDbLine
 10
-122.322234
 20
-89.768392
 30
0.0
 11
-122.500664
 21
-89.985453
 31
0.0
  0
LINE
  5
1B2
100
AcDbEntity
  8
0
  6
CONTINUOUS
 62
    16
100
AcDbLine
 10
-122.460745
 20
-90.472953
 30
0.0
 11
-122.198245
 21
-89.842953
 31
0.0
  0
ARC
  5
1B3
100
AcDbEntity
  8
0
  6
CONTINUOUS
 62
    16
100
AcDbCircle
 10
-122.265745
 20
-89.814828
 30
0.0
 40
0.073125
100
AcDbArc
 50
-22.619865
 51
140.578807
  0
LINE
  5
1B4
100
AcDbEntity
  8
0
  6
CONTINUOUS
 62
    16
100
AcDbLine
 10
-123.46012
 20
-89.985453
 30
0.0
 11
-123.46012
 21
-89.132328
 31
0.0
  0
LINE
  5
1B5
100
AcDbEntity
  8
0
  6
CONTINUOUS
 62
    16
100
AcDbLine
 10
-123.46012
 20
-90.472953
 30
0.0
 11
-122.460745
 21
-90.472953
 31
0.0
  0
ARC
  5
1B6
100
AcDbEntity
  8
0
  6
CONTINUOUS
 62
    16
100
AcDbCircle
 10
-130.919411
 20
-82.528069
 30
0.0
 40
9.75
100
AcDbArc
 50
-52.415461
 51
-41.989736
  0
ARC
  5
1B7
100
AcDbEntity
  8
0
  6
CONTINUOUS
 62
    16
100
AcDbCircle
 10
-123.581995
 20
-89.132328
 30
0.0
 40
0.121875
100
AcDbArc
 50
0.0
 51
138.010264
  0
ARC
  5
1B8
100
AcDbEntity
  8
0
  6
CONTINUOUS
 62
    16
100
AcDbCircle
 10
-124.898245
 20
-90.351078
 30
0.0
 40
0.121875
100
AcDbArc
 50
127.584539
 51
-90.0
  0
LINE
  5
1B9
100
AcDbEntity
  8
0
  6
CONTINUOUS
 62
    16
100
AcDbLine
 10
-124.898245
 20
-90.472953
 30
0.0
 11
-124.48387
 21
-90.472953
 31
0.0
  0
LINE
  5
1BA
100
AcDbEntity
  8
0
  6
CONTINUOUS
 62
    16
100
AcDbLine
 10
-123.46012
 20
-92.599664
 30
0.0
 11
-123.46012
 21
-90.472953
 31
0.0
  0
LINE
  5
1BB
100
AcDbEntity
  8
0
  6
CONTINUOUS
 62
    16
100
AcDbLine
 10
-124.48387
 20
-92.770289
 30
0.0
 11
-124.48387
 21
-90.472953
 31
0.0
  0
LINE
  5
1BC
100
AcDbEntity
  8
0
  6
CONTINUOUS
 62
    16
100
AcDbLine
 10
-123.46012
 20
-89.985453
 30
0.0
 11
-122.500664
 21
-89.985453
 31
0.0
  0
ARC
  5
1BD
100
AcDbEntity
  8
0
  6
CONTINUOUS
 62
    16
100
AcDbCircle
 10
-127.427664
 20
-87.606905
 30
0.0
 40
1.962907
100
AcDbArc
 50
-55.581084
 51
-34.235696
  0
ARC
  5
1BE
100
AcDbEntity
  8
0
  6
CONTINUOUS
 62
    16
100
AcDbCircle
 10
-127.427664
 20
-89.689417
 30
0.0
 40
1.962907
100
AcDbArc
 50
34.235696
 51
55.581084
  0
ARC
  5
1BF
100
AcDbEntity
  8
0
  6
CONTINUOUS
 62
    16
100
AcDbCircle
 10
-125.348743
 20
-89.689417
 30
0.0
 40
1.962907
100
AcDbArc
 50
124.418916
 51
145.764304
  0
ARC
  5
1C0
100
AcDbEntity
  8
0
  6
CONTINUOUS
 62
    16
100
AcDbCircle
 10
-125.348743
 20
-87.606905
 30
0.0
 40
1.962907
100
AcDbArc
 50
-145.764304
 51
-124.418916
  0
ARC
  5
1C1
100
AcDbEntity
  8
0
  6
CONTINUOUS
 62
    16
100
AcDbCircle
 10
-126.388203
 20
-89.141755
 30
0.0
 40
0.109688
100
AcDbArc
 50
-129.690928
 51
-50.309072
  0
ARC
  5
1C2
100
AcDbEntity
  8
0
  6
CONTINUOUS
 62
    16
100
AcDbCircle
 10
-126.881797
 20
-88.648161
 30
0.0
 40
0.109688
100
AcDbArc
 50
144.899116
 51
-144.899116
  0
ARC
  5
1C3
100
AcDbEntity
  8
0
  6
CONTINUOUS
 62
    16
100
AcDbCircle
 10
-126.388203
 20
-88.154567
 30
0.0
 40
0.109688
100
AcDbArc
 50
50.309072
 51
129.690928
  0
ARC
  5
1C4
100
AcDbEntity
  8
0
  6
CONTINUOUS
 62
    16
100
AcDbCircle
 10
-125.89461
 20
-88.648161
 30
0.0
 40
0.109688
100
AcDbArc
 50
-35.100884
 51
35.100884
  0
ARC
  5
1C5
100
AcDbEntity
  8
0
  6
CONTINUOUS
 62
    16
100
AcDbCircle
 10
-125.74196
 20
-92.974404
 30
0.0
 40
0.121875
100
AcDbArc
 50
180.0
 51
-96.711459
  0
LINE
  5
1C6
100
AcDbEntity
  8
0
  6
CONTINUOUS
 62
    16
100
AcDbLine
 10
-125.249776
 20
-93.155038
 30
0.0
 11
-125.756204
 21
-93.095444
 31
0.0
  0
ARC
  5
1C7
100
AcDbEntity
  8
0
  6
CONTINUOUS
 62
    16
100
AcDbCircle
 10
-125.264019
 20
-93.276078
 30
0.0
 40
0.121875
100
AcDbArc
 50
-90.0
 51
83.288541
  0
ARC
  5
1C8
100
AcDbEntity
  8
0
  6
CONTINUOUS
 62
    16
100
AcDbCircle
 10
-127.00946
 20
-92.979016
 30
0.0
 40
0.121875
100
AcDbArc
 50
-83.288541
 51
0.0
  0
LINE
  5
1C9
100
AcDbEntity
  8
0
  6
CONTINUOUS
 62
    16
100
AcDbLine
 10
-127.462454
 20
-93.155038
 30
0.0
 11
-126.995217
 21
-93.100056
 31
0.0
  0
ARC
  5
1CA
100
AcDbEntity
  8
0
  6
CONTINUOUS
 62
    16
100
AcDbCircle
 10
-127.44821
 20
-93.276078
 30
0.0
 40
0.121875
100
AcDbArc
 50
96.711459
 51
-90.0
  0
LINE
  5
1CB
100
AcDbEntity
  8
0
  6
CONTINUOUS
 62
    16
100
AcDbLine
 10
-127.00946
 20
-90.645562
 30
0.0
 11
-127.455459
 21
-90.618987
 31
0.0
  0
ARC
  5
1CC
100
AcDbEntity
  8
0
  6
CONTINUOUS
 62
    16
100
AcDbCircle
 10
-127.00946
 20
-90.767437
 30
0.0
 40
0.121875
100
AcDbArc
 50
0.0
 51
90.0
  0
ARC
  5
1CD
100
AcDbEntity
  8
0
  6
CONTINUOUS
 62
    16
100
AcDbCircle
 10
-129.253088
 20
-80.791848
 30
0.0
 40
9.75
100
AcDbArc
 50
-79.46534
 51
-70.671826
  0
ARC
  5
1CE
100
AcDbEntity
  8
0
  6
CONTINUOUS
 62
    16
100
AcDbCircle
 10
-125.98571
 20
-90.107328
 30
0.0
 40
0.121875
100
AcDbArc
 50
0.0
 51
109.328174
  0
ARC
  5
1CF
100
AcDbEntity
  8
0
  6
CONTINUOUS
 62
    16
100
AcDbCircle
 10
-127.44821
 20
-90.497328
 30
0.0
 40
0.121875
100
AcDbArc
 50
100.53466
 51
-93.409894
  0
LINE
  5
1D0
100
AcDbEntity
  8
0
  6
CONTINUOUS
 62
    16
100
AcDbLine
 10
-125.863835
 20
-92.974404
 30
0.0
 11
-125.863835
 21
-90.107328
 31
0.0
  0
LINE
  5
1D1
100
AcDbEntity
  8
0
  6
CONTINUOUS
 62
    16
100
AcDbLine
 10
-126.887585
 20
-92.979016
 30
0.0
 11
-126.887585
 21
-90.767437
 31
0.0
  0
LINE
  5
1D2
100
AcDbEntity
  8
0
  6
CONTINUOUS
 62
    16
100
AcDbLine
 10
-130.410079
 20
-93.397953
 30
0.0
 11
-128.216329
 21
-93.397953
 31
0.0
  0
LINE
  5
1D3
100
AcDbEntity
  8
0
  6
CONTINUOUS
 62
    16
100
AcDbLine
 10
-129.678829
 20
-89.985453
 30
0.0
 11
-128.216329
 21
-89.985453
 31
0.0
  0
ARC
  5
1D4
100
AcDbEntity
  8
0
  6
CONTINUOUS
 62
    16
100
AcDbCircle
 10
-129.456791
 20
-90.365924
 30
0.0
 40
0.121875
100
AcDbArc
 50
-51.766203
 51
86.30527
  0
LINE
  5
1D5
100
AcDbEntity
  8
0
  6
CONTINUOUS
 62
    16
100
AcDbLine
 10
-129.686683
 20
-90.22895
 30
0.0
 11
-129.448937
 21
-90.244302
 31
0.0
  0
ARC
  5
1D6
100
AcDbEntity
  8
0
  6
CONTINUOUS
 62
    16
100
AcDbCircle
 10
-129.678829
 20
-90.107328
 30
0.0
 40
0.121875
100
AcDbArc
 50
90.0
 51
-93.69473
  0
ARC
  5
1D7
100
AcDbEntity
  8
0
  6
CONTINUOUS
 62
    16
100
AcDbCircle
 10
-130.061634
 20
-92.995634
 30
0.0
 40
0.121875
100
AcDbArc
 50
-84.193047
 51
46.974934
  0
LINE
  5
1D8
100
AcDbEntity
  8
0
  6
CONTINUOUS
 62
    16
100
AcDbLine
 10
-130.42241
 20
-93.154828
 30
0.0
 11
-130.049303
 21
-93.116884
 31
0.0
  0
ARC
  5
1D9
100
AcDbEntity
  8
0
  6
CONTINUOUS
 62
    16
100
AcDbCircle
 10
-130.410079
 20
-93.276078
 30
0.0
 40
0.121875
100
AcDbArc
 50
95.806953
 51
-90.0
  0
LINE
  5
1DA
100
AcDbEntity
  8
0
  6
CONTINUOUS
 62
    16
100
AcDbLine
 10
-130.77916
 20
-90.228461
 30
0.0
 11
-131.151185
 21
-90.269689
 31
0.0
  0
ARC
  5
1DB
100
AcDbEntity
  8
0
  6
CONTINUOUS
 62
    16
100
AcDbCircle
 10
-130.792584
 20
-90.107328
 30
0.0
 40
0.121875
100
AcDbArc
 50
-83.676305
 51
90.0
  0
ARC
  5
1DC
100
AcDbEntity
  8
0
  6
CONTINUOUS
 62
    16
100
AcDbCircle
 10
-127.648481
 20
-92.602914
 30
0.0
 40
2.4375
100
AcDbArc
 50
102.818894
 51
128.233797
  0
ARC
  5
1DD
100
AcDbEntity
  8
0
  6
CONTINUOUS
 62
    16
100
AcDbCircle
 10
-128.216329
 20
-90.107328
 30
0.0
 40
0.121875
100
AcDbArc
 50
-77.181106
 51
90.0
  0
LINE
  5
1DE
100
AcDbEntity
  8
0
  6
CONTINUOUS
 62
    16
100
AcDbLine
 10
-129.156981
 20
-90.688277
 30
0.0
 11
-130.155106
 21
-91.474678
 31
0.0
  0
LINE
  5
1DF
100
AcDbEntity
  8
0
  6
CONTINUOUS
 62
    16
100
AcDbLine
 10
-129.381366
 20
-90.461655
 30
0.0
 11
-130.389481
 21
-91.255928
 31
0.0
  0
ARC
  5
1E0
100
AcDbEntity
  8
0
  6
CONTINUOUS
 62
    16
100
AcDbCircle
 10
-127.930786
 20
-92.217022
 30
0.0
 40
0.975
100
AcDbArc
 50
-133.025066
 51
-105.089337
  0
ARC
  5
1E1
100
AcDbEntity
  8
0
  6
CONTINUOUS
 62
    16
100
AcDbCircle
 10
-128.216329
 20
-93.276078
 30
0.0
 40
0.121875
100
AcDbArc
 50
-90.0
 51
74.910663
  0
LINE
  5
1E2
100
AcDbEntity
  8
0
  6
CONTINUOUS
 62
    16
100
AcDbLine
 10
-128.596046
 20
-92.929801
 30
0.0
 11
-130.155106
 21
-91.474678
 31
0.0
  0
LINE
  5
1E3
100
AcDbEntity
  8
0
  6
CONTINUOUS
 62
    16
100
AcDbLine
 10
-129.978476
 20
-92.906537
 30
0.0
 11
-130.891218
 21
-92.054644
 31
0.0
  0
ARC
  5
1E4
100
AcDbEntity
  8
0
  6
CONTINUOUS
 62
    16
100
AcDbCircle
 10
-112.77387
 20
-90.107328
 30
0.0
 40
0.121875
100
AcDbArc
 50
-77.181106
 51
90.0
  0
LINE
  5
1E5
100
AcDbEntity
  8
0
  6
CONTINUOUS
 62
    16
100
AcDbLine
 10
-114.244223
 20
-90.22895
 30
0.0
 11
-114.006478
 21
-90.244302
 31
0.0
  0
ARC
  5
1E6
100
AcDbEntity
  8
0
  6
CONTINUOUS
 62
    16
100
AcDbCircle
 10
-114.014331
 20
-90.365924
 30
0.0
 40
0.121875
100
AcDbArc
 50
-51.766203
 51
86.30527
  0
LINE
  5
1E7
100
AcDbEntity
  8
0
  6
CONTINUOUS
 62
    16
100
AcDbLine
 10
-114.23637
 20
-89.985453
 30
0.0
 11
-112.77387
 21
-89.985453
 31
0.0
  0
ARC
  5
1E8
100
AcDbEntity
  8
0
  6
CONTINUOUS
 62
    16
100
AcDbCircle
 10
-115.350124
 20
-90.107328
 30
0.0
 40
0.121875
100
AcDbArc
 50
-83.676305
 51
90.0
  0
ARC
  5
1E9
100
AcDbEntity
  8
0
  6
CONTINUOUS
 62
    16
100
AcDbCircle
 10
-115.695301
 20
-90.390822
 30
0.0
 40
0.121875
100
AcDbArc
 50
96.323695
 51
-133.025066
  0
LINE
  5
1EA
100
AcDbEntity
  8
0
  6
CONTINUOUS
 62
    16
100
AcDbLine
 10
-115.3367
 20
-90.228461
 30
0.0
 11
-115.708725
 21
-90.269689
 31
0.0
  0
ARC
  5
1EB
100
AcDbEntity
  8
0
  6
CONTINUOUS
 62
    16
100
AcDbCircle
 10
-114.23637
 20
-90.107328
 30
0.0
 40
0.121875
100
AcDbArc
 50
90.0
 51
-93.69473
  0
LINE
  5
1EC
100
AcDbEntity
  8
0
  6
CONTINUOUS
 62
    16
100
AcDbLine
 10
-113.714521
 20
-90.688277
 30
0.0
 11
-114.712647
 21
-91.474678
 31
0.0
  0
LINE
  5
1ED
100
AcDbEntity
  8
0
  6
CONTINUOUS
 62
    16
100
AcDbLine
 10
-114.947022
 20
-91.255928
 30
0.0
 11
-115.778459
 21
-90.47992
 31
0.0
  0
LINE
  5
1EE
100
AcDbEntity
  8
0
  6
CONTINUOUS
 62
    16
100
AcDbLine
 10
-113.938906
 20
-90.461655
 30
0.0
 11
-114.947022
 21
-91.255928
 31
0.0
  0
ARC
  5
1EF
100
AcDbEntity
  8
0
  6
CONTINUOUS
 62
    16
100
AcDbCircle
 10
-112.206021
 20
-92.602914
 30
0.0
 40
2.4375
100
AcDbArc
 50
102.818894
 51
128.233797
  0
ARC
  5
1F0
100
AcDbEntity
  8
0
  6
CONTINUOUS
 62
    16
100
AcDbCircle
 10
-112.488326
 20
-92.217022
 30
0.0
 40
0.975
100
AcDbArc
 50
-133.025066
 51
-105.089337
  0
ARC
  5
1F1
100
AcDbEntity
  8
0
  6
CONTINUOUS
 62
    16
100
AcDbCircle
 10
-112.77387
 20
-93.276078
 30
0.0
 40
0.121875
100
AcDbArc
 50
-90.0
 51
74.910663
  0
LINE
  5
1F2
100
AcDbEntity
  8
0
  6
CONTINUOUS
 62
    16
100
AcDbLine
 10
-114.979951
 20
-93.154828
 30
0.0
 11
-114.606843
 21
-93.116884
 31
0.0
  0
ARC
  5
1F3
100
AcDbEntity
  8
0
  6
CONTINUOUS
 62
    16
100
AcDbCircle
 10
-114.619174
 20
-92.995634
 30
0.0
 40
0.121875
100
AcDbArc
 50
-84.193047
 51
46.974934
  0
LINE
  5
1F4
100
AcDbEntity
  8
0
  6
CONTINUOUS
 62
    16
100
AcDbLine
 10
-116.06947
 20
-93.154786
 30
0.0
 11
-116.457752
 21
-93.116679
 31
0.0
  0
ARC
  5
1F5
100
AcDbEntity
  8
0
  6
CONTINUOUS
 62
    16
100
AcDbCircle
 10
-116.081374
 20
-93.276078
 30
0.0
 40
0.121875
100
AcDbArc
 50
-90.0
 51
84.394877
  0
ARC
  5
1F6
100
AcDbEntity
  8
0
  6
CONTINUOUS
 62
    16
100
AcDbCircle
 10
-114.96762
 20
-93.276078
 30
0.0
 40
0.121875
100
AcDbArc
 50
95.806953
 51
-90.0
  0
LINE
  5
1F7
100
AcDbEntity
  8
0
  6
CONTINUOUS
 62
    16
100
AcDbLine
 10
-114.96762
 20
-93.397953
 30
0.0
 11
-112.77387
 21
-93.397953
 31
0.0
  0
LINE
  5
1F8
100
AcDbEntity
  8
0
  6
CONTINUOUS
 62
    16
100
AcDbLine
 10
-114.536016
 20
-92.906537
 30
0.0
 11
-115.448758
 21
-92.054644
 31
0.0
  0
LINE
  5
1F9
100
AcDbEntity
  8
0
  6
CONTINUOUS
 62
    16
100
AcDbLine
 10
-115.448758
 20
-92.054644
 30
0.0
 11
-116.521273
 21
-92.899655
 31
0.0
  0
LINE
  5
1FA
100
AcDbEntity
  8
0
  6
CONTINUOUS
 62
    16
100
AcDbLine
 10
-113.153586
 20
-92.929801
 30
0.0
 11
-114.712647
 21
-91.474678
 31
0.0
  0
ARC
  5
1FB
100
AcDbEntity
  8
0
  6
CONTINUOUS
 62
    16
100
AcDbCircle
 10
-116.445848
 20
-92.995387
 30
0.0
 40
0.121875
100
AcDbArc
 50
128.233797
 51
-95.605123
  0
LINE
  5
1FC
100
AcDbEntity
  8
0
  6
CONTINUOUS
 62
    16
100
AcDbLine
 10
-115.683134
 20
-91.835894
 30
0.0
 11
-116.87057
 21
-92.771448
 31
0.0
  0
LINE
  5
1FD
100
AcDbEntity
  8
0
  6
CONTINUOUS
 62
    15
100
AcDbLine
 10
-130.955484
 20
-98.717205
 30
0.0
 11
-130.149966
 21
-98.829666
 31
0.0
  0
LINE
  5
1FE
100
AcDbEntity
  8
0
  6
CONTINUOUS
 62
    15
100
AcDbLine
 10
-130.149966
 20
-98.829666
 30
0.0
 11
-129.333485
 21
-98.922056
 31
0.0
  0
LINE
  5
1FF
100
AcDbEntity
  8
0
  6
CONTINUOUS
 62
    15
100
AcDbLine
 10
-129.333485
 20
-98.922056
 30
0.0
 11
-128.508193
 21
-98.994149
 31
0.0
  0
LINE
  5
200
100
AcDbEntity
  8
0
  6
CONTINUOUS
 62
    15
100
AcDbLine
 10
-128.508193
 20
-98.994149
 30
0.0
 11
-127.67627
 21
-99.045771
 31
0.0
  0
LINE
  5
201
100
AcDbEntity
  8
0
  6
CONTINUOUS
 62
    15
100
AcDbLine
 10
-127.67627
 20
-99.045771
 30
0.0
 11
-126.839915
 21
-99.076795
 31
0.0
  0
LINE
  5
202
100
AcDbEntity
  8
0
  6
CONTINUOUS
 62
    15
100
AcDbLine
 10
-126.839915
 20
-99.076795
 30
0.0
 11
-126.001341
 21
-99.087145
 31
0.0
  0
LINE
  5
203
100
AcDbEntity
  8
0
  6
CONTINUOUS
 62
    15
100
AcDbLine
 10
-126.001341
 20
-99.087145
 30
0.0
 11
-125.162767
 21
-99.076795
 31
0.0
  0
LINE
  5
204
100
AcDbEntity
  8
0
  6
CONTINUOUS
 62
    15
100
AcDbLine
 10
-125.162767
 20
-99.076795
 30
0.0
 11
-124.326412
 21
-99.045771
 31
0.0
  0
LINE
  5
205
100
AcDbEntity
  8
0
  6
CONTINUOUS
 62
    15
100
AcDbLine
 10
-124.326412
 20
-99.045771
 30
0.0
 11
-123.494489
 21
-98.994149
 31
0.0
  0
LINE
  5
206
100
AcDbEntity
  8
0
  6
CONTINUOUS
 62
    15
100
AcDbLine
 10
-123.494489
 20
-98.994149
 30
0.0
 11
-122.669198
 21
-98.922056
 31
0.0
  0
LINE
  5
207
100
AcDbEntity
  8
0
  6
CONTINUOUS
 62
    15
100
AcDbLine
 10
-122.669198
 20
-98.922056
 30
0.0
 11
-121.852716
 21
-98.829666
 31
0.0
  0
LINE
  5
208
100
AcDbEntity
  8
0
  6
CONTINUOUS
 62
    15
100
AcDbLine
 10
-121.852716
 20
-98.829666
 30
0.0
 11
-121.047199
 21
-98.717205
 31
0.0
  0
LINE
  5
209
100
AcDbEntity
  8
0
  6
CONTINUOUS
 62
    15
100
AcDbLine
 10
-121.047199
 20
-98.717205
 30
0.0
 11
-120.254764
 21
-98.584943
 31
0.0
  0
LINE
  5
20A
100
AcDbEntity
  8
0
  6
CONTINUOUS
 62
    15
100
AcDbLine
 10
-120.254764
 20
-98.584943
 30
0.0
 11
-119.477494
 21
-98.433197
 31
0.0
  0
LINE
  5
20B
100
AcDbEntity
  8
0
  6
CONTINUOUS
 62
    15
100
AcDbLine
 10
-119.477494
 20
-98.433197
 30
0.0
 11
-118.717423
 21
-98.262324
 31
0.0
  0
LINE
  5
20C
100
AcDbEntity
  8
0
  6
CONTINUOUS
 62
    15
100
AcDbLine
 10
-118.717423
 20
-98.262324
 30
0.0
 11
-117.976535
 21
-98.072723
 31
0.0
  0
LINE
  5
20D
100
AcDbEntity
  8
0
  6
CONTINUOUS
 62
    15
100
AcDbLine
 10
-117.976535
 20
-98.072723
 30
0.0
 11
-117.256757
 21
-97.86483
 31
0.0
  0
LINE
  5
20E
100
AcDbEntity
  8
0
  6
CONTINUOUS
 62
    15
100
AcDbLine
 10
-117.256757
 20
-97.86483
 30
0.0
 11
-116.559952
 21
-97.639111
 31
0.0
  0
LINE
  5
20F
100
AcDbEntity
  8
0
  6
CONTINUOUS
 62
    15
100
AcDbLine
 10
-116.559952
 20
-97.639111
 30
0.0
 11
-115.887917
 21
-97.396061
 31
0.0
  0
LINE
  5
210
100
AcDbEntity
  8
0
  6
CONTINUOUS
 62
    15
100
AcDbLine
 10
-115.887917
 20
-97.396061
 30
0.0
 11
-115.242378
 21
-97.136199
 31
0.0
  0
LINE
  5
211
100
AcDbEntity
  8
0
  6
CONTINUOUS
 62
    15
100
AcDbLine
 10
-115.242378
 20
-97.136199
 30
0.0
 11
-114.624987
 21
-96.860057
 31
0.0
  0
LINE
  5
212
100
AcDbEntity
  8
0
  6
CONTINUOUS
 62
    15
100
AcDbLine
 10
-114.624987
 20
-96.860057
 30
0.0
 11
-114.037321
 21
-96.568177
 31
0.0
  0
LINE
  5
213
100
AcDbEntity
  8
0
  6
CONTINUOUS
 62
    15
100
AcDbLine
 10
-114.037321
 20
-96.568177
 30
0.0
 11
-113.480881
 21
-96.261104
 31
0.0
  0
LINE
  5
214
100
AcDbEntity
  8
0
  6
CONTINUOUS
 62
    15
100
AcDbLine
 10
-113.480881
 20
-96.261104
 30
0.0
 11
-112.957102
 21
-95.939375
 31
0.0
  0
LINE
  5
215
100
AcDbEntity
  8
0
  6
CONTINUOUS
 62
    15
100
AcDbLine
 10
-112.957102
 20
-95.939375
 30
0.0
 11
-112.467351
 21
-95.603511
 31
0.0
  0
LINE
  5
216
100
AcDbEntity
  8
0
  6
CONTINUOUS
 62
    15
100
AcDbLine
 10
-112.467351
 20
-95.603511
 30
0.0
 11
-112.012953
 21
-95.254017
 31
0.0
  0
LINE
  5
217
100
AcDbEntity
  8
0
  6
CONTINUOUS
 62
    15
100
AcDbLine
 10
-112.012953
 20
-95.254017
 30
0.0
 11
-111.595199
 21
-94.891374
 31
0.0
  0
LINE
  5
218
100
AcDbEntity
  8
0
  6
CONTINUOUS
 62
    15
100
AcDbLine
 10
-111.595199
 20
-94.891374
 30
0.0
 11
-111.215381
 21
-94.516054
 31
0.0
  0
LINE
  5
219
100
AcDbEntity
  8
0
  6
CONTINUOUS
 62
    15
100
AcDbLine
 10
-111.215381
 20
-94.516054
 30
0.0
 11
-110.87482
 21
-94.128535
 31
0.0
  0
LINE
  5
21A
100
AcDbEntity
  8
0
  6
CONTINUOUS
 62
    15
100
AcDbLine
 10
-110.87482
 20
-94.128535
 30
0.0
 11
-110.574902
 21
-93.729348
 31
0.0
  0
LINE
  5
21B
100
AcDbEntity
  8
0
  6
CONTINUOUS
 62
    15
100
AcDbLine
 10
-110.574902
 20
-93.729348
 30
0.0
 11
-110.317103
 21
-93.319145
 31
0.0
  0
LINE
  5
21C
100
AcDbEntity
  8
0
  6
CONTINUOUS
 62
    15
100
AcDbLine
 10
-110.317103
 20
-93.319145
 30
0.0
 11
-110.10299
 21
-92.898794
 31
0.0
  0
LINE
  5
21D
100
AcDbEntity
  8
0
  6
CONTINUOUS
 62
    15
100
AcDbLine
 10
-110.10299
 20
-92.898794
 30
0.0
 11
-109.934175
 21
-92.469489
 31
0.0
  0
LINE
  5
21E
100
AcDbEntity
  8
0
  6
CONTINUOUS
 62
    15
100
AcDbLine
 10
-109.934175
 20
-92.469489
 30
0.0
 11
-109.812212
 21
-92.03285
 31
0.0
  0
LINE
  5
21F
100
AcDbEntity
  8
0
  6
CONTINUOUS
 62
    15
100
AcDbLine
 10
-109.812212
 20
-92.03285
 30
0.0
 11
-109.738426
 21
-91.590965
 31
0.0
  0
LINE
  5
220
100
AcDbEntity
  8
0
  6
CONTINUOUS
 62
    15
100
AcDbLine
 10
-109.738426
 20
-91.590965
 30
0.0
 11
-109.713724
 21
-91.146336
 31
0.0
  0
LINE
  5
221
100
AcDbEntity
  8
0
  6
CONTINUOUS
 62
    15
100
AcDbLine
 10
-109.713724
 20
-91.146336
 30
0.0
 11
-109.738426
 21
-90.701707
 31
0.0
  0
LINE
  5
222
100
AcDbEntity
  8
0
  6
CONTINUOUS
 62
    15
100
AcDbLine
 10
-109.738426
 20
-90.701707
 30
0.0
 11
-109.812212
 21
-90.259822
 31
0.0
  0
LINE
  5
223
100
AcDbEntity
  8
0
  6
CONTINUOUS
 62
    15
100
AcDbLine
 10
-109.812212
 20
-90.259822
 30
0.0
 11
-109.934175
 21
-89.823183
 31
0.0
  0
LINE
  5
224
100
AcDbEntity
  8
0
  6
CONTINUOUS
 62
    15
100
AcDbLine
 10
-109.934175
 20
-89.823183
 30
0.0
 11
-110.10299
 21
-89.393878
 31
0.0
  0
LINE
  5
225
100
AcDbEntity
  8
0
  6
CONTINUOUS
 62
    15
100
AcDbLine
 10
-110.10299
 20
-89.393878
 30
0.0
 11
-110.317103
 21
-88.973527
 31
0.0
  0
LINE
  5
226
100
AcDbEntity
  8
0
  6
CONTINUOUS
 62
    15
100
AcDbLine
 10
-110.317103
 20
-88.973527
 30
0.0
 11
-110.574902
 21
-88.563324
 31
0.0
  0
LINE
  5
227
100
AcDbEntity
  8
0
  6
CONTINUOUS
 62
    15
100
AcDbLine
 10
-110.574902
 20
-88.563324
 30
0.0
 11
-110.87482
 21
-88.164137
 31
0.0
  0
LINE
  5
228
100
AcDbEntity
  8
0
  6
CONTINUOUS
 62
    15
100
AcDbLine
 10
-110.87482
 20
-88.164137
 30
0.0
 11
-111.215381
 21
-87.776618
 31
0.0
  0
LINE
  5
229
100
AcDbEntity
  8
0
  6
CONTINUOUS
 62
    15
100
AcDbLine
 10
-111.215381
 20
-87.776618
 30
0.0
 11
-111.595199
 21
-87.401298
 31
0.0
  0
LINE
  5
22A
100
AcDbEntity
  8
0
  6
CONTINUOUS
 62
    15
100
AcDbLine
 10
-111.595199
 20
-87.401298
 30
0.0
 11
-112.012953
 21
-87.038655
 31
0.0
  0
LINE
  5
22B
100
AcDbEntity
  8
0
  6
CONTINUOUS
 62
    15
100
AcDbLine
 10
-112.012953
 20
-87.038655
 30
0.0
 11
-112.467351
 21
-86.689161
 31
0.0
  0
LINE
  5
22C
100
AcDbEntity
  8
0
  6
CONTINUOUS
 62
    15
100
AcDbLine
 10
-112.467351
 20
-86.689161
 30
0.0
 11
-112.957102
 21
-86.353297
 31
0.0
  0
LINE
  5
22D
100
AcDbEntity
  8
0
  6
CONTINUOUS
 62
    15
100
AcDbLine
 10
-112.957102
 20
-86.353297
 30
0.0
 11
-113.480881
 21
-86.031568
 31
0.0
  0
LINE
  5
22E
100
AcDbEntity
  8
0
  6
CONTINUOUS
 62
    15
100
AcDbLine
 10
-113.480881
 20
-86.031568
 30
0.0
 11
-114.037321
 21
-85.724495
 31
0.0
  0
LINE
  5
22F
100
AcDbEntity
  8
0
  6
CONTINUOUS
 62
    15
100
AcDbLine
 10
-114.037321
 20
-85.724495
 30
0.0
 11
-114.624987
 21
-85.432615
 31
0.0
  0
LINE
  5
230
100
AcDbEntity
  8
0
  6
CONTINUOUS
 62
    15
100
AcDbLine
 10
-114.624987
 20
-85.432615
 30
0.0
 11
-115.242378
 21
-85.156473
 31
0.0
  0
LINE
  5
231
100
AcDbEntity
  8
0
  6
CONTINUOUS
 62
    15
100
AcDbLine
 10
-115.242378
 20
-85.156473
 30
0.0
 11
-115.887917
 21
-84.896611
 31
0.0
  0
LINE
  5
232
100
AcDbEntity
  8
0
  6
CONTINUOUS
 62
    15
100
AcDbLine
 10
-115.887917
 20
-84.896611
 30
0.0
 11
-116.559952
 21
-84.653561
 31
0.0
  0
LINE
  5
233
100
AcDbEntity
  8
0
  6
CONTINUOUS
 62
    15
100
AcDbLine
 10
-116.559952
 20
-84.653561
 30
0.0
 11
-117.256757
 21
-84.427842
 31
0.0
  0
LINE
  5
234
100
AcDbEntity
  8
0
  6
CONTINUOUS
 62
    15
100
AcDbLine
 10
-117.256757
 20
-84.427842
 30
0.0
 11
-117.976535
 21
-84.219949
 31
0.0
  0
LINE
  5
235
100
AcDbEntity
  8
0
  6
CONTINUOUS
 62
    15
100
AcDbLine
 10
-117.976535
 20
-84.219949
 30
0.0
 11
-118.717423
 21
-84.030348
 31
0.0
  0
LINE
  5
236
100
AcDbEntity
  8
0
  6
CONTINUOUS
 62
    15
100
AcDbLine
 10
-118.717423
 20
-84.030348
 30
0.0
 11
-119.477494
 21
-83.859475
 31
0.0
  0
LINE
  5
237
100
AcDbEntity
  8
0
  6
CONTINUOUS
 62
    15
100
AcDbLine
 10
-119.477494
 20
-83.859475
 30
0.0
 11
-120.254764
 21
-83.707729
 31
0.0
  0
LINE
  5
238
100
AcDbEntity
  8
0
  6
CONTINUOUS
 62
    15
100
AcDbLine
 10
-120.254764
 20
-83.707729
 30
0.0
 11
-121.047199
 21
-83.575467
 31
0.0
  0
LINE
  5
239
100
AcDbEntity
  8
0
  6
CONTINUOUS
 62
    15
100
AcDbLine
 10
-121.047199
 20
-83.575467
 30
0.0
 11
-121.852716
 21
-83.463006
 31
0.0
  0
LINE
  5
23A
100
AcDbEntity
  8
0
  6
CONTINUOUS
 62
    15
100
AcDbLine
 10
-121.852716
 20
-83.463006
 30
0.0
 11
-122.669198
 21
-83.370616
 31
0.0
  0
LINE
  5
23B
100
AcDbEntity
  8
0
  6
CONTINUOUS
 62
    15
100
AcDbLine
 10
-122.669198
 20
-83.370616
 30
0.0
 11
-123.494489
 21
-83.298523
 31
0.0
  0
LINE
  5
23C
100
AcDbEntity
  8
0
  6
CONTINUOUS
 62
    15
100
AcDbLine
 10
-123.494489
 20
-83.298523
 30
0.0
 11
-124.326412
 21
-83.246901
 31
0.0
  0
LINE
  5
23D
100
AcDbEntity
  8
0
  6
CONTINUOUS
 62
    15
100
AcDbLine
 10
-124.326412
 20
-83.246901
 30
0.0
 11
-125.162767
 21
-83.215877
 31
0.0
  0
LINE
  5
23E
100
AcDbEntity
  8
0
  6
CONTINUOUS
 62
    15
100
AcDbLine
 10
-125.162767
 20
-83.215877
 30
0.0
 11
-126.001341
 21
-83.205527
 31
0.0
  0
LINE
  5
23F
100
AcDbEntity
  8
0
  6
CONTINUOUS
 62
    15
100
AcDbLine
 10
-126.001341
 20
-83.205527
 30
0.0
 11
-126.839915
 21
-83.215877
 31
0.0
  0
LINE
  5
240
100
AcDbEntity
  8
0
  6
CONTINUOUS
 62
    15
100
AcDbLine
 10
-126.839915
 20
-83.215877
 30
0.0
 11
-127.67627
 21
-83.246901
 31
0.0
  0
LINE
  5
241
100
AcDbEntity
  8
0
  6
CONTINUOUS
 62
    15
100
AcDbLine
 10
-127.67627
 20
-83.246901
 30
0.0
 11
-128.508193
 21
-83.298523
 31
0.0
  0
LINE
  5
242
100
AcDbEntity
  8
0
  6
CONTINUOUS
 62
    15
100
AcDbLine
 10
-128.508193
 20
-83.298523
 30
0.0
 11
-129.333485
 21
-83.370616
 31
0.0
  0
LINE
  5
243
100
AcDbEntity
  8
0
  6
CONTINUOUS
 62
    15
100
AcDbLine
 10
-129.333485
 20
-83.370616
 30
0.0
 11
-130.149966
 21
-83.463006
 31
0.0
  0
LINE
  5
244
100
AcDbEntity
  8
0
  6
CONTINUOUS
 62
    15
100
AcDbLine
 10
-130.149966
 20
-83.463006
 30
0.0
 11
-130.955484
 21
-83.575467
 31
0.0
  0
LINE
  5
245
100
AcDbEntity
  8
0
  6
CONTINUOUS
 62
    15
100
AcDbLine
 10
-130.955484
 20
-83.575467
 30
0.0
 11
-131.747918
 21
-83.707729
 31
0.0
  0
LINE
  5
246
100
AcDbEntity
  8
0
  6
CONTINUOUS
 62
    15
100
AcDbLine
 10
-131.747918
 20
-83.707729
 30
0.0
 11
-132.525188
 21
-83.859475
 31
0.0
  0
LINE
  5
247
100
AcDbEntity
  8
0
  6
CONTINUOUS
 62
    15
100
AcDbLine
 10
-132.525188
 20
-83.859475
 30
0.0
 11
-133.285259
 21
-84.030348
 31
0.0
  0
LINE
  5
248
100
AcDbEntity
  8
0
  6
CONTINUOUS
 62
    15
100
AcDbLine
 10
-133.285259
 20
-84.030348
 30
0.0
 11
-134.026147
 21
-84.219949
 31
0.0
  0
LINE
  5
249
100
AcDbEntity
  8
0
  6
CONTINUOUS
 62
    15
100
AcDbLine
 10
-134.026147
 20
-84.219949
 30
0.0
 11
-134.745926
 21
-84.427842
 31
0.0
  0
LINE
  5
24A
100
AcDbEntity
  8
0
  6
CONTINUOUS
 62
    15
100
AcDbLine
 10
-134.745926
 20
-84.427842
 30
0.0
 11
-135.442731
 21
-84.653561
 31
0.0
  0
LINE
  5
24B
100
AcDbEntity
  8
0
  6
CONTINUOUS
 62
    15
100
AcDbLine
 10
-135.442731
 20
-84.653561
 30
0.0
 11
-136.114766
 21
-84.896611
 31
0.0
  0
LINE
  5
24C
100
AcDbEntity
  8
0
  6
CONTINUOUS
 62
    15
100
AcDbLine
 10
-136.114766
 20
-84.896611
 30
0.0
 11
-136.760304
 21
-85.156473
 31
0.0
  0
LINE
  5
24D
100
AcDbEntity
  8
0
  6
CONTINUOUS
 62
    15
100
AcDbLine
 10
-136.760304
 20
-85.156473
 30
0.0
 11
-137.377695
 21
-85.432615
 31
0.0
  0
LINE
  5
24E
100
AcDbEntity
  8
0
  6
CONTINUOUS
 62
    15
100
AcDbLine
 10
-137.377695
 20
-85.432615
 30
0.0
 11
-137.965362
 21
-85.724495
 31
0.0
  0
LINE
  5
24F
100
AcDbEntity
  8
0
  6
CONTINUOUS
 62
    15
100
AcDbLine
 10
-137.965362
 20
-85.724495
 30
0.0
 11
-138.521801
 21
-86.031568
 31
0.0
  0
LINE
  5
250
100
AcDbEntity
  8
0
  6
CONTINUOUS
 62
    15
100
AcDbLine
 10
-138.521801
 20
-86.031568
 30
0.0
 11
-139.045581
 21
-86.353297
 31
0.0
  0
LINE
  5
251
100
AcDbEntity
  8
0
  6
CONTINUOUS
 62
    15
100
AcDbLine
 10
-139.045581
 20
-86.353297
 30
0.0
 11
-139.535331
 21
-86.689161
 31
0.0
  0
LINE
  5
252
100
AcDbEntity
  8
0
  6
CONTINUOUS
 62
    15
100
AcDbLine
 10
-139.535331
 20
-86.689161
 30
0.0
 11
-139.98973
 21
-87.038655
 31
0.0
  0
LINE
  5
253
100
AcDbEntity
  8
0
  6
CONTINUOUS
 62
    15
100
AcDbLine
 10
-139.98973
 20
-87.038655
 30
0.0
 11
-140.407484
 21
-87.401298
 31
0.0
  0
LINE
  5
254
100
AcDbEntity
  8
0
  6
CONTINUOUS
 62
    15
100
AcDbLine
 10
-140.407484
 20
-87.401298
 30
0.0
 11
-140.787302
 21
-87.776618
 31
0.0
  0
LINE
  5
255
100
AcDbEntity
  8
0
  6
CONTINUOUS
 62
    15
100
AcDbLine
 10
-140.787302
 20
-87.776618
 30
0.0
 11
-141.127863
 21
-88.164137
 31
0.0
  0
LINE
  5
256
100
AcDbEntity
  8
0
  6
CONTINUOUS
 62
    15
100
AcDbLine
 10
-141.127863
 20
-88.164137
 30
0.0
 11
-141.427781
 21
-88.563324
 31
0.0
  0
LINE
  5
257
100
AcDbEntity
  8
0
  6
CONTINUOUS
 62
    15
100
AcDbLine
 10
-141.427781
 20
-88.563324
 30
0.0
 11
-141.685579
 21
-88.973527
 31
0.0
  0
LINE
  5
258
100
AcDbEntity
  8
0
  6
CONTINUOUS
 62
    15
100
AcDbLine
 10
-141.685579
 20
-88.973527
 30
0.0
 11
-141.899692
 21
-89.393878
 31
0.0
  0
LINE
  5
259
100
AcDbEntity
  8
0
  6
CONTINUOUS
 62
    15
100
AcDbLine
 10
-141.899692
 20
-89.393878
 30
0.0
 11
-142.068507
 21
-89.823183
 31
0.0
  0
LINE
  5
25A
100
AcDbEntity
  8
0
  6
CONTINUOUS
 62
    15
100
AcDbLine
 10
-142.068507
 20
-89.823183
 30
0.0
 11
-142.190471
 21
-90.259822
 31
0.0
  0
LINE
  5
25B
100
AcDbEntity
  8
0
  6
CONTINUOUS
 62
    15
100
AcDbLine
 10
-142.190471
 20
-90.259822
 30
0.0
 11
-142.264256
 21
-90.701707
 31
0.0
  0
LINE
  5
25C
100
AcDbEntity
  8
0
  6
CONTINUOUS
 62
    15
100
AcDbLine
 10
-142.264256
 20
-90.701707
 30
0.0
 11
-142.288959
 21
-91.146336
 31
0.0
  0
LINE
  5
25D
100
AcDbEntity
  8
0
  6
CONTINUOUS
 62
    15
100
AcDbLine
 10
-142.288959
 20
-91.146336
 30
0.0
 11
-142.264256
 21
-91.590965
 31
0.0
  0
LINE
  5
25E
100
AcDbEntity
  8
0
  6
CONTINUOUS
 62
    15
100
AcDbLine
 10
-142.264256
 20
-91.590965
 30
0.0
 11
-142.190471
 21
-92.03285
 31
0.0
  0
LINE
  5
25F
100
AcDbEntity
  8
0
  6
CONTINUOUS
 62
    15
100
AcDbLine
 10
-142.190471
 20
-92.03285
 30
0.0
 11
-142.068507
 21
-92.469489
 31
0.0
  0
LINE
  5
260
100
AcDbEntity
  8
0
  6
CONTINUOUS
 62
    15
100
AcDbLine
 10
-142.068507
 20
-92.469489
 30
0.0
 11
-141.899692
 21
-92.898794
 31
0.0
  0
LINE
  5
261
100
AcDbEntity
  8
0
  6
CONTINUOUS
 62
    15
100
AcDbLine
 10
-141.899692
 20
-92.898794
 30
0.0
 11
-141.685579
 21
-93.319145
 31
0.0
  0
LINE
  5
262
100
AcDbEntity
  8
0
  6
CONTINUOUS
 62
    15
100
AcDbLine
 10
-141.685579
 20
-93.319145
 30
0.0
 11
-141.427781
 21
-93.729348
 31
0.0
  0
LINE
  5
263
100
AcDbEntity
  8
0
  6
CONTINUOUS
 62
    15
100
AcDbLine
 10
-141.427781
 20
-93.729348
 30
0.0
 11
-141.127863
 21
-94.128535
 31
0.0
  0
LINE
  5
264
100
AcDbEntity
  8
0
  6
CONTINUOUS
 62
    15
100
AcDbLine
 10
-141.127863
 20
-94.128535
 30
0.0
 11
-140.787302
 21
-94.516054
 31
0.0
  0
LINE
  5
265
100
AcDbEntity
  8
0
  6
CONTINUOUS
 62
    15
100
AcDbLine
 10
-140.787302
 20
-94.516054
 30
0.0
 11
-140.407484
 21
-94.891374
 31
0.0
  0
LINE
  5
266
100
AcDbEntity
  8
0
  6
CONTINUOUS
 62
    15
100
AcDbLine
 10
-140.407484
 20
-94.891374
 30
0.0
 11
-139.98973
 21
-95.254017
 31
0.0
  0
LINE
  5
267
100
AcDbEntity
  8
0
  6
CONTINUOUS
 62
    15
100
AcDbLine
 10
-139.98973
 20
-95.254017
 30
0.0
 11
-139.535331
 21
-95.603511
 31
0.0
  0
LINE
  5
268
100
AcDbEntity
  8
0
  6
CONTINUOUS
 62
    15
100
AcDbLine
 10
-139.535331
 20
-95.603511
 30
0.0
 11
-139.045581
 21
-95.939375
 31
0.0
  0
LINE
  5
269
100
AcDbEntity
  8
0
  6
CONTINUOUS
 62
    15
100
AcDbLine
 10
-139.045581
 20
-95.939375
 30
0.0
 11
-138.521801
 21
-96.261104
 31
0.0
  0
LINE
  5
26A
100
AcDbEntity
  8
0
  6
CONTINUOUS
 62
    15
100
AcDbLine
 10
-138.521801
 20
-96.261104
 30
0.0
 11
-137.965362
 21
-96.568177
 31
0.0
  0
LINE
  5
26B
100
AcDbEntity
  8
0
  6
CONTINUOUS
 62
    15
100
AcDbLine
 10
-137.965362
 20
-96.568177
 30
0.0
 11
-137.377695
 21
-96.860057
 31
0.0
  0
LINE
  5
26C
100
AcDbEntity
  8
0
  6
CONTINUOUS
 62
    15
100
AcDbLine
 10
-137.377695
 20
-96.860057
 30
0.0
 11
-136.760304
 21
-97.136199
 31
0.0
  0
LINE
  5
26D
100
AcDbEntity
  8
0
  6
CONTINUOUS
 62
    15
100
AcDbLine
 10
-136.760304
 20
-97.136199
 30
0.0
 11
-136.114766
 21
-97.396061
 31
0.0
  0
LINE
  5
26E
100
AcDbEntity
  8
0
  6
CONTINUOUS
 62
    15
100
AcDbLine
 10
-136.114766
 20
-97.396061
 30
0.0
 11
-135.442731
 21
-97.639111
 31
0.0
  0
LINE
  5
26F
100
AcDbEntity
  8
0
  6
CONTINUOUS
 62
    15
100
AcDbLine
 10
-135.442731
 20
-97.639111
 30
0.0
 11
-134.745926
 21
-97.86483
 31
0.0
  0
LINE
  5
270
100
AcDbEntity
  8
0
  6
CONTINUOUS
 62
    15
100
AcDbLine
 10
-134.745926
 20
-97.86483
 30
0.0
 11
-134.026147
 21
-98.072723
 31
0.0
  0
LINE
  5
271
100
AcDbEntity
  8
0
  6
CONTINUOUS
 62
    15
100
AcDbLine
 10
-134.026147
 20
-98.072723
 30
0.0
 11
-133.285259
 21
-98.262324
 31
0.0
  0
LINE
  5
272
100
AcDbEntity
  8
0
  6
CONTINUOUS
 62
    15
100
AcDbLine
 10
-133.285259
 20
-98.262324
 30
0.0
 11
-132.525188
 21
-98.433197
 31
0.0
  0
LINE
  5
273
100
AcDbEntity
  8
0
  6
CONTINUOUS
 62
    15
100
AcDbLine
 10
-132.525188
 20
-98.433197
 30
0.0
 11
-131.747918
 21
-98.584943
 31
0.0
  0
LINE
  5
274
100
AcDbEntity
  8
0
  6
CONTINUOUS
 62
    15
100
AcDbLine
 10
-131.747918
 20
-98.584943
 30
0.0
 11
-130.955484
 21
-98.717205
 31
0.0
  0
LINE
  5
275
100
AcDbEntity
  8
0
  6
CONTINUOUS
 62
    16
100
AcDbLine
 10
134.637476
 20
-101.868643
 30
0.0
 11
134.637476
 21
-81.868643
 31
0.0
  0
ENDBLK
  5
276
100
AcDbEntity
  8
0
100
AcDbBlockEnd
  0
BLOCK
  5
278
100
AcDbEntity
  8
0
100
AcDbBlockBegin
  2
GEN_BLOCK00005
 70
     0
 10
0.0
 20
0.0
 30
0.0
  3
GEN_BLOCK00005
  1

  0
LINE
  5
27A
100
AcDbEntity
  8
0
  6
CONTINUOUS
 62
    16
100
AcDbLine
 10
-144.637476
 20
-101.868643
 30
0.0
 11
-144.637476
 21
101.868643
 31
0.0
  0
LINE
  5
27B
100
AcDbEntity
  8
0
  6
CONTINUOUS
 62
    16
100
AcDbLine
 10
-144.637476
 20
-101.868643
 30
0.0
 11
134.637475
 21
-101.868643
 31
0.0
  0
LINE
  5
27C
100
AcDbEntity
  8
0
  6
CONTINUOUS
 62
    16
100
AcDbLine
 10
-144.637476
 20
101.868643
 30
0.0
 11
134.637475
 21
101.868643
 31
0.0
  0
LINE
  5
27D
100
AcDbEntity
  8
0
  6
CONTINUOUS
 62
    16
100
AcDbLine
 10
134.637475
 20
-101.868643
 30
0.0
 11
134.637475
 21
101.868643
 31
0.0
  0
LINE
  5
27E
100
AcDbEntity
  8
0
  6
CONTINUOUS
 62
    16
100
AcDbLine
 10
-144.637476
 20
-81.868643
 30
0.0
 11
134.637476
 21
-81.868643
 31
0.0
  0
LINE
  5
27F
100
AcDbEntity
  8
0
  6
CONTINUOUS
 62
    16
100
AcDbLine
 10
-24.637476
 20
-81.868643
 30
0.0
 11
-24.637476
 21
-101.868643
 31
0.0
  0
LINE
  5
280
100
AcDbEntity
  8
0
  6
CONTINUOUS
 62
    16
100
AcDbLine
 10
40.362524
 20
-81.868643
 30
0.0
 11
40.362524
 21
-101.868643
 31
0.0
  0
LINE
  5
281
100
AcDbEntity
  8
0
  6
CONTINUOUS
 62
    16
100
AcDbLine
 10
71.787508
 20
-101.868643
 30
0.0
 11
71.787508
 21
-81.868643
 31
0.0
  0
LINE
  5
282
100
AcDbEntity
  8
0
  6
CONTINUOUS
 62
    16
100
AcDbLine
 10
103.212492
 20
-101.868643
 30
0.0
 11
103.212492
 21
-81.868643
 31
0.0
  0
LINE
  5
283
100
AcDbEntity
  8
0
  6
CONTINUOUS
 62
    16
100
AcDbLine
 10
-24.637476
 20
-91.868643
 30
0.0
 11
134.637476
 21
-91.868643
 31
0.0
  0
ENDBLK
  5
284
100
AcDbEntity
  8
0
100
AcDbBlockEnd
  0
BLOCK
  5
286
100
AcDbEntity
  8
0
100
AcDbBlockBegin
  2
PROTO
 70
     0
 10
0.0
 20
0.0
 30
0.0
  3
PROTO
  1

  0
TEXT
  5
288
100
AcDbEntity
  8
0
  6
CONTINUOUS
 62
    15
100
AcDbText
 10
-102.523872
 20
-93.247322
 30
0.0
 40
1.76
  1
Mountplesent, Dundalk, Ireland
  7
ARIAL
 11
-102.523872
 21
-93.247322
 31
0.0
100
AcDbText
 73
     1
  0
TEXT
  5
289
100
AcDbEntity
  8
0
  6
CONTINUOUS
 62
    15
100
AcDbText
 10
-100.665684
 20
-96.239322
 30
0.0
 40
1.76
  1
Telephone (353/42) 9371244
  7
ARIAL
 11
-100.665684
 21
-96.239322
 31
0.0
100
AcDbText
 73
     1
  0
TEXT
  5
28A
100
AcDbEntity
  8
0
  6
CONTINUOUS
 62
    15
100
AcDbText
 10
-96.484761
 20
-99.231323
 30
0.0
 40
1.76
  1
Fax (353/42) 9371221
  7
ARIAL
 11
-96.484761
 21
-99.231323
 31
0.0
100
AcDbText
 73
     1
  0
TEXT
  5
28B
100
AcDbEntity
  8
0
  6
CONTINUOUS
 62
    16
100
AcDbText
 10
-102.678721
 20
-88.294014
 30
0.0
 40
3.53
  1
EXITEX LTD
 11
-102.678721
 21
-88.294014
 31
0.0
100
AcDbText
 73
     1
  0
TEXT
  5
28C
100
AcDbEntity
  8
0
  6
CONTINUOUS
 62
    15
100
AcDbText
 10
-24.63748
 20
-94.847059
 30
0.0
 40
1.76
  1
DESCRIPTION
  7
ARIAL
 11
-24.63748
 21
-94.847059
 31
0.0
100
AcDbText
 73
     1
  0
TEXT
  5
28D
100
AcDbEntity
  8
0
  6
CONTINUOUS
 62
    15
100
AcDbText
 10
-24.63748
 20
-84.692793
 30
0.0
 40
1.76
  1
CODE
  7
ARIAL
 11
-24.63748
 21
-84.692793
 31
0.0
100
AcDbText
 73
     1
  0
TEXT
  5
28E
100
AcDbEntity
  8
0
  6
CONTINUOUS
 62
    15
100
AcDbText
 10
42.425274
 20
-84.692793
 30
0.0
 40
1.76
  1
TOLERANCE
  7
ARIAL
 11
42.425274
 21
-84.692793
 31
0.0
100
AcDbText
 73
     1
  0
TEXT
  5
28F
100
AcDbEntity
  8
0
  6
CONTINUOUS
 62
    15
100
AcDbText
 10
42.425274
 20
-94.847059
 30
0.0
 40
1.76
  1
DRAWN
  7
ARIAL
 11
42.425274
 21
-94.847059
 31
0.0
100
AcDbText
 73
     1
  0
TEXT
  5
290
100
AcDbEntity
  8
0
  6
CONTINUOUS
 62
    15
100
AcDbText
 10
74.127899
 20
-94.847059
 30
0.0
 40
1.76
  1
DRAWING No
  7
ARIAL
 11
74.127899
 21
-94.847059
 31
0.0
100
AcDbText
 73
     1
  0
TEXT
  5
291
100
AcDbEntity
  8
0
  6
CONTINUOUS
 62
    15
100
AcDbText
 10
74.127899
 20
-84.692793
 30
0.0
 40
1.76
  1
SCALE
  7
ARIAL
 11
74.127899
 21
-84.692793
 31
0.0
100
AcDbText
 73
     1
  0
TEXT
  5
292
100
AcDbEntity
  8
0
  6
CONTINUOUS
 62
    15
100
AcDbText
 10
105.1791
 20
-84.692793
 30
0.0
 40
1.76
  1
APPROVED
  7
ARIAL
 11
105.1791
 21
-84.692793
 31
0.0
100
AcDbText
 73
     1
  0
TEXT
  5
293
100
AcDbEntity
  8
0
  6
CONTINUOUS
 62
    15
100
AcDbText
 10
105.1791
 20
-94.847059
 30
0.0
 40
1.76
  1
DATE
  7
ARIAL
 11
105.1791
 21
-94.847059
 31
0.0
100
AcDbText
 73
     1
  0
TEXT
  5
294
100
AcDbEntity
  8
0
  6
CONTINUOUS
 62
    15
100
AcDbText
 10
58.63747
 20
98.838645
 30
0.0
 40
1.06
  1
DATE
  7
ARIAL
 11
58.63747
 21
98.838645
 31
0.0
100
AcDbText
 73
     1
  0
TEXT
  5
295
100
AcDbEntity
  8
0
  6
CONTINUOUS
 62
    15
100
AcDbText
 10
66.637474
 20
98.838645
 30
0.0
 40
1.06
  1
ISSUE
  7
ARIAL
 11
66.637474
 21
98.838645
 31
0.0
100
AcDbText
 73
     1
  0
TEXT
  5
296
100
AcDbEntity
  8
0
  6
CONTINUOUS
 62
    15
100
AcDbText
 10
89.956551
 20
98.838645
 30
0.0
 40
1.06
  1
CHANGE
  7
ARIAL
 11
89.956551
 21
98.838645
 31
0.0
100
AcDbText
 73
     1
  0
TEXT
  5
297
100
AcDbEntity
  8
0
  6
CONTINUOUS
 62
    15
100
AcDbText
 10
122.637466
 20
98.838645
 30
0.0
 40
1.06
  1
SIGNED
  7
ARIAL
 11
122.637466
 21
98.838645
 31
0.0
100
AcDbText
 73
     1
  0
TEXT
  5
298
100
AcDbEntity
  8
0
  6
CONTINUOUS
 62
    15
100
AcDbText
 10
-142.822266
 20
99.266303
 30
0.0
 40
1.06
  1
THIS DRAWING  IS  THE PROPERTY OF  EXITEX  LTD  AND  MUST
  7
ARIAL
 11
-142.822266
 21
99.266303
 31
0.0
100
AcDbText
 73
     1
  0
TEXT
  5
299
100
AcDbEntity
  8
0
  6
CONTINUOUS
 62
    15
100
AcDbText
 10
-142.822266
 20
97.464303
 30
0.0
 40
1.06
  1
NOT BE REPRODUCED IN WHOLE OR IN PART WITHOUT CONSENT
  7
ARIAL
 11
-142.822266
 21
97.464303
 31
0.0
100
AcDbText
 73
     1
  0
TEXT
  5
29A
100
AcDbEntity
  8
0
  6
CONTINUOUS
 62
    15
100
AcDbText
 10
-142.822266
 20
95.662302
 30
0.0
 40
1.06
  1
C  COPYRIGHT EXITEX.
  7
ARIAL
 11
-142.822266
 21
95.662302
 31
0.0
100
AcDbText
 73
     1
  0
LINE
  5
29B
100
AcDbEntity
  8
0
  6
CONTINUOUS
 62
     9
100
AcDbLine
 10
66.637475
 20
101.868643
 30
0.0
 11
66.637475
 21
87.787664
 31
0.0
  0
LINE
  5
29C
100
AcDbEntity
  8
0
  6
CONTINUOUS
 62
     9
100
AcDbLine
 10
74.637475
 20
101.868643
 30
0.0
 11
74.637475
 21
87.787664
 31
0.0
  0
LINE
  5
29D
100
AcDbEntity
  8
0
  6
CONTINUOUS
 62
     9
100
AcDbLine
 10
122.637475
 20
101.868643
 30
0.0
 11
122.637475
 21
87.787664
 31
0.0
  0
LINE
  5
29E
100
AcDbEntity
  8
0
  6
CONTINUOUS
 62
     9
100
AcDbLine
 10
134.637475
 20
96.868643
 30
0.0
 11
58.637475
 21
96.868643
 31
0.0
  0
LINE
  5
29F
100
AcDbEntity
  8
0
  6
CONTINUOUS
 62
     9
100
AcDbLine
 10
58.637475
 20
101.868643
 30
0.0
 11
58.637475
 21
87.787664
 31
0.0
  0
CIRCLE
  5
2A0
100
AcDbEntity
  8
0
  6
CONTINUOUS
 62
    15
100
AcDbCircle
 10
-142.051548
 20
96.16363
 30
0.0
 40
0.785832
  0
ENDBLK
  5
2A1
100
AcDbEntity
  8
0
100
AcDbBlockEnd
  0
BLOCK
  5
2A4
100
AcDbEntity
  8
GEN_LAYER
100
AcDbBlockBegin
  2
GEN_BLOCK00007
 70
     0
 10
0.0
 20
0.0
 30
0.0
  3
GEN_BLOCK00007
  1

  0
LINE
  5
2A6
100
AcDbEntity
  8
GEN_LAYER
  6
CONTINUOUS
 62
    15
100
AcDbLine
 10
-36.290497
 20
81.05914
 30
0.0
 11
-35.290497
 21
80.05914
 31
0.0
  0
LINE
  5
2A7
100
AcDbEntity
  8
GEN_LAYER
  6
CONTINUOUS
 62
    15
100
AcDbLine
 10
-35.290497
 20
80.05914
 30
0.0
 11
-36.290497
 21
79.05914
 31
0.0
  0
LINE
  5
2A8
100
AcDbEntity
  8
GEN_LAYER
  6
CONTINUOUS
 62
    15
100
AcDbLine
 10
-36.290497
 20
79.05914
 30
0.0
 11
-35.290497
 21
78.05914
 31
0.0
  0
LINE
  5
2A9
100
AcDbEntity
  8
GEN_LAYER
  6
CONTINUOUS
 62
    15
100
AcDbLine
 10
-35.290497
 20
78.05914
 30
0.0
 11
-36.290497
 21
77.05914
 31
0.0
  0
LINE
  5
2AA
100
AcDbEntity
  8
GEN_LAYER
  6
CONTINUOUS
 62
    15
100
AcDbLine
 10
-36.290497
 20
77.05914
 30
0.0
 11
-35.290497
 21
76.05914
 31
0.0
  0
LINE
  5
2AB
100
AcDbEntity
  8
GEN_LAYER
  6
CONTINUOUS
 62
    15
100
AcDbLine
 10
-35.290497
 20
76.05914
 30
0.0
 11
-36.290497
 21
75.05914
 31
0.0
  0
LINE
  5
2AC
100
AcDbEntity
  8
GEN_LAYER
  6
CONTINUOUS
 62
    15
100
AcDbLine
 10
-36.290497
 20
75.05914
 30
0.0
 11
-35.290497
 21
74.05914
 31
0.0
  0
LINE
  5
2AD
100
AcDbEntity
  8
GEN_LAYER
  6
CONTINUOUS
 62
    15
100
AcDbLine
 10
-35.290497
 20
74.05914
 30
0.0
 11
-36.290497
 21
73.05914
 31
0.0
  0
LINE
  5
2AE
100
AcDbEntity
  8
GEN_LAYER
  6
CONTINUOUS
 62
    15
100
AcDbLine
 10
-36.290497
 20
73.05914
 30
0.0
 11
-35.290497
 21
72.05914
 31
0.0
  0
LINE
  5
2AF
100
AcDbEntity
  8
GEN_LAYER
  6
CONTINUOUS
 62
    15
100
AcDbLine
 10
-35.290497
 20
72.05914
 30
0.0
 11
-36.290497
 21
71.05914
 31
0.0
  0
LINE
  5
2B0
100
AcDbEntity
  8
GEN_LAYER
  6
CONTINUOUS
 62
    15
100
AcDbLine
 10
-36.290497
 20
71.05914
 30
0.0
 11
-35.290497
 21
70.05914
 31
0.0
  0
LINE
  5
2B1
100
AcDbEntity
  8
GEN_LAYER
  6
CONTINUOUS
 62
    15
100
AcDbLine
 10
-35.290497
 20
70.05914
 30
0.0
 11
-36.290497
 21
69.05914
 31
0.0
  0
LINE
  5
2B2
100
AcDbEntity
  8
GEN_LAYER
  6
CONTINUOUS
 62
    15
100
AcDbLine
 10
-36.290497
 20
69.05914
 30
0.0
 11
-35.290497
 21
68.05914
 31
0.0
  0
LINE
  5
2B3
100
AcDbEntity
  8
GEN_LAYER
  6
CONTINUOUS
 62
    15
100
AcDbLine
 10
-35.290497
 20
68.05914
 30
0.0
 11
-36.290497
 21
67.05914
 31
0.0
  0
LINE
  5
2B4
100
AcDbEntity
  8
GEN_LAYER
  6
CONTINUOUS
 62
    15
100
AcDbLine
 10
-36.290497
 20
67.05914
 30
0.0
 11
-35.290497
 21
66.05914
 31
0.0
  0
LINE
  5
2B5
100
AcDbEntity
  8
GEN_LAYER
  6
CONTINUOUS
 62
    15
100
AcDbLine
 10
-35.290497
 20
66.05914
 30
0.0
 11
-36.290497
 21
65.05914
 31
0.0
  0
LINE
  5
2B6
100
AcDbEntity
  8
GEN_LAYER
  6
CONTINUOUS
 62
    15
100
AcDbLine
 10
-36.290497
 20
65.05914
 30
0.0
 11
-35.290497
 21
64.05914
 31
0.0
  0
LINE
  5
2B7
100
AcDbEntity
  8
GEN_LAYER
  6
CONTINUOUS
 62
    15
100
AcDbLine
 10
-35.290497
 20
64.05914
 30
0.0
 11
-36.290497
 21
63.05914
 31
0.0
  0
LINE
  5
2B8
100
AcDbEntity
  8
GEN_LAYER
  6
CONTINUOUS
 62
    15
100
AcDbLine
 10
-36.290497
 20
63.05914
 30
0.0
 11
-35.290497
 21
62.05914
 31
0.0
  0
LINE
  5
2B9
100
AcDbEntity
  8
GEN_LAYER
  6
CONTINUOUS
 62
    15
100
AcDbLine
 10
-35.290497
 20
62.05914
 30
0.0
 11
-36.290497
 21
61.05914
 31
0.0
  0
LINE
  5
2BA
100
AcDbEntity
  8
GEN_LAYER
  6
CONTINUOUS
 62
    15
100
AcDbLine
 10
-36.290497
 20
61.05914
 30
0.0
 11
-35.290497
 21
60.05914
 31
0.0
  0
LINE
  5
2BB
100
AcDbEntity
  8
GEN_LAYER
  6
CONTINUOUS
 62
    15
100
AcDbLine
 10
-35.290497
 20
60.05914
 30
0.0
 11
-36.290497
 21
59.05914
 31
0.0
  0
LINE
  5
2BC
100
AcDbEntity
  8
GEN_LAYER
  6
CONTINUOUS
 62
    15
100
AcDbLine
 10
-36.290497
 20
59.05914
 30
0.0
 11
-35.290497
 21
58.05914
 31
0.0
  0
LINE
  5
2BD
100
AcDbEntity
  8
GEN_LAYER
  6
CONTINUOUS
 62
    15
100
AcDbLine
 10
-35.290497
 20
58.05914
 30
0.0
 11
-36.290497
 21
57.05914
 31
0.0
  0
LINE
  5
2BE
100
AcDbEntity
  8
GEN_LAYER
  6
CONTINUOUS
 62
    15
100
AcDbLine
 10
-36.290497
 20
57.05914
 30
0.0
 11
-35.290497
 21
56.05914
 31
0.0
  0
LINE
  5
2BF
100
AcDbEntity
  8
GEN_LAYER
  6
CONTINUOUS
 62
    15
100
AcDbLine
 10
-35.290497
 20
56.05914
 30
0.0
 11
-36.290497
 21
55.05914
 31
0.0
  0
LINE
  5
2C0
100
AcDbEntity
  8
GEN_LAYER
  6
CONTINUOUS
 62
    15
100
AcDbLine
 10
-36.290497
 20
55.05914
 30
0.0
 11
-35.290497
 21
54.05914
 31
0.0
  0
LINE
  5
2C1
100
AcDbEntity
  8
GEN_LAYER
  6
CONTINUOUS
 62
    15
100
AcDbLine
 10
-35.290497
 20
54.05914
 30
0.0
 11
-36.290497
 21
53.05914
 31
0.0
  0
LINE
  5
2C2
100
AcDbEntity
  8
GEN_LAYER
  6
CONTINUOUS
 62
    15
100
AcDbLine
 10
-36.290497
 20
53.05914
 30
0.0
 11
-35.290497
 21
52.05914
 31
0.0
  0
LINE
  5
2C3
100
AcDbEntity
  8
GEN_LAYER
  6
CONTINUOUS
 62
    15
100
AcDbLine
 10
-35.290497
 20
52.05914
 30
0.0
 11
-36.290497
 21
51.05914
 31
0.0
  0
LINE
  5
2C4
100
AcDbEntity
  8
GEN_LAYER
  6
CONTINUOUS
 62
    15
100
AcDbLine
 10
-36.290497
 20
51.05914
 30
0.0
 11
-35.290497
 21
50.05914
 31
0.0
  0
LINE
  5
2C5
100
AcDbEntity
  8
GEN_LAYER
  6
CONTINUOUS
 62
    15
100
AcDbLine
 10
-35.290497
 20
50.05914
 30
0.0
 11
-36.290497
 21
49.05914
 31
0.0
  0
LINE
  5
2C6
100
AcDbEntity
  8
GEN_LAYER
  6
CONTINUOUS
 62
    15
100
AcDbLine
 10
-36.290497
 20
49.05914
 30
0.0
 11
-35.290497
 21
48.05914
 31
0.0
  0
LINE
  5
2C7
100
AcDbEntity
  8
GEN_LAYER
  6
CONTINUOUS
 62
    15
100
AcDbLine
 10
-35.290497
 20
48.05914
 30
0.0
 11
-36.290497
 21
47.05914
 31
0.0
  0
LINE
  5
2C8
100
AcDbEntity
  8
GEN_LAYER
  6
CONTINUOUS
 62
    15
100
AcDbLine
 10
-36.290497
 20
47.05914
 30
0.0
 11
-35.290497
 21
46.05914
 31
0.0
  0
LINE
  5
2C9
100
AcDbEntity
  8
GEN_LAYER
  6
CONTINUOUS
 62
    15
100
AcDbLine
 10
-35.290497
 20
46.05914
 30
0.0
 11
-36.290497
 21
45.05914
 31
0.0
  0
LINE
  5
2CA
100
AcDbEntity
  8
GEN_LAYER
  6
CONTINUOUS
 62
    15
100
AcDbLine
 10
-36.290497
 20
45.05914
 30
0.0
 11
-35.290497
 21
44.05914
 31
0.0
  0
LINE
  5
2CB
100
AcDbEntity
  8
GEN_LAYER
  6
CONTINUOUS
 62
    15
100
AcDbLine
 10
-35.290497
 20
44.05914
 30
0.0
 11
-36.290497
 21
43.05914
 31
0.0
  0
LINE
  5
2CC
100
AcDbEntity
  8
GEN_LAYER
  6
CONTINUOUS
 62
    15
100
AcDbLine
 10
-36.290497
 20
43.05914
 30
0.0
 11
-35.290497
 21
42.05914
 31
0.0
  0
LINE
  5
2CD
100
AcDbEntity
  8
GEN_LAYER
  6
CONTINUOUS
 62
    15
100
AcDbLine
 10
-35.290497
 20
42.05914
 30
0.0
 11
-36.290497
 21
41.05914
 31
0.0
  0
LINE
  5
2CE
100
AcDbEntity
  8
GEN_LAYER
  6
CONTINUOUS
 62
    15
100
AcDbLine
 10
-36.290497
 20
41.05914
 30
0.0
 11
-35.290497
 21
40.05914
 31
0.0
  0
LINE
  5
2CF
100
AcDbEntity
  8
GEN_LAYER
  6
CONTINUOUS
 62
    15
100
AcDbLine
 10
-35.290497
 20
40.05914
 30
0.0
 11
-36.290497
 21
39.05914
 31
0.0
  0
LINE
  5
2D0
100
AcDbEntity
  8
GEN_LAYER
  6
CONTINUOUS
 62
    15
100
AcDbLine
 10
-36.290497
 20
39.05914
 30
0.0
 11
-35.290497
 21
38.05914
 31
0.0
  0
LINE
  5
2D1
100
AcDbEntity
  8
GEN_LAYER
  6
CONTINUOUS
 62
    15
100
AcDbLine
 10
-35.290497
 20
38.05914
 30
0.0
 11
-36.290497
 21
37.05914
 31
0.0
  0
LINE
  5
2D2
100
AcDbEntity
  8
GEN_LAYER
  6
CONTINUOUS
 62
    15
100
AcDbLine
 10
-36.290497
 20
37.05914
 30
0.0
 11
-35.290497
 21
36.05914
 31
0.0
  0
LINE
  5
2D3
100
AcDbEntity
  8
GEN_LAYER
  6
CONTINUOUS
 62
    15
100
AcDbLine
 10
-35.290497
 20
36.05914
 30
0.0
 11
-36.290497
 21
35.05914
 31
0.0
  0
LINE
  5
2D4
100
AcDbEntity
  8
GEN_LAYER
  6
CONTINUOUS
 62
    15
100
AcDbLine
 10
-36.290497
 20
35.05914
 30
0.0
 11
-35.290497
 21
34.05914
 31
0.0
  0
LINE
  5
2D5
100
AcDbEntity
  8
GEN_LAYER
  6
CONTINUOUS
 62
    15
100
AcDbLine
 10
-35.290497
 20
34.05914
 30
0.0
 11
-36.290497
 21
33.05914
 31
0.0
  0
LINE
  5
2D6
100
AcDbEntity
  8
GEN_LAYER
  6
CONTINUOUS
 62
    15
100
AcDbLine
 10
-36.290497
 20
33.05914
 30
0.0
 11
-35.290497
 21
32.05914
 31
0.0
  0
LINE
  5
2D7
100
AcDbEntity
  8
GEN_LAYER
  6
CONTINUOUS
 62
    15
100
AcDbLine
 10
-35.290497
 20
32.05914
 30
0.0
 11
-36.290497
 21
31.05914
 31
0.0
  0
LINE
  5
2D8
100
AcDbEntity
  8
GEN_LAYER
  6
CONTINUOUS
 62
    15
100
AcDbLine
 10
-36.290497
 20
31.05914
 30
0.0
 11
-35.290497
 21
30.05914
 31
0.0
  0
LINE
  5
2D9
100
AcDbEntity
  8
GEN_LAYER
  6
CONTINUOUS
 62
    15
100
AcDbLine
 10
-35.290497
 20
30.05914
 30
0.0
 11
-36.290497
 21
29.05914
 31
0.0
  0
LINE
  5
2DA
100
AcDbEntity
  8
GEN_LAYER
  6
CONTINUOUS
 62
    15
100
AcDbLine
 10
-19.290497
 20
28.490809
 30
0.0
 11
-19.290497
 21
29.85914
 31
0.0
  0
ARC
  5
2DB
100
AcDbEntity
  8
GEN_LAYER
  6
CONTINUOUS
 62
    15
100
AcDbCircle
 10
-19.090497
 20
29.85914
 30
0.0
 40
0.2
100
AcDbArc
 50
90.0
 51
180.0
  0
LINE
  5
2DC
100
AcDbEntity
  8
GEN_LAYER
  6
CONTINUOUS
 62
    15
100
AcDbLine
 10
-19.090497
 20
30.05914
 30
0.0
 11
-18.591802
 21
30.05914
 31
0.0
  0
ARC
  5
2DD
100
AcDbEntity
  8
GEN_LAYER
  6
CONTINUOUS
 62
    15
100
AcDbCircle
 10
-18.591802
 20
29.85914
 30
0.0
 40
0.2
100
AcDbArc
 50
20.222892
 51
90.0
  0
ARC
  5
2DE
100
AcDbEntity
  8
GEN_LAYER
  6
CONTINUOUS
 62
    15
100
AcDbCircle
 10
-18.591802
 20
29.85914
 30
0.0
 40
0.2
100
AcDbArc
 50
20.222892
 51
90.0
  0
LINE
  5
2DF
100
AcDbEntity
  8
GEN_LAYER
  6
CONTINUOUS
 62
    15
100
AcDbLine
 10
-18.404131
 20
29.928274
 30
0.0
 11
-17.82132
 21
28.34619
 31
0.0
  0
ARC
  5
2E0
100
AcDbEntity
  8
GEN_LAYER
  6
CONTINUOUS
 62
    15
100
AcDbCircle
 10
-18.290497
 20
28.173353
 30
0.0
 40
0.5
100
AcDbArc
 50
-70.528779
 51
20.222892
  0
ARC
  5
2E1
100
AcDbEntity
  8
GEN_LAYER
  6
CONTINUOUS
 62
    15
100
AcDbCircle
 10
-21.390497
 20
20.55914
 30
0.0
 40
0.5
100
AcDbArc
 50
-90.0
 51
90.0
  0
LINE
  5
2E2
100
AcDbEntity
  8
GEN_LAYER
  6
CONTINUOUS
 62
    15
100
AcDbLine
 10
-23.80741
 20
25.228317
 30
0.0
 11
-20.566845
 21
26.422083
 31
0.0
  0
ARC
  5
2E3
100
AcDbEntity
  8
GEN_LAYER
  6
CONTINUOUS
 62
    15
100
AcDbCircle
 10
-17.790497
 20
26.75914
 30
0.0
 40
2.5
100
AcDbArc
 50
-168.002381
 51
-90.0
  0
LINE
  5
2E4
100
AcDbEntity
  8
GEN_LAYER
  6
CONTINUOUS
 62
    15
100
AcDbLine
 10
-16.290497
 20
25.75914
 30
0.0
 11
-17.790497
 21
25.75914
 31
0.0
  0
ARC
  5
2E5
100
AcDbEntity
  8
GEN_LAYER
  6
CONTINUOUS
 62
    15
100
AcDbCircle
 10
-17.790497
 20
26.75914
 30
0.0
 40
1.0
100
AcDbArc
 50
109.095345
 51
-90.0
  0
ARC
  5
2E6
100
AcDbEntity
  8
GEN_LAYER
  6
CONTINUOUS
 62
    15
100
AcDbCircle
 10
-17.790497
 20
26.75914
 30
0.0
 40
1.0
100
AcDbArc
 50
109.095345
 51
-90.0
  0
LINE
  5
2E7
100
AcDbEntity
  8
GEN_LAYER
  6
CONTINUOUS
 62
    15
100
AcDbLine
 10
-31.290497
 20
20.05914
 30
0.0
 11
-31.290497
 21
21.754644
 31
0.0
  0
ARC
  5
2E8
100
AcDbEntity
  8
GEN_LAYER
  6
CONTINUOUS
 62
    15
100
AcDbCircle
 10
-35.540497
 20
21.70533
 30
0.0
 40
0.75
100
AcDbArc
 50
-70.528779
 51
-69.777108
  0
LINE
  5
2E9
100
AcDbEntity
  8
GEN_LAYER
  6
CONTINUOUS
 62
    15
100
AcDbLine
 10
-30.426315
 20
24.388574
 30
0.0
 11
-19.290497
 21
28.490809
 31
0.0
  0
ARC
  5
2EA
100
AcDbEntity
  8
GEN_LAYER
  6
CONTINUOUS
 62
    15
100
AcDbCircle
 10
-20.480427
 20
26.187494
 30
0.0
 40
0.25
100
AcDbArc
 50
11.997619
 51
110.222892
  0
LINE
  5
2EB
100
AcDbEntity
  8
GEN_LAYER
  6
CONTINUOUS
 62
    15
100
AcDbLine
 10
-30.090497
 20
22.913741
 30
0.0
 11
-30.090497
 21
20.05914
 31
0.0
  0
LINE
  5
2EC
100
AcDbEntity
  8
GEN_LAYER
  6
CONTINUOUS
 62
    15
100
AcDbLine
 10
-30.090497
 20
20.05914
 30
0.0
 11
-31.290497
 21
20.05914
 31
0.0
  0
LINE
  5
2ED
100
AcDbEntity
  8
GEN_LAYER
  6
CONTINUOUS
 62
    15
100
AcDbLine
 10
-23.634574
 20
24.25914
 30
0.0
 11
-23.090497
 21
24.25914
 31
0.0
  0
ARC
  5
2EE
100
AcDbEntity
  8
GEN_LAYER
  6
CONTINUOUS
 62
    15
100
AcDbCircle
 10
-23.090497
 20
23.05914
 30
0.0
 40
1.2
100
AcDbArc
 50
0.0
 51
90.0
  0
LINE
  5
2EF
100
AcDbEntity
  8
GEN_LAYER
  6
CONTINUOUS
 62
    15
100
AcDbLine
 10
-21.890497
 20
23.05914
 30
0.0
 11
-21.890497
 21
21.05914
 31
0.0
  0
LINE
  5
2F0
100
AcDbEntity
  8
GEN_LAYER
  6
CONTINUOUS
 62
    15
100
AcDbLine
 10
-21.890497
 20
21.05914
 30
0.0
 11
-21.390497
 21
21.05914
 31
0.0
  0
LINE
  5
2F1
100
AcDbEntity
  8
GEN_LAYER
  6
CONTINUOUS
 62
    15
100
AcDbLine
 10
-21.390497
 20
20.05914
 30
0.0
 11
-21.890497
 21
20.05914
 31
0.0
  0
LINE
  5
2F2
100
AcDbEntity
  8
GEN_LAYER
  6
CONTINUOUS
 62
    15
100
AcDbLine
 10
-22.890497
 20
20.05914
 30
0.0
 11
-21.390497
 21
20.05914
 31
0.0
  0
ARC
  5
2F3
100
AcDbEntity
  8
GEN_LAYER
  6
CONTINUOUS
 62
    15
100
AcDbCircle
 10
-22.890497
 20
20.35914
 30
0.0
 40
0.3
100
AcDbArc
 50
90.0
 51
-90.0
  0
LINE
  5
2F4
100
AcDbEntity
  8
GEN_LAYER
  6
CONTINUOUS
 62
    15
100
AcDbLine
 10
-22.990497
 20
23.05914
 30
0.0
 11
-22.590497
 21
20.65914
 31
0.0
  0
LINE
  5
2F5
100
AcDbEntity
  8
GEN_LAYER
  6
CONTINUOUS
 62
    15
100
AcDbLine
 10
-25.390497
 20
23.05914
 30
0.0
 11
-22.990497
 21
23.05914
 31
0.0
  0
LINE
  5
2F6
100
AcDbEntity
  8
GEN_LAYER
  6
CONTINUOUS
 62
    15
100
AcDbLine
 10
-25.790497
 20
20.65914
 30
0.0
 11
-25.390497
 21
23.05914
 31
0.0
  0
ARC
  5
2F7
100
AcDbEntity
  8
GEN_LAYER
  6
CONTINUOUS
 62
    15
100
AcDbCircle
 10
-25.490497
 20
20.35914
 30
0.0
 40
0.3
100
AcDbArc
 50
-90.0
 51
90.0
  0
LINE
  5
2F8
100
AcDbEntity
  8
GEN_LAYER
  6
CONTINUOUS
 62
    15
100
AcDbLine
 10
-25.490497
 20
20.65914
 30
0.0
 11
-25.790497
 21
20.65914
 31
0.0
  0
LINE
  5
2F9
100
AcDbEntity
  8
GEN_LAYER
  6
CONTINUOUS
 62
    15
100
AcDbLine
 10
-22.590497
 20
20.65914
 30
0.0
 11
-22.890497
 21
20.65914
 31
0.0
  0
LINE
  5
2FA
100
AcDbEntity
  8
GEN_LAYER
  6
CONTINUOUS
 62
    15
100
AcDbLine
 10
-26.51682
 20
20.05914
 30
0.0
 11
-25.490497
 21
20.05914
 31
0.0
  0
ARC
  5
2FB
100
AcDbEntity
  8
GEN_LAYER
  6
CONTINUOUS
 62
    15
100
AcDbCircle
 10
-26.51682
 20
20.55914
 30
0.0
 40
0.5
100
AcDbArc
 50
170.537678
 51
-90.0
  0
LINE
  5
2FC
100
AcDbEntity
  8
GEN_LAYER
  6
CONTINUOUS
 62
    15
100
AcDbLine
 10
-27.010017
 20
20.641339
 30
0.0
 11
-26.553135
 21
23.382631
 31
0.0
  0
LINE
  5
2FD
100
AcDbEntity
  8
GEN_LAYER
  6
CONTINUOUS
 62
    15
100
AcDbLine
 10
-26.553135
 20
23.382631
 30
0.0
 11
-26.772919
 21
23.720954
 31
0.0
  0
ARC
  5
2FE
100
AcDbEntity
  8
GEN_LAYER
  6
CONTINUOUS
 62
    15
100
AcDbCircle
 10
-23.634574
 20
24.75914
 30
0.0
 40
0.5
100
AcDbArc
 50
110.222892
 51
-90.0
  0
LINE
  5
2FF
100
AcDbEntity
  8
GEN_LAYER
  6
CONTINUOUS
 62
    15
100
AcDbLine
 10
-30.090497
 20
22.913741
 30
0.0
 11
-27.365049
 21
23.917747
 31
0.0
  0
ARC
  5
300
100
AcDbEntity
  8
GEN_LAYER
  6
CONTINUOUS
 62
    15
100
AcDbCircle
 10
-27.192212
 20
23.44857
 30
0.0
 40
0.5
100
AcDbArc
 50
33.008924
 51
110.222892
  0
LINE
  5
301
100
AcDbEntity
  8
GEN_LAYER
  6
CONTINUOUS
 62
    15
100
AcDbLine
 10
-17.790497
 20
25.75914
 30
0.0
 11
-4.790497
 21
25.75914
 31
0.0
  0
LINE
  5
302
100
AcDbEntity
  8
GEN_LAYER
  6
CONTINUOUS
 62
    15
100
AcDbLine
 10
-17.790497
 20
24.25914
 30
0.0
 11
-4.790497
 21
24.25914
 31
0.0
  0
LINE
  5
303
100
AcDbEntity
  8
GEN_LAYER
  6
CONTINUOUS
 62
    15
100
AcDbLine
 10
-3.290497
 20
28.490809
 30
0.0
 11
-3.290497
 21
29.85914
 31
0.0
  0
ARC
  5
304
100
AcDbEntity
  8
GEN_LAYER
  6
CONTINUOUS
 62
    15
100
AcDbCircle
 10
-3.490497
 20
29.85914
 30
0.0
 40
0.2
100
AcDbArc
 50
0.0
 51
90.0
  0
LINE
  5
305
100
AcDbEntity
  8
GEN_LAYER
  6
CONTINUOUS
 62
    15
100
AcDbLine
 10
-3.490497
 20
30.05914
 30
0.0
 11
-3.989192
 21
30.05914
 31
0.0
  0
ARC
  5
306
100
AcDbEntity
  8
GEN_LAYER
  6
CONTINUOUS
 62
    15
100
AcDbCircle
 10
-3.989192
 20
29.85914
 30
0.0
 40
0.2
100
AcDbArc
 50
90.0
 51
159.777108
  0
ARC
  5
307
100
AcDbEntity
  8
GEN_LAYER
  6
CONTINUOUS
 62
    15
100
AcDbCircle
 10
-3.989192
 20
29.85914
 30
0.0
 40
0.2
100
AcDbArc
 50
90.0
 51
159.777108
  0
LINE
  5
308
100
AcDbEntity
  8
GEN_LAYER
  6
CONTINUOUS
 62
    15
100
AcDbLine
 10
-4.176863
 20
29.928274
 30
0.0
 11
-4.759675
 21
28.34619
 31
0.0
  0
ARC
  5
309
100
AcDbEntity
  8
GEN_LAYER
  6
CONTINUOUS
 62
    15
100
AcDbCircle
 10
-4.290497
 20
28.173353
 30
0.0
 40
0.5
100
AcDbArc
 50
159.777108
 51
-109.471221
  0
ARC
  5
30A
100
AcDbEntity
  8
GEN_LAYER
  6
CONTINUOUS
 62
    15
100
AcDbCircle
 10
-1.190497
 20
20.55914
 30
0.0
 40
0.5
100
AcDbArc
 50
90.0
 51
-90.0
  0
LINE
  5
30B
100
AcDbEntity
  8
GEN_LAYER
  6
CONTINUOUS
 62
    15
100
AcDbLine
 10
1.226415
 20
25.228317
 30
0.0
 11
-2.014149
 21
26.422083
 31
0.0
  0
ARC
  5
30C
100
AcDbEntity
  8
GEN_LAYER
  6
CONTINUOUS
 62
    15
100
AcDbCircle
 10
-4.790497
 20
26.75914
 30
0.0
 40
2.5
100
AcDbArc
 50
-90.0
 51
-11.997619
  0
LINE
  5
30D
100
AcDbEntity
  8
GEN_LAYER
  6
CONTINUOUS
 62
    15
100
AcDbLine
 10
-6.290497
 20
25.75914
 30
0.0
 11
-4.790497
 21
25.75914
 31
0.0
  0
ARC
  5
30E
100
AcDbEntity
  8
GEN_LAYER
  6
CONTINUOUS
 62
    15
100
AcDbCircle
 10
-4.790497
 20
26.75914
 30
0.0
 40
1.0
100
AcDbArc
 50
-90.0
 51
70.904655
  0
ARC
  5
30F
100
AcDbEntity
  8
GEN_LAYER
  6
CONTINUOUS
 62
    15
100
AcDbCircle
 10
-4.790497
 20
26.75914
 30
0.0
 40
1.0
100
AcDbArc
 50
-90.0
 51
70.904655
  0
LINE
  5
310
100
AcDbEntity
  8
GEN_LAYER
  6
CONTINUOUS
 62
    15
100
AcDbLine
 10
8.709503
 20
20.05914
 30
0.0
 11
8.709503
 21
21.754644
 31
0.0
  0
ARC
  5
311
100
AcDbEntity
  8
GEN_LAYER
  6
CONTINUOUS
 62
    15
100
AcDbCircle
 10
9.209503
 20
21.754644
 30
0.0
 40
0.5
100
AcDbArc
 50
69.777108
 51
180.0
  0
LINE
  5
312
100
AcDbEntity
  8
GEN_LAYER
  6
CONTINUOUS
 62
    15
100
AcDbLine
 10
9.382339
 20
22.223821
 30
0.0
 11
12.700248
 21
21.001563
 31
0.0
  0
ARC
  5
313
100
AcDbEntity
  8
GEN_LAYER
  6
CONTINUOUS
 62
    15
100
AcDbCircle
 10
12.959503
 20
21.70533
 30
0.0
 40
0.75
100
AcDbArc
 50
-110.222892
 51
69.777108
  0
LINE
  5
314
100
AcDbEntity
  8
GEN_LAYER
  6
CONTINUOUS
 62
    15
100
AcDbLine
 10
13.218757
 20
22.409096
 30
0.0
 11
-3.290497
 21
28.490809
 31
0.0
  0
ARC
  5
315
100
AcDbEntity
  8
GEN_LAYER
  6
CONTINUOUS
 62
    15
100
AcDbCircle
 10
-2.100568
 20
26.187494
 30
0.0
 40
0.25
100
AcDbArc
 50
69.777108
 51
168.002381
  0
LINE
  5
316
100
AcDbEntity
  8
GEN_LAYER
  6
CONTINUOUS
 62
    15
100
AcDbLine
 10
7.509503
 20
22.913741
 30
0.0
 11
7.509503
 21
20.05914
 31
0.0
  0
LINE
  5
317
100
AcDbEntity
  8
GEN_LAYER
  6
CONTINUOUS
 62
    15
100
AcDbLine
 10
7.509503
 20
20.05914
 30
0.0
 11
8.709503
 21
20.05914
 31
0.0
  0
LINE
  5
318
100
AcDbEntity
  8
GEN_LAYER
  6
CONTINUOUS
 62
    15
100
AcDbLine
 10
1.053579
 20
24.25914
 30
0.0
 11
0.509503
 21
24.25914
 31
0.0
  0
ARC
  5
319
100
AcDbEntity
  8
GEN_LAYER
  6
CONTINUOUS
 62
    15
100
AcDbCircle
 10
0.509503
 20
23.05914
 30
0.0
 40
1.2
100
AcDbArc
 50
90.0
 51
180.0
  0
LINE
  5
31A
100
AcDbEntity
  8
GEN_LAYER
  6
CONTINUOUS
 62
    15
100
AcDbLine
 10
-0.690497
 20
23.05914
 30
0.0
 11
-0.690497
 21
21.05914
 31
0.0
  0
LINE
  5
31B
100
AcDbEntity
  8
GEN_LAYER
  6
CONTINUOUS
 62
    15
100
AcDbLine
 10
-0.690497
 20
21.05914
 30
0.0
 11
-1.190497
 21
21.05914
 31
0.0
  0
LINE
  5
31C
100
AcDbEntity
  8
GEN_LAYER
  6
CONTINUOUS
 62
    15
100
AcDbLine
 10
-1.190497
 20
20.05914
 30
0.0
 11
-0.690497
 21
20.05914
 31
0.0
  0
LINE
  5
31D
100
AcDbEntity
  8
GEN_LAYER
  6
CONTINUOUS
 62
    15
100
AcDbLine
 10
0.309503
 20
20.05914
 30
0.0
 11
-1.190497
 21
20.05914
 31
0.0
  0
ARC
  5
31E
100
AcDbEntity
  8
GEN_LAYER
  6
CONTINUOUS
 62
    15
100
AcDbCircle
 10
0.309503
 20
20.35914
 30
0.0
 40
0.3
100
AcDbArc
 50
-90.0
 51
90.0
  0
LINE
  5
31F
100
AcDbEntity
  8
GEN_LAYER
  6
CONTINUOUS
 62
    15
100
AcDbLine
 10
0.409503
 20
23.05914
 30
0.0
 11
0.009503
 21
20.65914
 31
0.0
  0
LINE
  5
320
100
AcDbEntity
  8
GEN_LAYER
  6
CONTINUOUS
 62
    15
100
AcDbLine
 10
2.809503
 20
23.05914
 30
0.0
 11
0.409503
 21
23.05914
 31
0.0
  0
LINE
  5
321
100
AcDbEntity
  8
GEN_LAYER
  6
CONTINUOUS
 62
    15
100
AcDbLine
 10
3.209503
 20
20.65914
 30
0.0
 11
2.809503
 21
23.05914
 31
0.0
  0
ARC
  5
322
100
AcDbEntity
  8
GEN_LAYER
  6
CONTINUOUS
 62
    15
100
AcDbCircle
 10
2.909503
 20
20.35914
 30
0.0
 40
0.3
100
AcDbArc
 50
90.0
 51
-90.0
  0
LINE
  5
323
100
AcDbEntity
  8
GEN_LAYER
  6
CONTINUOUS
 62
    15
100
AcDbLine
 10
2.909503
 20
20.65914
 30
0.0
 11
3.209503
 21
20.65914
 31
0.0
  0
LINE
  5
324
100
AcDbEntity
  8
GEN_LAYER
  6
CONTINUOUS
 62
    15
100
AcDbLine
 10
0.009503
 20
20.65914
 30
0.0
 11
0.309503
 21
20.65914
 31
0.0
  0
LINE
  5
325
100
AcDbEntity
  8
GEN_LAYER
  6
CONTINUOUS
 62
    15
100
AcDbLine
 10
3.935825
 20
20.05914
 30
0.0
 11
2.909503
 21
20.05914
 31
0.0
  0
ARC
  5
326
100
AcDbEntity
  8
GEN_LAYER
  6
CONTINUOUS
 62
    15
100
AcDbCircle
 10
3.935825
 20
20.55914
 30
0.0
 40
0.5
100
AcDbArc
 50
-90.0
 51
9.462322
  0
LINE
  5
327
100
AcDbEntity
  8
GEN_LAYER
  6
CONTINUOUS
 62
    15
100
AcDbLine
 10
4.429022
 20
20.641339
 30
0.0
 11
3.97214
 21
23.382631
 31
0.0
  0
LINE
  5
328
100
AcDbEntity
  8
GEN_LAYER
  6
CONTINUOUS
 62
    15
100
AcDbLine
 10
3.97214
 20
23.382631
 30
0.0
 11
4.191925
 21
23.720954
 31
0.0
  0
ARC
  5
329
100
AcDbEntity
  8
GEN_LAYER
  6
CONTINUOUS
 62
    15
100
AcDbCircle
 10
1.053579
 20
24.75914
 30
0.0
 40
0.5
100
AcDbArc
 50
-90.0
 51
69.777108
  0
LINE
  5
32A
100
AcDbEntity
  8
GEN_LAYER
  6
CONTINUOUS
 62
    15
100
AcDbLine
 10
7.509503
 20
22.913741
 30
0.0
 11
4.784054
 21
23.917747
 31
0.0
  0
ARC
  5
32B
100
AcDbEntity
  8
GEN_LAYER
  6
CONTINUOUS
 62
    15
100
AcDbCircle
 10
4.611217
 20
23.44857
 30
0.0
 40
0.5
100
AcDbArc
 50
69.777108
 51
146.991076
  0
LINE
  5
32C
100
AcDbEntity
  8
GEN_LAYER
  6
CONTINUOUS
 62
    15
100
AcDbLine
 10
-33.790497
 20
26.734461
 30
0.0
 11
-33.790497
 21
84.333209
 31
0.0
  0
ARC
  5
32D
100
AcDbEntity
  8
GEN_LAYER
  6
CONTINUOUS
 62
    15
100
AcDbCircle
 10
-32.290497
 20
84.333209
 30
0.0
 40
1.5
100
AcDbArc
 50
117.372274
 51
180.0
  0
ARC
  5
32E
100
AcDbEntity
  8
GEN_LAYER
  6
CONTINUOUS
 62
    15
100
AcDbCircle
 10
-36.290497
 20
92.05914
 30
0.0
 40
7.2
100
AcDbArc
 50
-62.627726
 51
-24.663422
  0
ARC
  5
32F
100
AcDbEntity
  8
GEN_LAYER
  6
CONTINUOUS
 62
    15
100
AcDbCircle
 10
-36.290497
 20
92.05914
 30
0.0
 40
7.2
100
AcDbArc
 50
-24.663422
 51
-23.208348
  0
ARC
  5
330
100
AcDbEntity
  8
GEN_LAYER
  6
CONTINUOUS
 62
    15
100
AcDbCircle
 10
-30.224477
 20
89.458194
 30
0.0
 40
0.601266
100
AcDbArc
 50
-23.208348
 51
156.791652
  0
ARC
  5
331
100
AcDbEntity
  8
GEN_LAYER
  6
CONTINUOUS
 62
    15
100
AcDbCircle
 10
-36.290497
 20
92.05914
 30
0.0
 40
6.0
100
AcDbArc
 50
-70.528779
 51
-23.208348
  0
ARC
  5
332
100
AcDbEntity
  8
GEN_LAYER
  6
CONTINUOUS
 62
    15
100
AcDbCircle
 10
-33.290497
 20
83.573858
 30
0.0
 40
3.0
100
AcDbArc
 50
109.471221
 51
180.0
  0
LINE
  5
333
100
AcDbEntity
  8
GEN_LAYER
  6
CONTINUOUS
 62
    15
100
AcDbLine
 10
-36.290497
 20
83.573858
 30
0.0
 11
-36.290497
 21
83.05914
 31
0.0
  0
LINE
  5
334
100
AcDbEntity
  8
GEN_LAYER
  6
CONTINUOUS
 62
    15
100
AcDbLine
 10
-36.290497
 20
83.05914
 30
0.0
 11
-35.290497
 21
82.05914
 31
0.0
  0
LINE
  5
335
100
AcDbEntity
  8
GEN_LAYER
  6
CONTINUOUS
 62
    15
100
AcDbLine
 10
-35.290497
 20
82.05914
 30
0.0
 11
-36.290497
 21
81.05914
 31
0.0
  0
LINE
  5
336
100
AcDbEntity
  8
GEN_LAYER
  6
CONTINUOUS
 62
    15
100
AcDbLine
 10
-31.290497
 20
20.05914
 30
0.0
 11
-31.290497
 21
21.777418
 31
0.0
  0
ARC
  5
337
100
AcDbEntity
  8
GEN_LAYER
  6
CONTINUOUS
 62
    15
100
AcDbCircle
 10
-31.290497
 20
27.254644
 30
0.0
 40
5.0
100
AcDbArc
 50
180.0
 51
-95.215909
  0
LINE
  5
338
100
AcDbEntity
  8
GEN_LAYER
  6
CONTINUOUS
 62
    15
100
AcDbLine
 10
-36.290497
 20
27.254644
 30
0.0
 11
-36.290497
 21
29.05914
 31
0.0
  0
ARC
  5
339
100
AcDbEntity
  8
GEN_LAYER
  6
CONTINUOUS
 62
    15
100
AcDbCircle
 10
-31.290497
 20
26.734461
 30
0.0
 40
2.5
100
AcDbArc
 50
180.0
 51
-69.777108
  0
ARC
  5
33A
100
AcDbEntity
  8
GEN_LAYER
  6
CONTINUOUS
 62
    15
100
AcDbCircle
 10
-31.790497
 20
21.777418
 30
0.0
 40
0.5
100
AcDbArc
 50
0.0
 51
84.784091
  0
ENDBLK
  5
33B
100
AcDbEntity
  8
0
100
AcDbBlockEnd
  0
BLOCK
  5
33D
100
AcDbEntity
  8
1
100
AcDbBlockBegin
  2
GEN_BLOCK00008
 70
     0
 10
0.0
 20
0.0
 30
0.0
  3
GEN_BLOCK00008
  1

  0
LINE
  5
33F
100
AcDbEntity
  8
1
  6
CONTINUOUS
 62
    15
100
AcDbLine
 10
-18.792215
 20
-1.854646
 30
0.0
 11
-17.805798
 21
-0.868229
 31
0.0
  0
LINE
  5
340
100
AcDbEntity
  8
1
  6
CONTINUOUS
 62
    15
100
AcDbLine
 10
-21.620642
 20
-1.854646
 30
0.0
 11
-17.805798
 21
1.960198
 31
0.0
  0
LINE
  5
341
100
AcDbEntity
  8
1
  6
CONTINUOUS
 62
    15
100
AcDbLine
 10
-24.449069
 20
-1.854646
 30
0.0
 11
-17.805798
 21
4.788625
 31
0.0
  0
LINE
  5
342
100
AcDbEntity
  8
1
  6
CONTINUOUS
 62
    15
100
AcDbLine
 10
-26.863953
 20
-1.441103
 30
0.0
 11
-17.805798
 21
7.617052
 31
0.0
  0
LINE
  5
343
100
AcDbEntity
  8
1
  6
CONTINUOUS
 62
    15
100
AcDbLine
 10
-29.89881
 20
-1.647532
 30
0.0
 11
-28.400248
 21
-0.148971
 31
0.0
  0
LINE
  5
344
100
AcDbEntity
  8
1
  6
CONTINUOUS
 62
    15
100
AcDbLine
 10
-28.390075
 20
-0.138797
 30
0.0
 11
-17.805798
 21
10.44548
 31
0.0
  0
LINE
  5
345
100
AcDbEntity
  8
1
  6
CONTINUOUS
 62
    15
100
AcDbLine
 10
-32.779599
 20
-1.699895
 30
0.0
 11
-31.526563
 21
-0.446858
 31
0.0
  0
LINE
  5
346
100
AcDbEntity
  8
1
  6
CONTINUOUS
 62
    15
100
AcDbLine
 10
-31.218502
 20
-0.138797
 30
0.0
 11
-17.805798
 21
13.273907
 31
0.0
  0
LINE
  5
347
100
AcDbEntity
  8
1
  6
CONTINUOUS
 62
    15
100
AcDbLine
 10
-33.802734
 20
0.105397
 30
0.0
 11
-17.805798
 21
16.102334
 31
0.0
  0
LINE
  5
348
100
AcDbEntity
  8
1
  6
CONTINUOUS
 62
    15
100
AcDbLine
 10
-33.805798
 20
2.930761
 30
0.0
 11
-18.591205
 21
18.145354
 31
0.0
  0
LINE
  5
349
100
AcDbEntity
  8
1
  6
CONTINUOUS
 62
    15
100
AcDbLine
 10
-33.805798
 20
5.759188
 30
0.0
 11
-21.854038
 21
17.710948
 31
0.0
  0
LINE
  5
34A
100
AcDbEntity
  8
1
  6
CONTINUOUS
 62
    15
100
AcDbLine
 10
-33.805798
 20
8.587615
 30
0.0
 11
-24.248059
 21
18.145354
 31
0.0
  0
LINE
  5
34B
100
AcDbEntity
  8
1
  6
CONTINUOUS
 62
    15
100
AcDbLine
 10
-33.805798
 20
11.416042
 30
0.0
 11
-27.788068
 21
17.433772
 31
0.0
  0
LINE
  5
34C
100
AcDbEntity
  8
1
  6
CONTINUOUS
 62
    15
100
AcDbLine
 10
-33.805798
 20
14.244469
 30
0.0
 11
-30.563723
 21
17.486544
 31
0.0
  0
LINE
  5
34D
100
AcDbEntity
  8
1
  6
CONTINUOUS
 62
    15
100
AcDbLine
 10
-33.805798
 20
17.072897
 30
0.0
 11
-33.175961
 21
17.702733
 31
0.0
  0
TEXT
  5
34E
100
AcDbEntity
  8
1
  6
CONTINUOUS
 62
    15
100
AcDbText
 10
-77.316467
 20
-1.888979
 30
0.0
 40
2.5
  1
INFILL
 41
1.284
 11
-77.316467
 21
-1.888979
 31
0.0
100
AcDbText
 73
     1
  0
TEXT
  5
34F
100
AcDbEntity
  8
1
  6
CONTINUOUS
 62
    15
100
AcDbText
 10
-77.316467
 20
-6.888979
 30
0.0
 40
2.5
  1
EQUAL TO
 41
1.284
 11
-77.316467
 21
-6.888979
 31
0.0
100
AcDbText
 73
     1
  0
TEXT
  5
350
100
AcDbEntity
  8
1
  6
CONTINUOUS
 62
    15
100
AcDbText
 10
-77.316467
 20
-11.888979
 30
0.0
 40
2.5
  1
GLAZING
 41
1.284
 11
-77.316467
 21
-11.888979
 31
0.0
100
AcDbText
 73
     1
  0
TEXT
  5
351
100
AcDbEntity
  8
1
  6
CONTINUOUS
 62
    15
100
AcDbText
 10
-77.316467
 20
-16.888979
 30
0.0
 40
2.5
  1
THICKNESS
 41
1.284
 11
-77.316467
 21
-16.888979
 31
0.0
100
AcDbText
 73
     1
  0
LINE
  5
352
100
AcDbEntity
  8
1
  6
CONTINUOUS
 62
    15
100
AcDbLine
 10
-53.03526
 20
-8.945707
 30
0.0
 11
-37.380274
 21
4.153364
 31
0.0
  0
LINE
  5
353
100
AcDbEntity
  8
1
  6
CONTINUOUS
 62
    15
100
AcDbLine
 10
-40.162376
 20
2.803398
 30
0.0
 11
-37.380274
 21
4.153364
 31
0.0
  0
LINE
  5
354
100
AcDbEntity
  8
1
  6
CONTINUOUS
 62
    15
100
AcDbLine
 10
-37.380274
 20
4.153364
 30
0.0
 11
-39.199792
 21
1.652993
 31
0.0
  0
LINE
  5
355
100
AcDbEntity
  8
1
  6
CONTINUOUS
 62
    15
100
AcDbLine
 10
-25.906453
 20
22.142835
 30
0.0
 11
-24.656453
 21
22.392835
 31
0.0
  0
LINE
  5
356
100
AcDbEntity
  8
1
  6
CONTINUOUS
 62
    15
100
AcDbLine
 10
-24.656453
 20
22.392835
 30
0.0
 11
-23.656453
 21
22.392835
 31
0.0
  0
LINE
  5
357
100
AcDbEntity
  8
1
  6
CONTINUOUS
 62
    15
100
AcDbLine
 10
-23.656453
 20
22.392835
 30
0.0
 11
-22.406453
 21
22.142835
 31
0.0
  0
LINE
  5
358
100
AcDbEntity
  8
1
  6
CONTINUOUS
 62
    15
100
AcDbLine
 10
-24.656453
 20
21.882933
 30
0.0
 11
-25.906453
 21
21.632933
 31
0.0
  0
LINE
  5
359
100
AcDbEntity
  8
1
  6
CONTINUOUS
 62
    15
100
AcDbLine
 10
-25.906453
 20
21.632933
 30
0.0
 11
-25.906453
 21
22.142835
 31
0.0
  0
LINE
  5
35A
100
AcDbEntity
  8
1
  6
CONTINUOUS
 62
    15
100
AcDbLine
 10
-25.906453
 20
22.142835
 30
0.0
 11
-24.656453
 21
22.392835
 31
0.0
  0
LINE
  5
35B
100
AcDbEntity
  8
1
  6
CONTINUOUS
 62
    15
100
AcDbLine
 10
-24.656453
 20
22.392835
 30
0.0
 11
-23.656453
 21
22.392835
 31
0.0
  0
LINE
  5
35C
100
AcDbEntity
  8
1
  6
CONTINUOUS
 62
    15
100
AcDbLine
 10
-23.656453
 20
22.392835
 30
0.0
 11
-22.406453
 21
22.142835
 31
0.0
  0
LINE
  5
35D
100
AcDbEntity
  8
1
  6
CONTINUOUS
 62
    15
100
AcDbLine
 10
-22.406453
 20
22.142835
 30
0.0
 11
-22.406453
 21
21.632933
 31
0.0
  0
LINE
  5
35E
100
AcDbEntity
  8
1
  6
CONTINUOUS
 62
    15
100
AcDbLine
 10
-22.406453
 20
21.632933
 30
0.0
 11
-23.705962
 21
21.892835
 31
0.0
  0
LINE
  5
35F
100
AcDbEntity
  8
1
  6
CONTINUOUS
 62
    15
100
AcDbLine
 10
-23.656453
 20
21.882933
 30
0.0
 11
-23.256453
 21
19.892835
 31
0.0
  0
LINE
  5
360
100
AcDbEntity
  8
1
  6
CONTINUOUS
 62
    15
100
AcDbLine
 10
-25.056453
 20
19.892835
 30
0.0
 11
-24.606943
 21
21.892835
 31
0.0
  0
LINE
  5
361
100
AcDbEntity
  8
1
  6
CONTINUOUS
 62
    15
100
AcDbLine
 10
-25.056453
 20
19.892835
 30
0.0
 11
-31.856453
 21
19.892835
 31
0.0
  0
LINE
  5
362
100
AcDbEntity
  8
1
  6
CONTINUOUS
 62
    15
100
AcDbLine
 10
-31.856453
 20
19.892835
 30
0.0
 11
-31.627528
 21
21.72423
 31
0.0
  0
LINE
  5
363
100
AcDbEntity
  8
1
  6
CONTINUOUS
 62
    15
100
AcDbLine
 10
-31.77637
 20
21.892835
 30
0.0
 11
-32.392031
 21
21.892835
 31
0.0
  0
LINE
  5
364
100
AcDbEntity
  8
1
  6
CONTINUOUS
 62
    15
100
AcDbLine
 10
-32.536696
 20
21.782483
 30
0.0
 11
-32.664802
 21
21.315049
 31
0.0
  0
LINE
  5
365
100
AcDbEntity
  8
1
  6
CONTINUOUS
 62
    15
100
AcDbLine
 10
-31.206453
 20
18.642835
 30
0.0
 11
-29.206453
 21
18.642835
 31
0.0
  0
LINE
  5
366
100
AcDbEntity
  8
1
  6
CONTINUOUS
 62
    15
100
AcDbLine
 10
-28.006453
 20
18.642835
 30
0.0
 11
-26.006453
 21
18.642835
 31
0.0
  0
LINE
  5
367
100
AcDbEntity
  8
1
  6
CONTINUOUS
 62
    15
100
AcDbLine
 10
-24.806453
 20
18.642835
 30
0.0
 11
-22.906453
 21
18.642835
 31
0.0
  0
LINE
  5
368
100
AcDbEntity
  8
1
  6
CONTINUOUS
 62
    15
100
AcDbLine
 10
-22.156453
 20
19.892835
 30
0.0
 11
-23.256453
 21
19.892835
 31
0.0
  0
LINE
  5
369
100
AcDbEntity
  8
1
  6
CONTINUOUS
 62
    15
100
AcDbLine
 10
-21.821631
 20
18.642835
 30
0.0
 11
-22.156453
 21
19.892835
 31
0.0
  0
ARC
  5
36A
100
AcDbEntity
  8
1
  6
CONTINUOUS
 62
    15
100
AcDbCircle
 10
-32.392031
 20
21.742835
 30
0.0
 40
0.15
100
AcDbArc
 50
90.0
 51
164.673698
  0
ARC
  5
36B
100
AcDbEntity
  8
1
  6
CONTINUOUS
 62
    15
100
AcDbCircle
 10
-31.77637
 20
21.742835
 30
0.0
 40
0.15
100
AcDbArc
 50
-7.125016
 51
90.0
  0
ARC
  5
36C
100
AcDbEntity
  8
1
  6
CONTINUOUS
 62
    15
100
AcDbCircle
 10
-36.522547
 20
22.372313
 30
0.0
 40
4.0
100
AcDbArc
 50
-89.721822
 51
-15.326302
  0
ARC
  5
36D
100
AcDbEntity
  8
1
  6
CONTINUOUS
 62
    15
100
AcDbCircle
 10
-36.644746
 20
17.892835
 30
0.0
 40
0.5
100
AcDbArc
 50
103.32842
 51
-90.0
  0
ARC
  5
36E
100
AcDbEntity
  8
1
  6
CONTINUOUS
 62
    15
100
AcDbCircle
 10
-35.605163
 20
25.325002
 30
0.0
 40
8.0
100
AcDbArc
 50
-97.962658
 51
-59.314966
  0
ARC
  5
36F
100
AcDbEntity
  8
1
  6
CONTINUOUS
 62
    15
100
AcDbCircle
 10
-35.605163
 20
25.325002
 30
0.0
 40
8.0
100
AcDbArc
 50
-59.314966
 51
-56.644048
  0
ARC
  5
370
100
AcDbEntity
  8
1
  6
CONTINUOUS
 62
    15
100
AcDbCircle
 10
-31.688526
 20
23.380169
 30
0.0
 40
6.0
100
AcDbArc
 50
-86.276416
 51
-52.144005
  0
LINE
  5
371
100
AcDbEntity
  8
1
  6
CONTINUOUS
 62
    15
100
AcDbLine
 10
-31.298868
 20
17.392835
 30
0.0
 11
-31.858725
 21
17.892835
 31
0.0
  0
ARC
  5
372
100
AcDbEntity
  8
1
  6
CONTINUOUS
 62
    15
100
AcDbCircle
 10
-32.121577
 20
23.887075
 30
0.0
 40
6.0
100
AcDbArc
 50
-87.489141
 51
-60.931555
  0
ARC
  5
373
100
AcDbEntity
  8
1
  6
CONTINUOUS
 62
    15
100
AcDbCircle
 10
-28.857349
 20
24.351622
 30
0.0
 40
7.0
100
AcDbArc
 50
-83.77954
 51
-54.640881
  0
LINE
  5
374
100
AcDbEntity
  8
1
  6
CONTINUOUS
 62
    15
100
AcDbLine
 10
-28.098868
 20
17.392835
 30
0.0
 11
-28.586664
 21
17.892835
 31
0.0
  0
ARC
  5
375
100
AcDbEntity
  8
1
  6
CONTINUOUS
 62
    15
100
AcDbCircle
 10
-29.214083
 20
24.86466
 30
0.0
 40
7.0
100
AcDbArc
 50
-84.857608
 51
-62.726862
  0
ARC
  5
376
100
AcDbEntity
  8
1
  6
CONTINUOUS
 62
    15
100
AcDbCircle
 10
-20.446792
 20
20.360412
 30
0.0
 40
3.0
100
AcDbArc
 50
-145.073475
 51
-98.431383
  0
LINE
  5
377
100
AcDbEntity
  8
1
  6
CONTINUOUS
 62
    15
100
AcDbLine
 10
-20.886666
 20
17.392835
 30
0.0
 11
-20.408564
 21
17.882496
 31
0.0
  0
LINE
  5
378
100
AcDbEntity
  8
1
  6
CONTINUOUS
 62
    15
100
AcDbLine
 10
-20.408564
 20
17.882496
 30
0.0
 11
-21.821631
 21
18.642835
 31
0.0
  0
ARC
  5
379
100
AcDbEntity
  8
1
  6
CONTINUOUS
 62
    15
100
AcDbCircle
 10
-36.522547
 20
22.372313
 30
0.0
 40
4.0
100
AcDbArc
 50
-87.330162
 51
-15.326302
  0
ARC
  5
37A
100
AcDbEntity
  8
1
  6
CONTINUOUS
 62
    15
100
AcDbCircle
 10
-36.522547
 20
22.372313
 30
0.0
 40
4.0
100
AcDbArc
 50
-93.403451
 51
-87.330162
  0
LINE
  5
37B
100
AcDbEntity
  8
1
  6
CONTINUOUS
 62
    15
100
AcDbLine
 10
-33.805798
 20
18.145354
 30
0.0
 11
-17.805798
 21
18.145354
 31
0.0
  0
LINE
  5
37C
100
AcDbEntity
  8
1
  6
CONTINUOUS
 62
    15
100
AcDbLine
 10
-17.805798
 20
18.145354
 30
0.0
 11
-17.805798
 21
-1.854646
 31
0.0
  0
LINE
  5
37D
100
AcDbEntity
  8
1
  6
CONTINUOUS
 62
    15
100
AcDbLine
 10
-17.805798
 20
-1.854646
 30
0.0
 11
-33.805798
 21
-1.854646
 31
0.0
  0
LINE
  5
37E
100
AcDbEntity
  8
1
  6
CONTINUOUS
 62
    15
100
AcDbLine
 10
64.494155
 20
14.145354
 30
0.0
 11
60.75302
 21
18.145354
 31
0.0
  0
LINE
  5
37F
100
AcDbEntity
  8
1
  6
CONTINUOUS
 62
    15
100
AcDbLine
 10
60.75302
 20
18.145354
 30
0.0
 11
-4.805798
 21
18.145354
 31
0.0
  0
LINE
  5
380
100
AcDbEntity
  8
1
  6
CONTINUOUS
 62
    15
100
AcDbLine
 10
-4.805798
 20
18.145354
 30
0.0
 11
-4.805798
 21
-1.854646
 31
0.0
  0
LINE
  5
381
100
AcDbEntity
  8
1
  6
CONTINUOUS
 62
    15
100
AcDbLine
 10
-4.805798
 20
-1.854646
 30
0.0
 11
60.75302
 21
-1.854646
 31
0.0
  0
LINE
  5
382
100
AcDbEntity
  8
1
  6
CONTINUOUS
 62
    15
100
AcDbLine
 10
60.75302
 20
-1.854646
 30
0.0
 11
64.494155
 21
4.545354
 31
0.0
  0
LINE
  5
383
100
AcDbEntity
  8
1
  6
CONTINUOUS
 62
    15
100
AcDbLine
 10
64.494155
 20
4.545354
 30
0.0
 11
-4.805798
 21
4.545354
 31
0.0
  0
LINE
  5
384
100
AcDbEntity
  8
1
  6
CONTINUOUS
 62
    15
100
AcDbLine
 10
-4.805798
 20
4.545354
 30
0.0
 11
11.792951
 21
4.545354
 31
0.0
  0
LINE
  5
385
100
AcDbEntity
  8
1
  6
CONTINUOUS
 62
    15
100
AcDbLine
 10
11.792951
 20
4.545354
 30
0.0
 11
11.792951
 21
14.145354
 31
0.0
  0
LINE
  5
386
100
AcDbEntity
  8
1
  6
CONTINUOUS
 62
    15
100
AcDbLine
 10
11.792951
 20
14.145354
 30
0.0
 11
-4.805798
 21
14.145354
 31
0.0
  0
LINE
  5
387
100
AcDbEntity
  8
1
  6
CONTINUOUS
 62
    15
100
AcDbLine
 10
-4.805798
 20
14.145354
 30
0.0
 11
64.494155
 21
14.145354
 31
0.0
  0
LINE
  5
388
100
AcDbEntity
  8
1
  6
CONTINUOUS
 62
    15
100
AcDbLine
 10
-33.805798
 20
18.145354
 30
0.0
 11
-33.805798
 21
-1.854646
 31
0.0
  0
ENDBLK
  5
389
100
AcDbEntity
  8
0
100
AcDbBlockEnd
  0
BLOCK
  5
38C
100
AcDbEntity
  8
FIXING
100
AcDbBlockBegin
  2
8569S
 70
     0
 10
0.0
 20
0.0
 30
0.0
  3
8569S
  1

  0
LINE
  5
38E
100
AcDbEntity
  8
FIXING
  6
CONTINUOUS
 62
    15
100
AcDbLine
 10
-11.305798
 20
-72.843613
 30
0.0
 11
-33.805798
 21
-72.843613
 31
0.0
  0
LINE
  5
38F
100
AcDbEntity
  8
FIXING
  6
CONTINUOUS
 62
    15
100
AcDbLine
 10
-11.305798
 20
-72.843613
 30
0.0
 11
11.194201
 21
-72.843613
 31
0.0
  0
LINE
  5
390
100
AcDbEntity
  8
FIXING
  6
CONTINUOUS
 62
    15
100
AcDbLine
 10
-30.805798
 20
-73.593613
 30
0.0
 11
-33.805798
 21
-72.843613
 31
0.0
  0
LINE
  5
391
100
AcDbEntity
  8
FIXING
  6
CONTINUOUS
 62
    15
100
AcDbLine
 10
-33.805798
 20
-72.843613
 30
0.0
 11
-30.805798
 21
-72.093613
 31
0.0
  0
LINE
  5
392
100
AcDbEntity
  8
FIXING
  6
CONTINUOUS
 62
    15
100
AcDbLine
 10
8.194201
 20
-72.093613
 30
0.0
 11
11.194201
 21
-72.843613
 31
0.0
  0
LINE
  5
393
100
AcDbEntity
  8
FIXING
  6
CONTINUOUS
 62
    15
100
AcDbLine
 10
11.194201
 20
-72.843613
 30
0.0
 11
8.194201
 21
-73.593613
 31
0.0
  0
LINE
  5
394
100
AcDbEntity
  8
FIXING
  6
CONTINUOUS
 62
    15
100
AcDbLine
 10
-33.805798
 20
-58.304817
 30
0.0
 11
-33.805798
 21
-75.443613
 31
0.0
  0
LINE
  5
395
100
AcDbEntity
  8
FIXING
  6
CONTINUOUS
 62
    15
100
AcDbLine
 10
11.194201
 20
-62.533924
 30
0.0
 11
11.194201
 21
-75.443613
 31
0.0
  0
TEXT
  5
396
100
AcDbEntity
  8
FIXING
  6
CONTINUOUS
 62
    15
100
AcDbText
 10
-14.665798
 20
-72.643613
 30
0.0
 40
2.0
  1
45.0
 41
0.9
 11
-14.665798
 21
-72.643613
 31
0.0
100
AcDbText
 73
     1
  0
LINE
  5
397
100
AcDbEntity
  8
FIXING
  6
CONTINUOUS
 62
    15
100
AcDbLine
 10
-11.305798
 20
55.442596
 30
0.0
 11
-36.305798
 21
55.442596
 31
0.0
  0
LINE
  5
398
100
AcDbEntity
  8
FIXING
  6
CONTINUOUS
 62
    15
100
AcDbLine
 10
-11.305798
 20
55.442596
 30
0.0
 11
13.694201
 21
55.442596
 31
0.0
  0
LINE
  5
399
100
AcDbEntity
  8
FIXING
  6
CONTINUOUS
 62
    15
100
AcDbLine
 10
-33.305798
 20
54.692596
 30
0.0
 11
-36.305798
 21
55.442596
 31
0.0
  0
LINE
  5
39A
100
AcDbEntity
  8
FIXING
  6
CONTINUOUS
 62
    15
100
AcDbLine
 10
-36.305798
 20
55.442596
 30
0.0
 11
-33.305798
 21
56.192596
 31
0.0
  0
LINE
  5
39B
100
AcDbEntity
  8
FIXING
  6
CONTINUOUS
 62
    15
100
AcDbLine
 10
10.694201
 20
56.192596
 30
0.0
 11
13.694201
 21
55.442596
 31
0.0
  0
LINE
  5
39C
100
AcDbEntity
  8
FIXING
  6
CONTINUOUS
 62
    15
100
AcDbLine
 10
13.694201
 20
55.442596
 30
0.0
 11
10.694201
 21
54.692596
 31
0.0
  0
LINE
  5
39D
100
AcDbEntity
  8
FIXING
  6
CONTINUOUS
 62
    15
100
AcDbLine
 10
-36.305798
 20
24.232498
 30
0.0
 11
-36.305798
 21
58.042596
 31
0.0
  0
LINE
  5
39E
100
AcDbEntity
  8
FIXING
  6
CONTINUOUS
 62
    15
100
AcDbLine
 10
13.694201
 20
24.232498
 30
0.0
 11
13.694201
 21
58.042596
 31
0.0
  0
TEXT
  5
39F
100
AcDbEntity
  8
FIXING
  6
CONTINUOUS
 62
    15
100
AcDbText
 10
-14.665798
 20
55.642596
 30
0.0
 40
2.0
  1
50.0
 41
0.9
 11
-14.665798
 21
55.642596
 31
0.0
100
AcDbText
 73
     1
  0
TEXT
  5
3A0
100
AcDbEntity
  8
FIXING
  6
CONTINUOUS
 62
    15
100
AcDbText
 10
-13.73805
 20
-90.068085
 30
0.0
 40
2.5
  1
CWF 50                         1:1          PBA
 41
1.284
 11
-13.73805
 21
-90.068085
 31
0.0
100
AcDbText
 73
     1
  0
TEXT
  5
3A1
100
AcDbEntity
  8
FIXING
  6
CONTINUOUS
 62
    15
100
AcDbText
 10
-2.236427
 20
-95.818901
 30
0.0
 40
2.5
  1
NEW CAPEX 50mm
 41
1.284
 11
-2.236427
 21
-95.818901
 31
0.0
100
AcDbText
 73
     1
  0
TEXT
  5
3A2
100
AcDbEntity
  8
FIXING
  6
CONTINUOUS
 62
    15
100
AcDbText
 10
-2.236427
 20
-100.818901
 30
0.0
 40
2.5
  1
WALL FINISHING
 41
1.284
 11
-2.236427
 21
-100.818901
 31
0.0
100
AcDbText
 73
     1
  0
TEXT
  5
3A3
100
AcDbEntity
  8
FIXING
  6
CONTINUOUS
 62
    15
100
AcDbText
 10
105.75103
 20
-100.611244
 30
0.0
 40
2.5
  1
04/04/05
 41
1.284
 11
105.75103
 21
-100.611244
 31
0.0
100
AcDbText
 73
     1
  0
TEXT
  5
3A4
100
AcDbEntity
  8
FIXING
  6
CONTINUOUS
 62
    15
100
AcDbText
 10
-22.044777
 20
-47.575981
 30
0.0
 40
2.5
  1
RAFTER
 41
1.284
 11
-22.044777
 21
-47.575981
 31
0.0
100
AcDbText
 73
     1
  0
TEXT
  5
3A5
100
AcDbEntity
  8
FIXING
  6
CONTINUOUS
 62
    15
100
AcDbText
 10
77.955444
 20
20.475286
 30
0.0
 40
2.5
  1
DOUBLE
 41
1.284
 11
77.955444
 21
20.475286
 31
0.0
100
AcDbText
 73
     1
  0
TEXT
  5
3A6
100
AcDbEntity
  8
FIXING
  6
CONTINUOUS
 62
    15
100
AcDbText
 10
77.955444
 20
15.475286
 30
0.0
 40
2.5
  1
GLAZING
 41
1.284
 11
77.955444
 21
15.475286
 31
0.0
100
AcDbText
 73
     1
  0
TEXT
  5
3A7
100
AcDbEntity
  8
FIXING
  6
CONTINUOUS
 62
    15
100
AcDbText
 10
-79.872383
 20
39.00568
 30
0.0
 40
2.5
  1
NEW CAPEX 
 41
1.284
 11
-79.872383
 21
39.00568
 31
0.0
100
AcDbText
 73
     1
  0
TEXT
  5
3A8
100
AcDbEntity
  8
FIXING
  6
CONTINUOUS
 62
    15
100
AcDbText
 10
-79.872383
 20
34.00568
 30
0.0
 40
2.5
  1
WITH CONCELED
 41
1.284
 11
-79.872383
 21
34.00568
 31
0.0
100
AcDbText
 73
     1
  0
TEXT
  5
3A9
100
AcDbEntity
  8
FIXING
  6
CONTINUOUS
 62
    15
100
AcDbText
 10
-79.872383
 20
29.00568
 30
0.0
 40
2.5
  1
SCREW CHANNEL
 41
1.284
 11
-79.872383
 21
29.00568
 31
0.0
100
AcDbText
 73
     1
  0
LINE
  5
3AA
100
AcDbEntity
  8
FIXING
  6
CONTINUOUS
 62
    15
100
AcDbLine
 10
-10.013964
 20
-24.28672
 30
0.0
 11
-12.358164
 21
-23.43352
 31
0.0
  0
LINE
  5
3AB
100
AcDbEntity
  8
FIXING
  6
CONTINUOUS
 62
    15
100
AcDbLine
 10
-12.358164
 20
-23.43352
 30
0.0
 11
-10.013964
 21
-24.28672
 31
0.0
  0
LINE
  5
3AC
100
AcDbEntity
  8
FIXING
  6
CONTINUOUS
 62
    15
100
AcDbLine
 10
-10.014164
 20
-23.43352
 30
0.0
 11
-10.014164
 21
-24.28652
 31
0.0
  0
LINE
  5
3AD
100
AcDbEntity
  8
FIXING
  6
CONTINUOUS
 62
    15
100
AcDbLine
 10
-10.014164
 20
-24.28652
 30
0.0
 11
-10.014164
 21
-22.58322
 31
0.0
  0
LINE
  5
3AE
100
AcDbEntity
  8
FIXING
  6
CONTINUOUS
 62
    15
100
AcDbLine
 10
-10.014164
 20
-22.58322
 30
0.0
 11
-10.014164
 21
-24.28652
 31
0.0
  0
LINE
  5
3AF
100
AcDbEntity
  8
FIXING
  6
CONTINUOUS
 62
    15
100
AcDbLine
 10
-10.014164
 20
-24.28652
 30
0.0
 11
-10.014164
 21
-23.43352
 31
0.0
  0
LINE
  5
3B0
100
AcDbEntity
  8
FIXING
  6
CONTINUOUS
 62
    15
100
AcDbLine
 10
-10.014164
 20
-22.58322
 30
0.0
 11
-10.014164
 21
-24.28652
 31
0.0
  0
LINE
  5
3B1
100
AcDbEntity
  8
FIXING
  6
CONTINUOUS
 62
    15
100
AcDbLine
 10
-10.014164
 20
-24.28652
 30
0.0
 11
-9.085964
 21
-24.66122
 31
0.0
  0
LINE
  5
3B2
100
AcDbEntity
  8
FIXING
  6
CONTINUOUS
 62
    15
100
AcDbLine
 10
-9.085964
 20
-24.66122
 30
0.0
 11
-13.286064
 21
-23.80802
 31
0.0
  0
LINE
  5
3B3
100
AcDbEntity
  8
FIXING
  6
CONTINUOUS
 62
    15
100
AcDbLine
 10
-13.286064
 20
-23.80802
 30
0.0
 11
-12.358064
 21
-24.17212
 31
0.0
  0
LINE
  5
3B4
100
AcDbEntity
  8
FIXING
  6
CONTINUOUS
 62
    15
100
AcDbLine
 10
-12.358064
 20
-24.17212
 30
0.0
 11
-10.013964
 21
-25.02522
 31
0.0
  0
LINE
  5
3B5
100
AcDbEntity
  8
FIXING
  6
CONTINUOUS
 62
    15
100
AcDbLine
 10
-12.358064
 20
-24.17212
 30
0.0
 11
-10.013964
 21
-25.02522
 31
0.0
  0
LINE
  5
3B6
100
AcDbEntity
  8
FIXING
  6
CONTINUOUS
 62
    15
100
AcDbLine
 10
-10.013964
 20
-25.02522
 30
0.0
 11
-9.085964
 21
-24.66122
 31
0.0
  0
LINE
  5
3B7
100
AcDbEntity
  8
FIXING
  6
CONTINUOUS
 62
    15
100
AcDbLine
 10
-9.085964
 20
-24.66122
 30
0.0
 11
-13.286064
 21
-23.80802
 31
0.0
  0
LINE
  5
3B8
100
AcDbEntity
  8
FIXING
  6
CONTINUOUS
 62
    15
100
AcDbLine
 10
-13.286064
 20
-23.80802
 30
0.0
 11
-12.358264
 21
-23.43352
 31
0.0
  0
LINE
  5
3B9
100
AcDbEntity
  8
FIXING
  6
CONTINUOUS
 62
    15
100
AcDbLine
 10
-12.358264
 20
-23.43352
 30
0.0
 11
-13.286064
 21
-23.80802
 31
0.0
  0
LINE
  5
3BA
100
AcDbEntity
  8
FIXING
  6
CONTINUOUS
 62
    15
100
AcDbLine
 10
-10.014164
 20
-24.28652
 30
0.0
 11
-9.085964
 21
-24.66122
 31
0.0
  0
LINE
  5
3BB
100
AcDbEntity
  8
FIXING
  6
CONTINUOUS
 62
    15
100
AcDbLine
 10
-9.085964
 20
-24.66122
 30
0.0
 11
-10.013964
 21
-25.02522
 31
0.0
  0
LINE
  5
3BC
100
AcDbEntity
  8
FIXING
  6
CONTINUOUS
 62
    15
100
AcDbLine
 10
-10.013964
 20
-25.02522
 30
0.0
 11
-12.358064
 21
-24.17212
 31
0.0
  0
LINE
  5
3BD
100
AcDbEntity
  8
FIXING
  6
CONTINUOUS
 62
    15
100
AcDbLine
 10
-12.358064
 20
-24.17212
 30
0.0
 11
-13.286064
 21
-23.80802
 31
0.0
  0
LINE
  5
3BE
100
AcDbEntity
  8
FIXING
  6
CONTINUOUS
 62
    15
100
AcDbLine
 10
-13.286064
 20
-23.80802
 30
0.0
 11
-9.085964
 21
-24.66122
 31
0.0
  0
LINE
  5
3BF
100
AcDbEntity
  8
FIXING
  6
CONTINUOUS
 62
    15
100
AcDbLine
 10
-9.085964
 20
-24.66122
 30
0.0
 11
-10.013964
 21
-25.02522
 31
0.0
  0
LINE
  5
3C0
100
AcDbEntity
  8
FIXING
  6
CONTINUOUS
 62
    15
100
AcDbLine
 10
-10.013964
 20
-25.02522
 30
0.0
 11
-12.358064
 21
-24.17212
 31
0.0
  0
LINE
  5
3C1
100
AcDbEntity
  8
FIXING
  6
CONTINUOUS
 62
    15
100
AcDbLine
 10
-12.358564
 20
-27.18222
 30
0.0
 11
-12.358564
 21
-26.72982
 31
0.0
  0
LINE
  5
3C2
100
AcDbEntity
  8
FIXING
  6
CONTINUOUS
 62
    15
100
AcDbLine
 10
-12.358564
 20
-26.72982
 30
0.0
 11
-13.286464
 21
-26.36582
 31
0.0
  0
LINE
  5
3C3
100
AcDbEntity
  8
FIXING
  6
CONTINUOUS
 62
    15
100
AcDbLine
 10
-13.286464
 20
-26.36582
 30
0.0
 11
-9.086464
 21
-27.18222
 31
0.0
  0
LINE
  5
3C4
100
AcDbEntity
  8
FIXING
  6
CONTINUOUS
 62
    15
100
AcDbLine
 10
-9.086464
 20
-27.18222
 30
0.0
 11
-10.064664
 21
-27.56472
 31
0.0
  0
LINE
  5
3C5
100
AcDbEntity
  8
FIXING
  6
CONTINUOUS
 62
    15
100
AcDbLine
 10
-10.064664
 20
-27.56472
 30
0.0
 11
-12.358564
 21
-26.72982
 31
0.0
  0
LINE
  5
3C6
100
AcDbEntity
  8
FIXING
  6
CONTINUOUS
 62
    15
100
AcDbLine
 10
-12.358564
 20
-26.72982
 30
0.0
 11
-10.064664
 21
-27.56472
 31
0.0
  0
LINE
  5
3C7
100
AcDbEntity
  8
FIXING
  6
CONTINUOUS
 62
    15
100
AcDbLine
 10
-10.064664
 20
-27.56472
 30
0.0
 11
-10.280764
 21
-29.20592
 31
0.0
  0
LINE
  5
3C8
100
AcDbEntity
  8
FIXING
  6
CONTINUOUS
 62
    15
100
AcDbLine
 10
-10.280764
 20
-29.20592
 30
0.0
 11
-9.648364
 21
-29.43602
 31
0.0
  0
LINE
  5
3C9
100
AcDbEntity
  8
FIXING
  6
CONTINUOUS
 62
    15
100
AcDbLine
 10
-9.648364
 20
-29.43602
 30
0.0
 11
-10.280764
 21
-29.20592
 31
0.0
  0
LINE
  5
3CA
100
AcDbEntity
  8
FIXING
  6
CONTINUOUS
 62
    15
100
AcDbLine
 10
-9.086464
 20
-27.18222
 30
0.0
 11
-13.286464
 21
-26.36582
 31
0.0
  0
LINE
  5
3CB
100
AcDbEntity
  8
FIXING
  6
CONTINUOUS
 62
    15
100
AcDbLine
 10
-13.286464
 20
-26.36582
 30
0.0
 11
-9.086464
 21
-27.18222
 31
0.0
  0
LINE
  5
3CC
100
AcDbEntity
  8
FIXING
  6
CONTINUOUS
 62
    15
100
AcDbLine
 10
-9.086464
 20
-27.18222
 30
0.0
 11
-10.064664
 21
-27.56472
 31
0.0
  0
LINE
  5
3CD
100
AcDbEntity
  8
FIXING
  6
CONTINUOUS
 62
    15
100
AcDbLine
 10
-10.064664
 20
-27.56472
 30
0.0
 11
-10.280764
 21
-29.20592
 31
0.0
  0
LINE
  5
3CE
100
AcDbEntity
  8
FIXING
  6
CONTINUOUS
 62
    15
100
AcDbLine
 10
-10.280764
 20
-29.20592
 30
0.0
 11
-9.648364
 21
-29.43602
 31
0.0
  0
LINE
  5
3CF
100
AcDbEntity
  8
FIXING
  6
CONTINUOUS
 62
    15
100
AcDbLine
 10
-9.648364
 20
-29.43602
 30
0.0
 11
-10.280764
 21
-29.20592
 31
0.0
  0
LINE
  5
3D0
100
AcDbEntity
  8
FIXING
  6
CONTINUOUS
 62
    15
100
AcDbLine
 10
-10.280764
 20
-29.20592
 30
0.0
 11
-12.181664
 21
-28.52532
 31
0.0
  0
LINE
  5
3D1
100
AcDbEntity
  8
FIXING
  6
CONTINUOUS
 62
    15
100
AcDbLine
 10
-12.181664
 20
-28.52532
 30
0.0
 11
-12.358564
 21
-27.18222
 31
0.0
  0
LINE
  5
3D2
100
AcDbEntity
  8
FIXING
  6
CONTINUOUS
 62
    15
100
AcDbLine
 10
-12.358564
 20
-27.18222
 30
0.0
 11
-12.181664
 21
-28.52532
 31
0.0
  0
LINE
  5
3D3
100
AcDbEntity
  8
FIXING
  6
CONTINUOUS
 62
    15
100
AcDbLine
 10
-12.181664
 20
-28.52532
 30
0.0
 11
-12.881164
 21
-28.80762
 31
0.0
  0
LINE
  5
3D4
100
AcDbEntity
  8
FIXING
  6
CONTINUOUS
 62
    15
100
AcDbLine
 10
-10.014364
 20
-26.84442
 30
0.0
 11
-9.086464
 21
-27.18222
 31
0.0
  0
LINE
  5
3D5
100
AcDbEntity
  8
FIXING
  6
CONTINUOUS
 62
    15
100
AcDbLine
 10
-9.086464
 20
-27.18222
 30
0.0
 11
-10.014364
 21
-26.84442
 31
0.0
  0
LINE
  5
3D6
100
AcDbEntity
  8
FIXING
  6
CONTINUOUS
 62
    15
100
AcDbLine
 10
-10.014364
 20
-26.84442
 30
0.0
 11
-12.358564
 21
-25.99122
 31
0.0
  0
LINE
  5
3D7
100
AcDbEntity
  8
FIXING
  6
CONTINUOUS
 62
    15
100
AcDbLine
 10
-12.358564
 20
-25.99122
 30
0.0
 11
-13.286464
 21
-26.36582
 31
0.0
  0
LINE
  5
3D8
100
AcDbEntity
  8
FIXING
  6
CONTINUOUS
 62
    15
100
AcDbLine
 10
-13.286464
 20
-26.36582
 30
0.0
 11
-12.358564
 21
-26.72982
 31
0.0
  0
LINE
  5
3D9
100
AcDbEntity
  8
FIXING
  6
CONTINUOUS
 62
    15
100
AcDbLine
 10
-12.358564
 20
-26.72982
 30
0.0
 11
-12.358564
 21
-27.18222
 31
0.0
  0
LINE
  5
3DA
100
AcDbEntity
  8
FIXING
  6
CONTINUOUS
 62
    15
100
AcDbLine
 10
-12.358564
 20
-27.18222
 30
0.0
 11
-12.181664
 21
-28.52532
 31
0.0
  0
LINE
  5
3DB
100
AcDbEntity
  8
FIXING
  6
CONTINUOUS
 62
    15
100
AcDbLine
 10
-12.181664
 20
-28.52532
 30
0.0
 11
-10.280764
 21
-29.20592
 31
0.0
  0
LINE
  5
3DC
100
AcDbEntity
  8
FIXING
  6
CONTINUOUS
 62
    15
100
AcDbLine
 10
-10.280764
 20
-29.20592
 30
0.0
 11
-10.064664
 21
-27.56472
 31
0.0
  0
LINE
  5
3DD
100
AcDbEntity
  8
FIXING
  6
CONTINUOUS
 62
    15
100
AcDbLine
 10
-10.363664
 20
-31.60692
 30
0.0
 11
-10.685264
 21
-31.48992
 31
0.0
  0
LINE
  5
3DE
100
AcDbEntity
  8
FIXING
  6
CONTINUOUS
 62
    15
100
AcDbLine
 10
-10.685264
 20
-31.48992
 30
0.0
 11
-11.809564
 21
-31.09102
 31
0.0
  0
LINE
  5
3DF
100
AcDbEntity
  8
FIXING
  6
CONTINUOUS
 62
    15
100
AcDbLine
 10
-11.809564
 20
-31.09102
 30
0.0
 11
-11.869864
 21
-30.89382
 31
0.0
  0
LINE
  5
3E0
100
AcDbEntity
  8
FIXING
  6
CONTINUOUS
 62
    15
100
AcDbLine
 10
-11.869864
 20
-30.89382
 30
0.0
 11
-12.104464
 21
-29.11232
 31
0.0
  0
LINE
  5
3E1
100
AcDbEntity
  8
FIXING
  6
CONTINUOUS
 62
    15
100
AcDbLine
 10
-12.104464
 20
-29.11232
 30
0.0
 11
-11.869864
 21
-30.89382
 31
0.0
  0
LINE
  5
3E2
100
AcDbEntity
  8
FIXING
  6
CONTINUOUS
 62
    15
100
AcDbLine
 10
-11.869864
 20
-30.89382
 30
0.0
 11
-11.809564
 21
-31.09102
 31
0.0
  0
LINE
  5
3E3
100
AcDbEntity
  8
FIXING
  6
CONTINUOUS
 62
    15
100
AcDbLine
 10
-11.809564
 20
-31.09102
 30
0.0
 11
-12.202364
 21
-31.24952
 31
0.0
  0
LINE
  5
3E4
100
AcDbEntity
  8
FIXING
  6
CONTINUOUS
 62
    15
100
AcDbLine
 10
-12.202364
 20
-31.24952
 30
0.0
 11
-10.363664
 21
-31.60692
 31
0.0
  0
LINE
  5
3E5
100
AcDbEntity
  8
FIXING
  6
CONTINUOUS
 62
    15
100
AcDbLine
 10
-10.685264
 20
-31.48992
 30
0.0
 11
-10.502964
 21
-30.89382
 31
0.0
  0
LINE
  5
3E6
100
AcDbEntity
  8
FIXING
  6
CONTINUOUS
 62
    15
100
AcDbLine
 10
-10.502964
 20
-30.89382
 30
0.0
 11
-10.347064
 21
-29.70922
 31
0.0
  0
LINE
  5
3E7
100
AcDbEntity
  8
FIXING
  6
CONTINUOUS
 62
    15
100
AcDbLine
 10
-10.347064
 20
-29.70922
 30
0.0
 11
-12.104464
 21
-29.11232
 31
0.0
  0
LINE
  5
3E8
100
AcDbEntity
  8
FIXING
  6
CONTINUOUS
 62
    15
100
AcDbLine
 10
-12.104464
 20
-29.11232
 30
0.0
 11
-12.881164
 21
-28.80762
 31
0.0
  0
LINE
  5
3E9
100
AcDbEntity
  8
FIXING
  6
CONTINUOUS
 62
    15
100
AcDbLine
 10
-12.881164
 20
-28.80762
 30
0.0
 11
-12.181664
 21
-28.52532
 31
0.0
  0
LINE
  5
3EA
100
AcDbEntity
  8
FIXING
  6
CONTINUOUS
 62
    15
100
AcDbLine
 10
-12.358564
 20
-26.72982
 30
0.0
 11
-12.358564
 21
-27.18222
 31
0.0
  0
LINE
  5
3EB
100
AcDbEntity
  8
FIXING
  6
CONTINUOUS
 62
    15
100
AcDbLine
 10
-12.358564
 20
-27.18222
 30
0.0
 11
-12.181664
 21
-28.52532
 31
0.0
  0
LINE
  5
3EC
100
AcDbEntity
  8
FIXING
  6
CONTINUOUS
 62
    15
100
AcDbLine
 10
-12.181664
 20
-28.52532
 30
0.0
 11
-10.280764
 21
-29.20592
 31
0.0
  0
LINE
  5
3ED
100
AcDbEntity
  8
FIXING
  6
CONTINUOUS
 62
    15
100
AcDbLine
 10
-10.280764
 20
-29.20592
 30
0.0
 11
-12.181664
 21
-28.52532
 31
0.0
  0
LINE
  5
3EE
100
AcDbEntity
  8
FIXING
  6
CONTINUOUS
 62
    15
100
AcDbLine
 10
-12.181664
 20
-28.52532
 30
0.0
 11
-12.881164
 21
-28.80762
 31
0.0
  0
LINE
  5
3EF
100
AcDbEntity
  8
FIXING
  6
CONTINUOUS
 62
    15
100
AcDbLine
 10
-12.881164
 20
-28.80762
 30
0.0
 11
-12.104464
 21
-29.11232
 31
0.0
  0
LINE
  5
3F0
100
AcDbEntity
  8
FIXING
  6
CONTINUOUS
 62
    15
100
AcDbLine
 10
-12.104464
 20
-29.11232
 30
0.0
 11
-10.347064
 21
-29.70922
 31
0.0
  0
LINE
  5
3F1
100
AcDbEntity
  8
FIXING
  6
CONTINUOUS
 62
    15
100
AcDbLine
 10
-10.347064
 20
-29.70922
 30
0.0
 11
-10.502964
 21
-30.89382
 31
0.0
  0
LINE
  5
3F2
100
AcDbEntity
  8
FIXING
  6
CONTINUOUS
 62
    15
100
AcDbLine
 10
-10.502964
 20
-30.89382
 30
0.0
 11
-10.685264
 21
-31.48992
 31
0.0
  0
LINE
  5
3F3
100
AcDbEntity
  8
FIXING
  6
CONTINUOUS
 62
    15
100
AcDbLine
 10
-10.685264
 20
-31.48992
 30
0.0
 11
-11.809564
 21
-31.09102
 31
0.0
  0
LINE
  5
3F4
100
AcDbEntity
  8
FIXING
  6
CONTINUOUS
 62
    15
100
AcDbLine
 10
-11.809564
 20
-31.09102
 30
0.0
 11
-12.202364
 21
-31.24952
 31
0.0
  0
LINE
  5
3F5
100
AcDbEntity
  8
FIXING
  6
CONTINUOUS
 62
    15
100
AcDbLine
 10
-12.202364
 20
-31.24952
 30
0.0
 11
-10.363664
 21
-31.60692
 31
0.0
  0
LINE
  5
3F6
100
AcDbEntity
  8
FIXING
  6
CONTINUOUS
 62
    15
100
AcDbLine
 10
-10.347064
 20
-29.70922
 30
0.0
 11
-9.648364
 21
-29.43602
 31
0.0
  0
LINE
  5
3F7
100
AcDbEntity
  8
FIXING
  6
CONTINUOUS
 62
    15
100
AcDbLine
 10
-9.648364
 20
-29.43602
 30
0.0
 11
-10.347064
 21
-29.70922
 31
0.0
  0
LINE
  5
3F8
100
AcDbEntity
  8
FIXING
  6
CONTINUOUS
 62
    15
100
AcDbLine
 10
-10.347064
 20
-29.70922
 30
0.0
 11
-12.104464
 21
-29.11232
 31
0.0
  0
LINE
  5
3F9
100
AcDbEntity
  8
FIXING
  6
CONTINUOUS
 62
    15
100
AcDbLine
 10
-12.104464
 20
-29.11232
 30
0.0
 11
-11.869864
 21
-30.89382
 31
0.0
  0
LINE
  5
3FA
100
AcDbEntity
  8
FIXING
  6
CONTINUOUS
 62
    15
100
AcDbLine
 10
-11.869864
 20
-30.89382
 30
0.0
 11
-11.809564
 21
-31.09102
 31
0.0
  0
LINE
  5
3FB
100
AcDbEntity
  8
FIXING
  6
CONTINUOUS
 62
    15
100
AcDbLine
 10
-11.809564
 20
-31.09102
 30
0.0
 11
-12.202364
 21
-31.24952
 31
0.0
  0
LINE
  5
3FC
100
AcDbEntity
  8
FIXING
  6
CONTINUOUS
 62
    15
100
AcDbLine
 10
-12.202364
 20
-31.24952
 30
0.0
 11
-11.700964
 21
-31.44622
 31
0.0
  0
LINE
  5
3FD
100
AcDbEntity
  8
FIXING
  6
CONTINUOUS
 62
    15
100
AcDbLine
 10
-11.700964
 20
-31.44622
 30
0.0
 11
-11.186864
 21
-34.13112
 31
0.0
  0
LINE
  5
3FE
100
AcDbEntity
  8
FIXING
  6
CONTINUOUS
 62
    15
100
AcDbLine
 10
-11.186864
 20
-34.13112
 30
0.0
 11
-10.769464
 21
-31.76562
 31
0.0
  0
LINE
  5
3FF
100
AcDbEntity
  8
FIXING
  6
CONTINUOUS
 62
    15
100
AcDbLine
 10
-10.769464
 20
-31.76562
 30
0.0
 11
-11.700964
 21
-31.44622
 31
0.0
  0
LINE
  5
400
100
AcDbEntity
  8
FIXING
  6
CONTINUOUS
 62
    15
100
AcDbLine
 10
-11.700964
 20
-31.44622
 30
0.0
 11
-12.202364
 21
-31.24952
 31
0.0
  0
LINE
  5
401
100
AcDbEntity
  8
FIXING
  6
CONTINUOUS
 62
    15
100
AcDbLine
 10
-12.202364
 20
-31.24952
 30
0.0
 11
-11.809564
 21
-31.09102
 31
0.0
  0
LINE
  5
402
100
AcDbEntity
  8
FIXING
  6
CONTINUOUS
 62
    15
100
AcDbLine
 10
-9.648364
 20
-29.43602
 30
0.0
 11
-10.347064
 21
-29.70922
 31
0.0
  0
LINE
  5
403
100
AcDbEntity
  8
FIXING
  6
CONTINUOUS
 62
    15
100
AcDbLine
 10
-10.347064
 20
-29.70922
 30
0.0
 11
-9.648364
 21
-29.43602
 31
0.0
  0
LINE
  5
404
100
AcDbEntity
  8
FIXING
  6
CONTINUOUS
 62
    15
100
AcDbLine
 10
-9.648364
 20
-29.43602
 30
0.0
 11
-12.881164
 21
-28.80762
 31
0.0
  0
LINE
  5
405
100
AcDbEntity
  8
FIXING
  6
CONTINUOUS
 62
    15
100
AcDbLine
 10
-12.881164
 20
-28.80762
 30
0.0
 11
-9.648364
 21
-29.43602
 31
0.0
  0
LINE
  5
406
100
AcDbEntity
  8
FIXING
  6
CONTINUOUS
 62
    15
100
AcDbLine
 10
-9.648364
 20
-29.43602
 30
0.0
 11
-10.347064
 21
-29.70922
 31
0.0
  0
LINE
  5
407
100
AcDbEntity
  8
FIXING
  6
CONTINUOUS
 62
    15
100
AcDbLine
 10
-10.347064
 20
-29.70922
 30
0.0
 11
-9.648364
 21
-29.43602
 31
0.0
  0
LINE
  5
408
100
AcDbEntity
  8
FIXING
  6
CONTINUOUS
 62
    15
100
AcDbLine
 10
-10.769464
 20
-31.76562
 30
0.0
 11
-10.363664
 21
-31.60692
 31
0.0
  0
LINE
  5
409
100
AcDbEntity
  8
FIXING
  6
CONTINUOUS
 62
    15
100
AcDbLine
 10
-10.363664
 20
-31.60692
 30
0.0
 11
-12.202364
 21
-31.24952
 31
0.0
  0
LINE
  5
40A
100
AcDbEntity
  8
FIXING
  6
CONTINUOUS
 62
    15
100
AcDbLine
 10
-12.202364
 20
-31.24952
 30
0.0
 11
-11.809564
 21
-31.09102
 31
0.0
  0
LINE
  5
40B
100
AcDbEntity
  8
FIXING
  6
CONTINUOUS
 62
    15
100
AcDbLine
 10
-11.809564
 20
-31.09102
 30
0.0
 11
-10.685264
 21
-31.48992
 31
0.0
  0
LINE
  5
40C
100
AcDbEntity
  8
FIXING
  6
CONTINUOUS
 62
    15
100
AcDbLine
 10
-10.685264
 20
-31.48992
 30
0.0
 11
-10.363664
 21
-31.60692
 31
0.0
  0
LINE
  5
40D
100
AcDbEntity
  8
FIXING
  6
CONTINUOUS
 62
    15
100
AcDbLine
 10
-10.363664
 20
-31.60692
 30
0.0
 11
-10.685264
 21
-31.48992
 31
0.0
  0
LINE
  5
40E
100
AcDbEntity
  8
FIXING
  6
CONTINUOUS
 62
    15
100
AcDbLine
 10
-11.700964
 20
-31.44622
 30
0.0
 11
-12.202364
 21
-31.24952
 31
0.0
  0
LINE
  5
40F
100
AcDbEntity
  8
FIXING
  6
CONTINUOUS
 62
    15
100
AcDbLine
 10
-12.202364
 20
-31.24952
 30
0.0
 11
-10.363664
 21
-31.60692
 31
0.0
  0
LINE
  5
410
100
AcDbEntity
  8
FIXING
  6
CONTINUOUS
 62
    15
100
AcDbLine
 10
-10.363664
 20
-31.60692
 30
0.0
 11
-10.769464
 21
-31.76562
 31
0.0
  0
LINE
  5
411
100
AcDbEntity
  8
FIXING
  6
CONTINUOUS
 62
    15
100
AcDbLine
 10
-10.769464
 20
-31.76562
 30
0.0
 11
-11.700964
 21
-31.44622
 31
0.0
  0
LINE
  5
412
100
AcDbEntity
  8
FIXING
  6
CONTINUOUS
 62
    15
100
AcDbLine
 10
-11.700964
 20
-31.44622
 30
0.0
 11
-11.186864
 21
-34.13112
 31
0.0
  0
LINE
  5
413
100
AcDbEntity
  8
FIXING
  6
CONTINUOUS
 62
    15
100
AcDbLine
 10
-11.186864
 20
-34.13112
 30
0.0
 11
-10.769464
 21
-31.76562
 31
0.0
  0
LINE
  5
414
100
AcDbEntity
  8
FIXING
  6
CONTINUOUS
 62
    15
100
AcDbLine
 10
-10.769464
 20
-31.76562
 30
0.0
 11
-10.363664
 21
-31.60692
 31
0.0
  0
LINE
  5
415
100
AcDbEntity
  8
FIXING
  6
CONTINUOUS
 62
    15
100
AcDbLine
 10
-10.363664
 20
-31.60692
 30
0.0
 11
-12.202364
 21
-31.24952
 31
0.0
  0
LINE
  5
416
100
AcDbEntity
  8
FIXING
  6
CONTINUOUS
 62
    15
100
AcDbLine
 10
-12.358564
 20
-25.99122
 30
0.0
 11
-12.358164
 21
-24.17202
 31
0.0
  0
LINE
  5
417
100
AcDbEntity
  8
FIXING
  6
CONTINUOUS
 62
    15
100
AcDbLine
 10
-10.014222
 20
-25.025126
 30
0.0
 11
-10.014364
 21
-26.84442
 31
0.0
  0
LINE
  5
418
100
AcDbEntity
  8
FIXING
  6
CONTINUOUS
 62
    15
100
AcDbLine
 10
-10.015364
 20
-10.37322
 30
0.0
 11
-10.015264
 21
-12.07662
 31
0.0
  0
LINE
  5
419
100
AcDbEntity
  8
FIXING
  6
CONTINUOUS
 62
    15
100
AcDbLine
 10
-10.015264
 20
-12.07662
 30
0.0
 11
-9.087064
 21
-12.45132
 31
0.0
  0
LINE
  5
41A
100
AcDbEntity
  8
FIXING
  6
CONTINUOUS
 62
    15
100
AcDbLine
 10
-10.015164
 20
-12.81522
 30
0.0
 11
-9.087164
 21
-12.45122
 31
0.0
  0
LINE
  5
41B
100
AcDbEntity
  8
FIXING
  6
CONTINUOUS
 62
    15
100
AcDbLine
 10
-9.087164
 20
-12.45122
 30
0.0
 11
-13.287264
 21
-11.59802
 31
0.0
  0
LINE
  5
41C
100
AcDbEntity
  8
FIXING
  6
CONTINUOUS
 62
    15
100
AcDbLine
 10
-13.287264
 20
-11.59802
 30
0.0
 11
-12.359264
 21
-11.96212
 31
0.0
  0
LINE
  5
41D
100
AcDbEntity
  8
FIXING
  6
CONTINUOUS
 62
    15
100
AcDbLine
 10
-12.359264
 20
-11.96212
 30
0.0
 11
-10.015164
 21
-12.81522
 31
0.0
  0
LINE
  5
41E
100
AcDbEntity
  8
FIXING
  6
CONTINUOUS
 62
    15
100
AcDbLine
 10
-10.015064
 20
-12.07672
 30
0.0
 11
-12.359264
 21
-11.22352
 31
0.0
  0
LINE
  5
41F
100
AcDbEntity
  8
FIXING
  6
CONTINUOUS
 62
    15
100
AcDbLine
 10
-12.359264
 20
-13.66532
 30
0.0
 11
-12.359264
 21
-11.96212
 31
0.0
  0
LINE
  5
420
100
AcDbEntity
  8
FIXING
  6
CONTINUOUS
 62
    15
100
AcDbLine
 10
-12.359264
 20
-11.96212
 30
0.0
 11
-12.359264
 21
-13.66532
 31
0.0
  0
LINE
  5
421
100
AcDbEntity
  8
FIXING
  6
CONTINUOUS
 62
    15
100
AcDbLine
 10
-12.359264
 20
-13.66532
 30
0.0
 11
-12.359264
 21
-11.96212
 31
0.0
  0
LINE
  5
422
100
AcDbEntity
  8
FIXING
  6
CONTINUOUS
 62
    15
100
AcDbLine
 10
-12.359264
 20
-11.96212
 30
0.0
 11
-13.287264
 21
-11.59802
 31
0.0
  0
LINE
  5
423
100
AcDbEntity
  8
FIXING
  6
CONTINUOUS
 62
    15
100
AcDbLine
 10
-13.287264
 20
-11.59802
 30
0.0
 11
-12.359564
 21
-11.22352
 31
0.0
  0
LINE
  5
424
100
AcDbEntity
  8
FIXING
  6
CONTINUOUS
 62
    15
100
AcDbLine
 10
-12.358264
 20
-21.73002
 30
0.0
 11
-10.014164
 21
-22.58322
 31
0.0
  0
LINE
  5
425
100
AcDbEntity
  8
FIXING
  6
CONTINUOUS
 62
    15
100
AcDbLine
 10
-10.014164
 20
-22.58322
 30
0.0
 11
-9.086164
 21
-22.21922
 31
0.0
  0
LINE
  5
426
100
AcDbEntity
  8
FIXING
  6
CONTINUOUS
 62
    15
100
AcDbLine
 10
-9.086164
 20
-22.21922
 30
0.0
 11
-13.286264
 21
-21.36602
 31
0.0
  0
LINE
  5
427
100
AcDbEntity
  8
FIXING
  6
CONTINUOUS
 62
    15
100
AcDbLine
 10
-13.286264
 20
-21.36602
 30
0.0
 11
-12.358264
 21
-21.73002
 31
0.0
  0
LINE
  5
428
100
AcDbEntity
  8
FIXING
  6
CONTINUOUS
 62
    15
100
AcDbLine
 10
-12.358264
 20
-21.73002
 30
0.0
 11
-10.014164
 21
-22.58322
 31
0.0
  0
LINE
  5
429
100
AcDbEntity
  8
FIXING
  6
CONTINUOUS
 62
    15
100
AcDbLine
 10
-10.014164
 20
-22.58322
 30
0.0
 11
-9.086164
 21
-22.21922
 31
0.0
  0
LINE
  5
42A
100
AcDbEntity
  8
FIXING
  6
CONTINUOUS
 62
    15
100
AcDbLine
 10
-9.086164
 20
-22.21922
 30
0.0
 11
-10.014364
 21
-21.84452
 31
0.0
  0
LINE
  5
42B
100
AcDbEntity
  8
FIXING
  6
CONTINUOUS
 62
    15
100
AcDbLine
 10
-10.014364
 20
-21.84452
 30
0.0
 11
-10.014364
 21
-20.14122
 31
0.0
  0
LINE
  5
42C
100
AcDbEntity
  8
FIXING
  6
CONTINUOUS
 62
    15
100
AcDbLine
 10
-10.014364
 20
-20.14122
 30
0.0
 11
-10.014364
 21
-21.84452
 31
0.0
  0
LINE
  5
42D
100
AcDbEntity
  8
FIXING
  6
CONTINUOUS
 62
    15
100
AcDbLine
 10
-10.014164
 20
-22.58322
 30
0.0
 11
-12.358264
 21
-21.73002
 31
0.0
  0
LINE
  5
42E
100
AcDbEntity
  8
FIXING
  6
CONTINUOUS
 62
    15
100
AcDbLine
 10
-12.358264
 20
-21.73002
 30
0.0
 11
-13.286264
 21
-21.36602
 31
0.0
  0
LINE
  5
42F
100
AcDbEntity
  8
FIXING
  6
CONTINUOUS
 62
    15
100
AcDbLine
 10
-13.286264
 20
-21.36602
 30
0.0
 11
-9.086164
 21
-22.21922
 31
0.0
  0
LINE
  5
430
100
AcDbEntity
  8
FIXING
  6
CONTINUOUS
 62
    15
100
AcDbLine
 10
-9.086164
 20
-22.21922
 30
0.0
 11
-10.014364
 21
-21.84452
 31
0.0
  0
LINE
  5
431
100
AcDbEntity
  8
FIXING
  6
CONTINUOUS
 62
    15
100
AcDbLine
 10
-10.014364
 20
-21.84452
 30
0.0
 11
-10.014364
 21
-20.99152
 31
0.0
  0
LINE
  5
432
100
AcDbEntity
  8
FIXING
  6
CONTINUOUS
 62
    15
100
AcDbLine
 10
-10.014364
 20
-20.99152
 30
0.0
 11
-10.014364
 21
-21.84452
 31
0.0
  0
LINE
  5
433
100
AcDbEntity
  8
FIXING
  6
CONTINUOUS
 62
    15
100
AcDbLine
 10
-10.014364
 20
-21.84452
 30
0.0
 11
-9.086164
 21
-22.21922
 31
0.0
  0
LINE
  5
434
100
AcDbEntity
  8
FIXING
  6
CONTINUOUS
 62
    15
100
AcDbLine
 10
-9.086164
 20
-22.21922
 30
0.0
 11
-13.286264
 21
-21.36602
 31
0.0
  0
LINE
  5
435
100
AcDbEntity
  8
FIXING
  6
CONTINUOUS
 62
    15
100
AcDbLine
 10
-13.286264
 20
-21.36602
 30
0.0
 11
-12.358264
 21
-21.73002
 31
0.0
  0
LINE
  5
436
100
AcDbEntity
  8
FIXING
  6
CONTINUOUS
 62
    15
100
AcDbLine
 10
-12.358264
 20
-21.73002
 30
0.0
 11
-10.014164
 21
-22.58322
 31
0.0
  0
LINE
  5
437
100
AcDbEntity
  8
FIXING
  6
CONTINUOUS
 62
    15
100
AcDbLine
 10
-10.014164
 20
-22.58322
 30
0.0
 11
-9.086164
 21
-22.21922
 31
0.0
  0
LINE
  5
438
100
AcDbEntity
  8
FIXING
  6
CONTINUOUS
 62
    15
100
AcDbLine
 10
-9.086164
 20
-22.21922
 30
0.0
 11
-10.014364
 21
-21.84452
 31
0.0
  0
LINE
  5
439
100
AcDbEntity
  8
FIXING
  6
CONTINUOUS
 62
    15
100
AcDbLine
 10
-10.014364
 20
-21.84452
 30
0.0
 11
-10.014364
 21
-20.14122
 31
0.0
  0
LINE
  5
43A
100
AcDbEntity
  8
FIXING
  6
CONTINUOUS
 62
    15
100
AcDbLine
 10
-12.358864
 20
-18.54952
 30
0.0
 11
-13.286564
 21
-18.92402
 31
0.0
  0
LINE
  5
43B
100
AcDbEntity
  8
FIXING
  6
CONTINUOUS
 62
    15
100
AcDbLine
 10
-13.286564
 20
-18.92402
 30
0.0
 11
-9.086464
 21
-19.77712
 31
0.0
  0
LINE
  5
43C
100
AcDbEntity
  8
FIXING
  6
CONTINUOUS
 62
    15
100
AcDbLine
 10
-9.086464
 20
-19.77712
 30
0.0
 11
-10.014464
 21
-20.14122
 31
0.0
  0
LINE
  5
43D
100
AcDbEntity
  8
FIXING
  6
CONTINUOUS
 62
    15
100
AcDbLine
 10
-10.014464
 20
-20.14122
 30
0.0
 11
-12.358564
 21
-19.28802
 31
0.0
  0
LINE
  5
43E
100
AcDbEntity
  8
FIXING
  6
CONTINUOUS
 62
    15
100
AcDbLine
 10
-12.358564
 20
-19.28802
 30
0.0
 11
-12.358564
 21
-20.99132
 31
0.0
  0
LINE
  5
43F
100
AcDbEntity
  8
FIXING
  6
CONTINUOUS
 62
    15
100
AcDbLine
 10
-12.358564
 20
-19.28802
 30
0.0
 11
-12.358564
 21
-20.99132
 31
0.0
  0
LINE
  5
440
100
AcDbEntity
  8
FIXING
  6
CONTINUOUS
 62
    15
100
AcDbLine
 10
-12.358564
 20
-20.99132
 30
0.0
 11
-12.358564
 21
-19.28802
 31
0.0
  0
LINE
  5
441
100
AcDbEntity
  8
FIXING
  6
CONTINUOUS
 62
    15
100
AcDbLine
 10
-12.358564
 20
-19.28802
 30
0.0
 11
-13.286564
 21
-18.92402
 31
0.0
  0
LINE
  5
442
100
AcDbEntity
  8
FIXING
  6
CONTINUOUS
 62
    15
100
AcDbLine
 10
-12.358564
 20
-20.99152
 30
0.0
 11
-13.286264
 21
-21.36602
 31
0.0
  0
LINE
  5
443
100
AcDbEntity
  8
FIXING
  6
CONTINUOUS
 62
    15
100
AcDbLine
 10
-13.286264
 20
-21.36602
 30
0.0
 11
-12.358264
 21
-21.73002
 31
0.0
  0
LINE
  5
444
100
AcDbEntity
  8
FIXING
  6
CONTINUOUS
 62
    15
100
AcDbLine
 10
-12.358264
 20
-21.73002
 30
0.0
 11
-13.286264
 21
-21.36602
 31
0.0
  0
LINE
  5
445
100
AcDbEntity
  8
FIXING
  6
CONTINUOUS
 62
    15
100
AcDbLine
 10
-13.286264
 20
-21.36602
 30
0.0
 11
-12.358564
 21
-20.99152
 31
0.0
  0
LINE
  5
446
100
AcDbEntity
  8
FIXING
  6
CONTINUOUS
 62
    15
100
AcDbLine
 10
-12.358264
 20
-23.43332
 30
0.0
 11
-12.358264
 21
-21.73002
 31
0.0
  0
LINE
  5
447
100
AcDbEntity
  8
FIXING
  6
CONTINUOUS
 62
    15
100
AcDbLine
 10
-12.358264
 20
-21.73002
 30
0.0
 11
-12.358264
 21
-23.43332
 31
0.0
  0
LINE
  5
448
100
AcDbEntity
  8
FIXING
  6
CONTINUOUS
 62
    15
100
AcDbLine
 10
-12.358264
 20
-23.43332
 30
0.0
 11
-12.358264
 21
-21.73002
 31
0.0
  0
LINE
  5
449
100
AcDbEntity
  8
FIXING
  6
CONTINUOUS
 62
    15
100
AcDbLine
 10
-12.358264
 20
-21.73002
 30
0.0
 11
-13.286264
 21
-21.36602
 31
0.0
  0
LINE
  5
44A
100
AcDbEntity
  8
FIXING
  6
CONTINUOUS
 62
    15
100
AcDbLine
 10
-13.286264
 20
-21.36602
 30
0.0
 11
-12.358564
 21
-20.99152
 31
0.0
  0
LINE
  5
44B
100
AcDbEntity
  8
FIXING
  6
CONTINUOUS
 62
    15
100
AcDbLine
 10
-12.358564
 20
-20.99152
 30
0.0
 11
-13.286264
 21
-21.36602
 31
0.0
  0
LINE
  5
44C
100
AcDbEntity
  8
FIXING
  6
CONTINUOUS
 62
    15
100
AcDbLine
 10
-13.286264
 20
-21.36602
 30
0.0
 11
-9.086164
 21
-22.21922
 31
0.0
  0
LINE
  5
44D
100
AcDbEntity
  8
FIXING
  6
CONTINUOUS
 62
    15
100
AcDbLine
 10
-9.086164
 20
-22.21922
 30
0.0
 11
-10.014164
 21
-22.58322
 31
0.0
  0
LINE
  5
44E
100
AcDbEntity
  8
FIXING
  6
CONTINUOUS
 62
    15
100
AcDbLine
 10
-10.014164
 20
-22.58322
 30
0.0
 11
-12.358264
 21
-21.73002
 31
0.0
  0
LINE
  5
44F
100
AcDbEntity
  8
FIXING
  6
CONTINUOUS
 62
    15
100
AcDbLine
 10
-12.359064
 20
-14.40402
 30
0.0
 11
-12.359064
 21
-16.10732
 31
0.0
  0
LINE
  5
450
100
AcDbEntity
  8
FIXING
  6
CONTINUOUS
 62
    15
100
AcDbLine
 10
-12.359064
 20
-16.10732
 30
0.0
 11
-12.359064
 21
-14.40402
 31
0.0
  0
LINE
  5
451
100
AcDbEntity
  8
FIXING
  6
CONTINUOUS
 62
    15
100
AcDbLine
 10
-12.359064
 20
-14.40402
 30
0.0
 11
-13.287064
 21
-14.04002
 31
0.0
  0
LINE
  5
452
100
AcDbEntity
  8
FIXING
  6
CONTINUOUS
 62
    15
100
AcDbLine
 10
-12.359064
 20
-16.10752
 30
0.0
 11
-13.286764
 21
-16.48202
 31
0.0
  0
LINE
  5
453
100
AcDbEntity
  8
FIXING
  6
CONTINUOUS
 62
    15
100
AcDbLine
 10
-13.286764
 20
-16.48202
 30
0.0
 11
-12.358764
 21
-16.84602
 31
0.0
  0
LINE
  5
454
100
AcDbEntity
  8
FIXING
  6
CONTINUOUS
 62
    15
100
AcDbLine
 10
-12.358764
 20
-16.84602
 30
0.0
 11
-13.286764
 21
-16.48202
 31
0.0
  0
LINE
  5
455
100
AcDbEntity
  8
FIXING
  6
CONTINUOUS
 62
    15
100
AcDbLine
 10
-13.286764
 20
-16.48202
 30
0.0
 11
-12.359064
 21
-16.10752
 31
0.0
  0
LINE
  5
456
100
AcDbEntity
  8
FIXING
  6
CONTINUOUS
 62
    15
100
AcDbLine
 10
-12.358564
 20
-19.28812
 30
0.0
 11
-10.014464
 21
-20.14122
 31
0.0
  0
LINE
  5
457
100
AcDbEntity
  8
FIXING
  6
CONTINUOUS
 62
    15
100
AcDbLine
 10
-10.014464
 20
-20.14122
 30
0.0
 11
-9.086464
 21
-19.77722
 31
0.0
  0
LINE
  5
458
100
AcDbEntity
  8
FIXING
  6
CONTINUOUS
 62
    15
100
AcDbLine
 10
-9.086464
 20
-19.77722
 30
0.0
 11
-13.286564
 21
-18.92402
 31
0.0
  0
LINE
  5
459
100
AcDbEntity
  8
FIXING
  6
CONTINUOUS
 62
    15
100
AcDbLine
 10
-13.286564
 20
-18.92402
 30
0.0
 11
-12.358764
 21
-18.54952
 31
0.0
  0
LINE
  5
45A
100
AcDbEntity
  8
FIXING
  6
CONTINUOUS
 62
    15
100
AcDbLine
 10
-12.358764
 20
-18.54952
 30
0.0
 11
-13.286564
 21
-18.92402
 31
0.0
  0
LINE
  5
45B
100
AcDbEntity
  8
FIXING
  6
CONTINUOUS
 62
    15
100
AcDbLine
 10
-10.014664
 20
-17.69922
 30
0.0
 11
-10.014664
 21
-19.40252
 31
0.0
  0
LINE
  5
45C
100
AcDbEntity
  8
FIXING
  6
CONTINUOUS
 62
    15
100
AcDbLine
 10
-10.014664
 20
-19.40252
 30
0.0
 11
-9.086464
 21
-19.77722
 31
0.0
  0
LINE
  5
45D
100
AcDbEntity
  8
FIXING
  6
CONTINUOUS
 62
    15
100
AcDbLine
 10
-9.086464
 20
-19.77722
 30
0.0
 11
-13.286564
 21
-18.92402
 31
0.0
  0
LINE
  5
45E
100
AcDbEntity
  8
FIXING
  6
CONTINUOUS
 62
    15
100
AcDbLine
 10
-13.286564
 20
-18.92402
 30
0.0
 11
-12.358564
 21
-19.28812
 31
0.0
  0
LINE
  5
45F
100
AcDbEntity
  8
FIXING
  6
CONTINUOUS
 62
    15
100
AcDbLine
 10
-12.358564
 20
-19.28812
 30
0.0
 11
-10.014464
 21
-20.14122
 31
0.0
  0
LINE
  5
460
100
AcDbEntity
  8
FIXING
  6
CONTINUOUS
 62
    15
100
AcDbLine
 10
-10.014664
 20
-19.40252
 30
0.0
 11
-9.086464
 21
-19.77722
 31
0.0
  0
LINE
  5
461
100
AcDbEntity
  8
FIXING
  6
CONTINUOUS
 62
    15
100
AcDbLine
 10
-9.086464
 20
-19.77722
 30
0.0
 11
-10.014464
 21
-20.14122
 31
0.0
  0
LINE
  5
462
100
AcDbEntity
  8
FIXING
  6
CONTINUOUS
 62
    15
100
AcDbLine
 10
-10.014464
 20
-20.14122
 30
0.0
 11
-12.358564
 21
-19.28812
 31
0.0
  0
LINE
  5
463
100
AcDbEntity
  8
FIXING
  6
CONTINUOUS
 62
    15
100
AcDbLine
 10
-12.358564
 20
-19.28812
 30
0.0
 11
-13.286564
 21
-18.92402
 31
0.0
  0
LINE
  5
464
100
AcDbEntity
  8
FIXING
  6
CONTINUOUS
 62
    15
100
AcDbLine
 10
-13.286564
 20
-18.92402
 30
0.0
 11
-9.086464
 21
-19.77722
 31
0.0
  0
LINE
  5
465
100
AcDbEntity
  8
FIXING
  6
CONTINUOUS
 62
    15
100
AcDbLine
 10
-9.086464
 20
-19.77722
 30
0.0
 11
-10.014464
 21
-20.14122
 31
0.0
  0
LINE
  5
466
100
AcDbEntity
  8
FIXING
  6
CONTINUOUS
 62
    15
100
AcDbLine
 10
-10.014464
 20
-20.14122
 30
0.0
 11
-12.358564
 21
-19.28812
 31
0.0
  0
LINE
  5
467
100
AcDbEntity
  8
FIXING
  6
CONTINUOUS
 62
    15
100
AcDbLine
 10
-12.359364
 20
-13.66552
 30
0.0
 11
-13.287064
 21
-14.04002
 31
0.0
  0
LINE
  5
468
100
AcDbEntity
  8
FIXING
  6
CONTINUOUS
 62
    15
100
AcDbLine
 10
-13.287064
 20
-14.04002
 30
0.0
 11
-9.086964
 21
-14.89312
 31
0.0
  0
LINE
  5
469
100
AcDbEntity
  8
FIXING
  6
CONTINUOUS
 62
    15
100
AcDbLine
 10
-9.086964
 20
-14.89312
 30
0.0
 11
-10.014964
 21
-15.25722
 31
0.0
  0
LINE
  5
46A
100
AcDbEntity
  8
FIXING
  6
CONTINUOUS
 62
    15
100
AcDbLine
 10
-10.014964
 20
-15.25722
 30
0.0
 11
-12.359064
 21
-14.40402
 31
0.0
  0
LINE
  5
46B
100
AcDbEntity
  8
FIXING
  6
CONTINUOUS
 62
    15
100
AcDbLine
 10
-12.359064
 20
-14.40402
 30
0.0
 11
-12.359064
 21
-16.10732
 31
0.0
  0
LINE
  5
46C
100
AcDbEntity
  8
FIXING
  6
CONTINUOUS
 62
    15
100
AcDbLine
 10
-10.014664
 20
-17.69922
 30
0.0
 11
-12.358764
 21
-16.84602
 31
0.0
  0
LINE
  5
46D
100
AcDbEntity
  8
FIXING
  6
CONTINUOUS
 62
    15
100
AcDbLine
 10
-12.358764
 20
-16.84602
 30
0.0
 11
-13.286764
 21
-16.48202
 31
0.0
  0
LINE
  5
46E
100
AcDbEntity
  8
FIXING
  6
CONTINUOUS
 62
    15
100
AcDbLine
 10
-13.286764
 20
-16.48202
 30
0.0
 11
-9.086664
 21
-17.33522
 31
0.0
  0
LINE
  5
46F
100
AcDbEntity
  8
FIXING
  6
CONTINUOUS
 62
    15
100
AcDbLine
 10
-9.086664
 20
-17.33522
 30
0.0
 11
-10.014864
 21
-16.96052
 31
0.0
  0
LINE
  5
470
100
AcDbEntity
  8
FIXING
  6
CONTINUOUS
 62
    15
100
AcDbLine
 10
-10.014864
 20
-16.96052
 30
0.0
 11
-10.014864
 21
-16.10752
 31
0.0
  0
LINE
  5
471
100
AcDbEntity
  8
FIXING
  6
CONTINUOUS
 62
    15
100
AcDbLine
 10
-10.014864
 20
-16.10752
 30
0.0
 11
-10.014864
 21
-16.96052
 31
0.0
  0
LINE
  5
472
100
AcDbEntity
  8
FIXING
  6
CONTINUOUS
 62
    15
100
AcDbLine
 10
-10.014864
 20
-16.96052
 30
0.0
 11
-9.086664
 21
-17.33522
 31
0.0
  0
LINE
  5
473
100
AcDbEntity
  8
FIXING
  6
CONTINUOUS
 62
    15
100
AcDbLine
 10
-9.086664
 20
-17.33522
 30
0.0
 11
-13.286764
 21
-16.48202
 31
0.0
  0
LINE
  5
474
100
AcDbEntity
  8
FIXING
  6
CONTINUOUS
 62
    15
100
AcDbLine
 10
-13.286764
 20
-16.48202
 30
0.0
 11
-12.358764
 21
-16.84602
 31
0.0
  0
LINE
  5
475
100
AcDbEntity
  8
FIXING
  6
CONTINUOUS
 62
    15
100
AcDbLine
 10
-12.358764
 20
-16.84602
 30
0.0
 11
-10.014664
 21
-17.69922
 31
0.0
  0
LINE
  5
476
100
AcDbEntity
  8
FIXING
  6
CONTINUOUS
 62
    15
100
AcDbLine
 10
-10.014664
 20
-17.69922
 30
0.0
 11
-9.086664
 21
-17.33522
 31
0.0
  0
LINE
  5
477
100
AcDbEntity
  8
FIXING
  6
CONTINUOUS
 62
    15
100
AcDbLine
 10
-9.086664
 20
-17.33522
 30
0.0
 11
-10.014864
 21
-16.96052
 31
0.0
  0
LINE
  5
478
100
AcDbEntity
  8
FIXING
  6
CONTINUOUS
 62
    15
100
AcDbLine
 10
-10.014864
 20
-16.96052
 30
0.0
 11
-10.014864
 21
-15.25722
 31
0.0
  0
LINE
  5
479
100
AcDbEntity
  8
FIXING
  6
CONTINUOUS
 62
    15
100
AcDbLine
 10
-12.358764
 20
-16.84602
 30
0.0
 11
-10.014664
 21
-17.69922
 31
0.0
  0
LINE
  5
47A
100
AcDbEntity
  8
FIXING
  6
CONTINUOUS
 62
    15
100
AcDbLine
 10
-10.014664
 20
-17.69922
 30
0.0
 11
-9.086664
 21
-17.33522
 31
0.0
  0
LINE
  5
47B
100
AcDbEntity
  8
FIXING
  6
CONTINUOUS
 62
    15
100
AcDbLine
 10
-9.086664
 20
-17.33522
 30
0.0
 11
-13.286764
 21
-16.48202
 31
0.0
  0
LINE
  5
47C
100
AcDbEntity
  8
FIXING
  6
CONTINUOUS
 62
    15
100
AcDbLine
 10
-13.286764
 20
-16.48202
 30
0.0
 11
-12.358764
 21
-16.84602
 31
0.0
  0
LINE
  5
47D
100
AcDbEntity
  8
FIXING
  6
CONTINUOUS
 62
    15
100
AcDbLine
 10
-12.358764
 20
-16.84602
 30
0.0
 11
-10.014664
 21
-17.69922
 31
0.0
  0
LINE
  5
47E
100
AcDbEntity
  8
FIXING
  6
CONTINUOUS
 62
    15
100
AcDbLine
 10
-10.014664
 20
-17.69922
 30
0.0
 11
-9.086664
 21
-17.33522
 31
0.0
  0
LINE
  5
47F
100
AcDbEntity
  8
FIXING
  6
CONTINUOUS
 62
    15
100
AcDbLine
 10
-9.086664
 20
-17.33522
 30
0.0
 11
-10.014864
 21
-16.96052
 31
0.0
  0
LINE
  5
480
100
AcDbEntity
  8
FIXING
  6
CONTINUOUS
 62
    15
100
AcDbLine
 10
-10.014864
 20
-16.96052
 30
0.0
 11
-10.014864
 21
-15.25722
 31
0.0
  0
LINE
  5
481
100
AcDbEntity
  8
FIXING
  6
CONTINUOUS
 62
    15
100
AcDbLine
 10
-10.014864
 20
-15.25722
 30
0.0
 11
-10.014864
 21
-16.96052
 31
0.0
  0
LINE
  5
482
100
AcDbEntity
  8
FIXING
  6
CONTINUOUS
 62
    15
100
AcDbLine
 10
-12.358764
 20
-18.54932
 30
0.0
 11
-12.358764
 21
-16.84602
 31
0.0
  0
LINE
  5
483
100
AcDbEntity
  8
FIXING
  6
CONTINUOUS
 62
    15
100
AcDbLine
 10
-12.358764
 20
-16.84602
 30
0.0
 11
-12.358764
 21
-18.54932
 31
0.0
  0
LINE
  5
484
100
AcDbEntity
  8
FIXING
  6
CONTINUOUS
 62
    15
100
AcDbLine
 10
-12.358764
 20
-18.54932
 30
0.0
 11
-12.358764
 21
-16.84602
 31
0.0
  0
LINE
  5
485
100
AcDbEntity
  8
FIXING
  6
CONTINUOUS
 62
    15
100
AcDbLine
 10
-12.358764
 20
-16.84602
 30
0.0
 11
-13.286764
 21
-16.48202
 31
0.0
  0
LINE
  5
486
100
AcDbEntity
  8
FIXING
  6
CONTINUOUS
 62
    15
100
AcDbLine
 10
-13.286764
 20
-16.48202
 30
0.0
 11
-12.359064
 21
-16.10752
 31
0.0
  0
LINE
  5
487
100
AcDbEntity
  8
FIXING
  6
CONTINUOUS
 62
    15
100
AcDbLine
 10
-12.359064
 20
-16.10752
 30
0.0
 11
-13.286764
 21
-16.48202
 31
0.0
  0
LINE
  5
488
100
AcDbEntity
  8
FIXING
  6
CONTINUOUS
 62
    15
100
AcDbLine
 10
-13.286764
 20
-16.48202
 30
0.0
 11
-9.086664
 21
-17.33522
 31
0.0
  0
LINE
  5
489
100
AcDbEntity
  8
FIXING
  6
CONTINUOUS
 62
    15
100
AcDbLine
 10
-9.086664
 20
-17.33522
 30
0.0
 11
-10.014664
 21
-17.69922
 31
0.0
  0
LINE
  5
48A
100
AcDbEntity
  8
FIXING
  6
CONTINUOUS
 62
    15
100
AcDbLine
 10
-10.014664
 20
-17.69922
 30
0.0
 11
-12.358764
 21
-16.84602
 31
0.0
  0
LINE
  5
48B
100
AcDbEntity
  8
FIXING
  6
CONTINUOUS
 62
    15
100
AcDbLine
 10
-10.014664
 20
-18.54952
 30
0.0
 11
-10.014664
 21
-19.40252
 31
0.0
  0
LINE
  5
48C
100
AcDbEntity
  8
FIXING
  6
CONTINUOUS
 62
    15
100
AcDbLine
 10
-10.014664
 20
-19.40252
 30
0.0
 11
-10.014664
 21
-17.69922
 31
0.0
  0
LINE
  5
48D
100
AcDbEntity
  8
FIXING
  6
CONTINUOUS
 62
    15
100
AcDbLine
 10
-10.014664
 20
-17.69922
 30
0.0
 11
-10.014664
 21
-19.40252
 31
0.0
  0
LINE
  5
48E
100
AcDbEntity
  8
FIXING
  6
CONTINUOUS
 62
    15
100
AcDbLine
 10
-10.014664
 20
-19.40252
 30
0.0
 11
-10.014664
 21
-18.54952
 31
0.0
  0
LINE
  5
48F
100
AcDbEntity
  8
FIXING
  6
CONTINUOUS
 62
    15
100
AcDbLine
 10
-10.014364
 20
-20.99152
 30
0.0
 11
-10.014364
 21
-21.84452
 31
0.0
  0
LINE
  5
490
100
AcDbEntity
  8
FIXING
  6
CONTINUOUS
 62
    15
100
AcDbLine
 10
-10.014364
 20
-21.84452
 30
0.0
 11
-10.014364
 21
-20.14122
 31
0.0
  0
LINE
  5
491
100
AcDbEntity
  8
FIXING
  6
CONTINUOUS
 62
    15
100
AcDbLine
 10
-10.014364
 20
-20.14122
 30
0.0
 11
-10.014364
 21
-21.84452
 31
0.0
  0
LINE
  5
492
100
AcDbEntity
  8
FIXING
  6
CONTINUOUS
 62
    15
100
AcDbLine
 10
-10.014364
 20
-21.84452
 30
0.0
 11
-10.014364
 21
-20.99152
 31
0.0
  0
LINE
  5
493
100
AcDbEntity
  8
FIXING
  6
CONTINUOUS
 62
    15
100
AcDbLine
 10
-10.014164
 20
-21.84472
 30
0.0
 11
-12.358364
 21
-20.99142
 31
0.0
  0
LINE
  5
494
100
AcDbEntity
  8
FIXING
  6
CONTINUOUS
 62
    15
100
AcDbLine
 10
-12.358364
 20
-20.99142
 30
0.0
 11
-10.014164
 21
-21.84472
 31
0.0
  0
LINE
  5
495
100
AcDbEntity
  8
FIXING
  6
CONTINUOUS
 62
    15
100
AcDbLine
 10
-10.014164
 20
-21.84472
 30
0.0
 11
-12.358364
 21
-20.99142
 31
0.0
  0
LINE
  5
496
100
AcDbEntity
  8
FIXING
  6
CONTINUOUS
 62
    15
100
AcDbLine
 10
-10.014464
 20
-19.40272
 30
0.0
 11
-12.358664
 21
-18.54952
 31
0.0
  0
LINE
  5
497
100
AcDbEntity
  8
FIXING
  6
CONTINUOUS
 62
    15
100
AcDbLine
 10
-12.358664
 20
-18.54952
 30
0.0
 11
-10.014464
 21
-19.40272
 31
0.0
  0
LINE
  5
498
100
AcDbEntity
  8
FIXING
  6
CONTINUOUS
 62
    15
100
AcDbLine
 10
-9.087164
 20
-12.45122
 30
0.0
 11
-10.015364
 21
-12.07652
 31
0.0
  0
LINE
  5
499
100
AcDbEntity
  8
FIXING
  6
CONTINUOUS
 62
    15
100
AcDbLine
 10
-9.086964
 20
-14.89312
 30
0.0
 11
-10.015164
 21
-14.51852
 31
0.0
  0
LINE
  5
49A
100
AcDbEntity
  8
FIXING
  6
CONTINUOUS
 62
    15
100
AcDbLine
 10
-10.014864
 20
-16.10752
 30
0.0
 11
-10.014864
 21
-16.96052
 31
0.0
  0
LINE
  5
49B
100
AcDbEntity
  8
FIXING
  6
CONTINUOUS
 62
    15
100
AcDbLine
 10
-10.014864
 20
-16.96052
 30
0.0
 11
-10.014864
 21
-15.25722
 31
0.0
  0
LINE
  5
49C
100
AcDbEntity
  8
FIXING
  6
CONTINUOUS
 62
    15
100
AcDbLine
 10
-10.014864
 20
-15.25722
 30
0.0
 11
-10.014864
 21
-16.96052
 31
0.0
  0
LINE
  5
49D
100
AcDbEntity
  8
FIXING
  6
CONTINUOUS
 62
    15
100
AcDbLine
 10
-10.014864
 20
-16.96052
 30
0.0
 11
-10.014864
 21
-16.10752
 31
0.0
  0
LINE
  5
49E
100
AcDbEntity
  8
FIXING
  6
CONTINUOUS
 62
    15
100
AcDbLine
 10
-10.014964
 20
-14.51862
 30
0.0
 11
-12.359164
 21
-13.66542
 31
0.0
  0
LINE
  5
49F
100
AcDbEntity
  8
FIXING
  6
CONTINUOUS
 62
    15
100
AcDbLine
 10
-10.014664
 20
-16.96072
 30
0.0
 11
-12.358864
 21
-16.10742
 31
0.0
  0
LINE
  5
4A0
100
AcDbEntity
  8
FIXING
  6
CONTINUOUS
 62
    15
100
AcDbLine
 10
-12.358864
 20
-16.10742
 30
0.0
 11
-10.014664
 21
-16.96072
 31
0.0
  0
LINE
  5
4A1
100
AcDbEntity
  8
FIXING
  6
CONTINUOUS
 62
    15
100
AcDbLine
 10
-10.014664
 20
-16.96072
 30
0.0
 11
-12.358864
 21
-16.10742
 31
0.0
  0
LINE
  5
4A2
100
AcDbEntity
  8
FIXING
  6
CONTINUOUS
 62
    15
100
AcDbLine
 10
-10.015164
 20
-12.81522
 30
0.0
 11
-10.015164
 21
-14.51852
 31
0.0
  0
LINE
  5
4A3
100
AcDbEntity
  8
FIXING
  6
CONTINUOUS
 62
    15
100
AcDbLine
 10
-10.015164
 20
-14.51852
 30
0.0
 11
-10.015164
 21
-13.66552
 31
0.0
  0
LINE
  5
4A4
100
AcDbEntity
  8
FIXING
  6
CONTINUOUS
 62
    15
100
AcDbLine
 10
-13.287164
 20
-11.59812
 30
0.0
 11
-12.359464
 21
-11.22362
 31
0.0
  0
LINE
  5
4A5
100
AcDbEntity
  8
FIXING
  6
CONTINUOUS
 62
    15
100
AcDbLine
 10
-13.287364
 20
-9.15612
 30
0.0
 11
-12.359664
 21
-8.78162
 31
0.0
  0
LINE
  5
4A6
100
AcDbEntity
  8
FIXING
  6
CONTINUOUS
 62
    15
100
AcDbLine
 10
-12.359364
 20
-11.22342
 30
0.0
 11
-12.359364
 21
-9.52022
 31
0.0
  0
LINE
  5
4A7
100
AcDbEntity
  8
FIXING
  6
CONTINUOUS
 62
    15
100
AcDbLine
 10
-12.359364
 20
-9.52022
 30
0.0
 11
-12.359364
 21
-11.22342
 31
0.0
  0
LINE
  5
4A8
100
AcDbEntity
  8
FIXING
  6
CONTINUOUS
 62
    15
100
AcDbLine
 10
-12.359364
 20
-11.22342
 30
0.0
 11
-12.359364
 21
-9.52022
 31
0.0
  0
LINE
  5
4A9
100
AcDbEntity
  8
FIXING
  6
CONTINUOUS
 62
    15
100
AcDbLine
 10
-12.359364
 20
-9.52022
 30
0.0
 11
-13.287364
 21
-9.15612
 31
0.0
  0
LINE
  5
4AA
100
AcDbEntity
  8
FIXING
  6
CONTINUOUS
 62
    15
100
AcDbLine
 10
-13.287364
 20
-9.15612
 30
0.0
 11
-12.359664
 21
-8.78162
 31
0.0
  0
LINE
  5
4AB
100
AcDbEntity
  8
FIXING
  6
CONTINUOUS
 62
    15
100
AcDbLine
 10
-9.591964
 20
24.10108
 30
0.0
 11
-8.821864
 21
24.54558
 31
0.0
  0
LINE
  5
4AC
100
AcDbEntity
  8
FIXING
  6
CONTINUOUS
 62
    15
100
AcDbLine
 10
-8.821864
 20
24.54558
 30
0.0
 11
-13.553064
 21
24.54548
 31
0.0
  0
LINE
  5
4AD
100
AcDbEntity
  8
FIXING
  6
CONTINUOUS
 62
    15
100
AcDbLine
 10
-13.553064
 20
24.54548
 30
0.0
 11
-14.508364
 21
25.50088
 31
0.0
  0
LINE
  5
4AE
100
AcDbEntity
  8
FIXING
  6
CONTINUOUS
 62
    15
100
AcDbLine
 10
-14.508364
 20
25.50088
 30
0.0
 11
-7.866564
 21
25.50098
 31
0.0
  0
LINE
  5
4AF
100
AcDbEntity
  8
FIXING
  6
CONTINUOUS
 62
    15
100
AcDbLine
 10
-8.821864
 20
26.25488
 30
0.0
 11
-13.553064
 21
26.25478
 31
0.0
  0
LINE
  5
4B0
100
AcDbEntity
  8
FIXING
  6
CONTINUOUS
 62
    15
100
AcDbLine
 10
-13.553064
 20
26.25478
 30
0.0
 11
-14.508364
 21
25.86878
 31
0.0
  0
LINE
  5
4B1
100
AcDbEntity
  8
FIXING
  6
CONTINUOUS
 62
    15
100
AcDbLine
 10
-14.508364
 20
25.86878
 30
0.0
 11
-7.866564
 21
25.86888
 31
0.0
  0
LINE
  5
4B2
100
AcDbEntity
  8
FIXING
  6
CONTINUOUS
 62
    15
100
AcDbLine
 10
-13.553064
 20
26.25478
 30
0.0
 11
-8.821864
 21
26.25488
 31
0.0
  0
LINE
  5
4B3
100
AcDbEntity
  8
FIXING
  6
CONTINUOUS
 62
    15
100
AcDbLine
 10
-8.821864
 20
26.25488
 30
0.0
 11
-7.866564
 21
25.86888
 31
0.0
  0
LINE
  5
4B4
100
AcDbEntity
  8
FIXING
  6
CONTINUOUS
 62
    15
100
AcDbLine
 10
-7.866564
 20
25.86888
 30
0.0
 11
-7.866564
 21
25.50098
 31
0.0
  0
LINE
  5
4B5
100
AcDbEntity
  8
FIXING
  6
CONTINUOUS
 62
    15
100
AcDbLine
 10
-7.866564
 20
25.50098
 30
0.0
 11
-8.821864
 21
24.54558
 31
0.0
  0
LINE
  5
4B6
100
AcDbEntity
  8
FIXING
  6
CONTINUOUS
 62
    15
100
AcDbLine
 10
-8.821864
 20
24.54558
 30
0.0
 11
-13.553064
 21
24.54548
 31
0.0
  0
LINE
  5
4B7
100
AcDbEntity
  8
FIXING
  6
CONTINUOUS
 62
    15
100
AcDbLine
 10
-13.553064
 20
24.54548
 30
0.0
 11
-12.783164
 21
24.10108
 31
0.0
  0
LINE
  5
4B8
100
AcDbEntity
  8
FIXING
  6
CONTINUOUS
 62
    15
100
AcDbLine
 10
-10.015364
 20
-10.37322
 30
0.0
 11
-9.087364
 21
-10.00922
 31
0.0
  0
LINE
  5
4B9
100
AcDbEntity
  8
FIXING
  6
CONTINUOUS
 62
    15
100
AcDbLine
 10
-9.087364
 20
-10.00922
 30
0.0
 11
-13.287464
 21
-9.15602
 31
0.0
  0
LINE
  5
4BA
100
AcDbEntity
  8
FIXING
  6
CONTINUOUS
 62
    15
100
AcDbLine
 10
-13.287464
 20
-9.15602
 30
0.0
 11
-12.359464
 21
-9.52012
 31
0.0
  0
LINE
  5
4BB
100
AcDbEntity
  8
FIXING
  6
CONTINUOUS
 62
    15
100
AcDbLine
 10
-12.359464
 20
-9.52012
 30
0.0
 11
-10.015364
 21
-10.37322
 31
0.0
  0
ARC
  5
4BC
100
AcDbEntity
  8
FIXING
  6
CONTINUOUS
 62
    15
100
AcDbCircle
 10
-12.978464
 20
23.76268
 30
0.0
 40
0.3907
100
AcDbArc
 50
0.0
 51
59.9996
  0
ARC
  5
4BD
100
AcDbEntity
  8
FIXING
  6
CONTINUOUS
 62
    15
100
AcDbCircle
 10
-9.396564
 20
23.76268
 30
0.0
 40
0.3907
100
AcDbArc
 50
120.0005
 51
180.0
  0
LINE
  5
4BE
100
AcDbEntity
  8
FIXING
  6
CONTINUOUS
 62
    15
100
AcDbLine
 10
-9.087364
 20
-10.00922
 30
0.0
 11
-10.015564
 21
-9.63452
 31
0.0
  0
LINE
  5
4BF
100
AcDbEntity
  8
FIXING
  6
CONTINUOUS
 62
    15
100
AcDbLine
 10
-10.015464
 20
-8.78162
 30
0.0
 11
-10.015464
 21
-9.63462
 31
0.0
  0
LINE
  5
4C0
100
AcDbEntity
  8
FIXING
  6
CONTINUOUS
 62
    15
100
AcDbLine
 10
-10.015464
 20
-9.63462
 30
0.0
 11
-9.087264
 21
-10.00932
 31
0.0
  0
LINE
  5
4C1
100
AcDbEntity
  8
FIXING
  6
CONTINUOUS
 62
    15
100
AcDbLine
 10
-12.587764
 20
23.76268
 30
0.0
 11
-12.587764
 21
23.49988
 31
0.0
  0
LINE
  5
4C2
100
AcDbEntity
  8
FIXING
  6
CONTINUOUS
 62
    15
100
AcDbLine
 10
-12.587764
 20
23.49988
 30
0.0
 11
-11.935164
 21
23.49988
 31
0.0
  0
LINE
  5
4C3
100
AcDbEntity
  8
FIXING
  6
CONTINUOUS
 62
    15
100
AcDbLine
 10
-9.787364
 20
23.76268
 30
0.0
 11
-9.787364
 21
23.49988
 31
0.0
  0
LINE
  5
4C4
100
AcDbEntity
  8
FIXING
  6
CONTINUOUS
 62
    15
100
AcDbLine
 10
-9.787364
 20
23.49988
 30
0.0
 11
-9.862764
 21
22.74558
 31
0.0
  0
LINE
  5
4C5
100
AcDbEntity
  8
FIXING
  6
CONTINUOUS
 62
    15
100
AcDbLine
 10
-12.359664
 20
21.21838
 30
0.0
 11
-10.015464
 21
21.21838
 31
0.0
  0
LINE
  5
4C6
100
AcDbEntity
  8
FIXING
  6
CONTINUOUS
 62
    15
100
AcDbLine
 10
-10.015464
 20
21.21838
 30
0.0
 11
-9.926964
 21
22.10318
 31
0.0
  0
LINE
  5
4C7
100
AcDbEntity
  8
FIXING
  6
CONTINUOUS
 62
    15
100
AcDbLine
 10
-9.926764
 20
23.49988
 30
0.0
 11
-11.645764
 21
23.49988
 31
0.0
  0
LINE
  5
4C8
100
AcDbEntity
  8
FIXING
  6
CONTINUOUS
 62
    15
100
AcDbLine
 10
-10.015464
 20
-9.63482
 30
0.0
 11
-12.359664
 21
-8.78162
 31
0.0
  0
LINE
  5
4C9
100
AcDbEntity
  8
FIXING
  6
CONTINUOUS
 62
    15
100
AcDbLine
 10
-12.359664
 20
21.21838
 30
0.0
 11
-12.543364
 21
23.05548
 31
0.0
  0
LINE
  5
4CA
100
AcDbEntity
  8
FIXING
  6
CONTINUOUS
 62
    15
100
AcDbLine
 10
-9.787364
 20
23.98828
 30
0.0
 11
-12.587764
 21
23.98828
 31
0.0
  0
LINE
  5
4CB
100
AcDbEntity
  8
FIXING
  6
CONTINUOUS
 62
    15
100
AcDbLine
 10
-14.508364
 20
25.86878
 30
0.0
 11
-14.508364
 21
25.50088
 31
0.0
  0
LINE
  5
4CC
100
AcDbEntity
  8
FIXING
  6
CONTINUOUS
 62
    15
100
AcDbLine
 10
-12.359664
 20
-8.78162
 30
0.0
 11
-10.015464
 21
-8.78162
 31
0.0
  0
LINE
  5
4CD
100
AcDbEntity
  8
FIXING
  6
CONTINUOUS
 62
    15
100
AcDbLine
 10
-10.015464
 20
-8.78162
 30
0.0
 11
-10.015464
 21
21.21838
 31
0.0
  0
LINE
  5
4CE
100
AcDbEntity
  8
FIXING
  6
CONTINUOUS
 62
    15
100
AcDbLine
 10
-12.359664
 20
-8.78162
 30
0.0
 11
-12.359664
 21
21.21838
 31
0.0
  0
LINE
  5
4CF
100
AcDbEntity
  8
FIXING
  6
CONTINUOUS
 62
    15
100
AcDbLine
 10
-10.015464
 20
21.21838
 30
0.0
 11
-9.787364
 21
23.49988
 31
0.0
  0
LINE
  5
4D0
100
AcDbEntity
  8
FIXING
  6
CONTINUOUS
 62
    15
100
AcDbLine
 10
-12.359664
 20
21.21838
 30
0.0
 11
-12.587764
 21
23.49988
 31
0.0
  0
LINE
  5
4D1
100
AcDbEntity
  8
FIXING
  6
CONTINUOUS
 62
    15
100
AcDbLine
 10
-12.587764
 20
23.49988
 30
0.0
 11
-9.787364
 21
23.49988
 31
0.0
  0
ENDBLK
  5
4D2
100
AcDbEntity
  8
0
100
AcDbBlockEnd
  0
ENDSEC
  0
SECTION
  2
ENTITIES
  0
INSERT
  5
29
100
AcDbEntity
  8
1
100
AcDbBlockReference
  2
GEN_BLOCK
 10
0.0
 20
0.0
 30
0.0
  0
INSERT
  5
56
100
AcDbEntity
  8
1
100
AcDbBlockReference
  2
GEN_BLOCK00001
 10
0.0
 20
0.0
 30
0.0
  0
INSERT
  5
80
100
AcDbEntity
  8
1
100
AcDbBlockReference
  2
GEN_BLOCK00002
 10
0.0
 20
0.0
 30
0.0
  0
INSERT
  5
C3
100
AcDbEntity
  8
1
100
AcDbBlockReference
  2
GEN_BLOCK00003
 10
0.0
 20
0.0
 30
0.0
  0
INSERT
  5
CE
100
AcDbEntity
  8
0
100
AcDbBlockReference
  2
GEN_BLOCK00004
 10
0.0
 20
0.0
 30
0.0
  0
INSERT
  5
279
100
AcDbEntity
  8
0
100
AcDbBlockReference
  2
GEN_BLOCK00005
 10
0.0
 20
0.0
 30
0.0
  0
INSERT
  5
287
100
AcDbEntity
  8
0
100
AcDbBlockReference
  2
PROTO
 10
0.0
 20
0.0
 30
0.0
  0
INSERT
  5
2A5
100
AcDbEntity
  8
GEN_LAYER
100
AcDbBlockReference
  2
GEN_BLOCK00007
 10
0.0
 20
0.0
 30
0.0
  0
INSERT
  5
33E
100
AcDbEntity
  8
1
100
AcDbBlockReference
  2
GEN_BLOCK00008
 10
0.0
 20
0.0
 30
0.0
  0
INSERT
  5
38D
100
AcDbEntity
  8
FIXING
100
AcDbBlockReference
  2
8569S
 10
0.0
 20
0.0
 30
0.0
  0
ENDSEC
  0
SECTION
  2
OBJECTS
  0
DICTIONARY
  5
19
100
AcDbDictionary
  3
ACAD_GROUP
350
1A
  3
ACAD_MLINESTYLE
350
1B
  0
DICTIONARY
  5
1A
102
{ACAD_REACTORS
330
19
102
}
100
AcDbDictionary
  0
DICTIONARY
  5
1B
102
{ACAD_REACTORS
330
19
102
}
100
AcDbDictionary
  3
STANDARD
350
1C
  0
MLINESTYLE
  5
1C
102
{ACAD_REACTORS
330
1B
102
}
100
AcDbMlineStyle
  2
STANDARD
 70
     0
  3

 62
     0
 51
90.0
 52
90.0
 71
     2
 49
0.5
 62
   256
  6
BYLAYER
 49
-0.5
 62
   256
  6
BYLAYER
  0
ENDSEC
  0
EOF
