  0
SECTION
  2
HEADER
  9
$ACADVER
  1
AC1012
  9
$DWGCODEPAGE
  3
dos850
  9
$INSBASE
 10
0.0
 20
0.0
 30
0.0
  9
$EXTMIN
 10
-148.650889
 20
-105.112052
 30
0.0
  9
$EXTMAX
 10
148.650889
 20
105.112052
 30
0.0
  9
$LIMMIN
 10
-148.650889
 20
-105.112052
  9
$LIMMAX
 10
0.0
 20
105.112052
  9
$ORTHOMODE
 70
     0
  9
$REGENMODE
 70
     1
  9
$FILLMODE
 70
     1
  9
$QTEXTMODE
 70
     0
  9
$MIRRTEXT
 70
     1
  9
$DRAGMODE
 70
     2
  9
$LTSCALE
 40
1.0
  9
$OSMODE
 70
     0
  9
$ATTMODE
 70
     1
  9
$TEXTSIZE
 40
0.2
  9
$TRACEWID
 40
0.05
  9
$TEXTSTYLE
  7
STANDARD
  9
$CLAYER
  8
0
  9
$CELTYPE
  6
CONTINUOUS
  9
$CECOLOR
 62
   256
  9
$CELTSCALE
 40
1.0
  9
$DELOBJ
 70
     1
  9
$DISPSILH
 70
     0
  9
$DIMSCALE
 40
1.0
  9
$DIMASZ
 40
0.18
  9
$DIMEXO
 40
0.0625
  9
$DIMDLI
 40
0.38
  9
$DIMRND
 40
0.0
  9
$DIMDLE
 40
0.0
  9
$DIMEXE
 40
0.18
  9
$DIMTP
 40
0.0
  9
$DIMTM
 40
0.0
  9
$DIMTXT
 40
0.18
  9
$DIMCEN
 40
0.09
  9
$DIMTSZ
 40
0.0
  9
$DIMTOL
 70
     0
  9
$DIMLIM
 70
     0
  9
$DIMTIH
 70
     1
  9
$DIMTOH
 70
     1
  9
$DIMSE1
 70
     0
  9
$DIMSE2
 70
     0
  9
$DIMTAD
 70
     0
  9
$DIMZIN
 70
     0
  9
$DIMBLK
  1

  9
$DIMASO
 70
     1
  9
$DIMSHO
 70
     1
  9
$DIMPOST
  1

  9
$DIMAPOST
  1

  9
$DIMALT
 70
     0
  9
$DIMALTD
 70
     2
  9
$DIMALTF
 40
25.4
  9
$DIMLFAC
 40
1.0
  9
$DIMTOFL
 70
     0
  9
$DIMTVP
 40
0.0
  9
$DIMTIX
 70
     0
  9
$DIMSOXD
 70
     0
  9
$DIMSAH
 70
     0
  9
$DIMBLK1
  1

  9
$DIMBLK2
  1

  9
$DIMSTYLE
  2
STANDARD
  9
$DIMCLRD
 70
     0
  9
$DIMCLRE
 70
     0
  9
$DIMCLRT
 70
     0
  9
$DIMTFAC
 40
1.0
  9
$DIMGAP
 40
0.09
  9
$DIMJUST
 70
     0
  9
$DIMSD1
 70
     0
  9
$DIMSD2
 70
     0
  9
$DIMTOLJ
 70
     1
  9
$DIMTZIN
 70
     0
  9
$DIMALTZ
 70
     0
  9
$DIMALTTZ
 70
     0
  9
$DIMFIT
 70
     3
  9
$DIMUPT
 70
     0
  9
$DIMUNIT
 70
     2
  9
$DIMDEC
 70
     4
  9
$DIMTDEC
 70
     4
  9
$DIMALTU
 70
     2
  9
$DIMALTTD
 70
     2
  9
$DIMTXSTY
  7
STANDARD
  9
$DIMAUNIT
 70
     0
  9
$LUNITS
 70
     2
  9
$LUPREC
 70
     4
  9
$SKETCHINC
 40
0.1
  9
$FILLETRAD
 40
0.0
  9
$AUNITS
 70
     0
  9
$AUPREC
 70
     0
  9
$MENU
  1
acad
  9
$ELEVATION
 40
0.0
  9
$PELEVATION
 40
0.0
  9
$THICKNESS
 40
0.0
  9
$LIMCHECK
 70
     0
  9
$BLIPMODE
 70
     1
  9
$CHAMFERA
 40
0.0
  9
$CHAMFERB
 40
0.0
  9
$CHAMFERC
 40
0.0
  9
$CHAMFERD
 40
0.0
  9
$SKPOLY
 70
     0
  9
$TDCREATE
 40
0.000000000
  9
$TDUPDATE
 40
0.000000000
  9
$TDINDWG
 40
0.0000000000
  9
$TDUSRTIMER
 40
0.0000000000
  9
$USRTIMER
 70
     1
  9
$ANGBASE
 50
0.0
  9
$ANGDIR
 70
     0
  9
$PDMODE
 70
     0
  9
$PDSIZE
 40
0.0
  9
$PLINEWID
 40
0.0
  9
$COORDS
 70
     0
  9
$SPLFRAME
 70
     0
  9
$SPLINETYPE
 70
     6
  9
$SPLINESEGS
 70
     8
  9
$ATTDIA
 70
     0
  9
$ATTREQ
 70
     1
  9
$HANDLING
 70
     1
  9
$HANDSEED
  5
4E5
  9
$SURFTAB1
 70
     6
  9
$SURFTAB2
 70
     6
  9
$SURFTYPE
 70
     6
  9
$SURFU
 70
     6
  9
$SURFV
 70
     6
  9
$UCSNAME
  2

  9
$UCSORG
 10
0.0
 20
0.0
 30
0.0
  9
$UCSXDIR
 10
1.0
 20
0.0
 30
0.0
  9
$UCSYDIR
 10
0.0
 20
1.0
 30
0.0
  9
$PUCSNAME
  2

  9
$PUCSORG
 10
0.0
 20
0.0
 30
0.0
  9
$PUCSXDIR
 10
1.0
 20
0.0
 30
0.0
  9
$PUCSYDIR
 10
0.0
 20
1.0
 30
0.0
  9
$USERI1
 70
     0
  9
$USERI2
 70
     0
  9
$USERI3
 70
     0
  9
$USERI4
 70
     0
  9
$USERI5
 70
     0
  9
$USERR1
 40
0.0
  9
$USERR2
 40
0.0
  9
$USERR3
 40
0.0
  9
$USERR4
 40
0.0
  9
$USERR5
 40
0.0
  9
$WORLDVIEW
 70
     1
  9
$SHADEDGE
 70
     3
  9
$SHADEDIF
 70
    70
  9
$TILEMODE
 70
     1
  9
$MAXACTVP
 70
    16
  9
$PINSBASE
 10
0.0
 20
0.0
 30
0.0
  9
$PLIMCHECK
 70
     0
  9
$PEXTMIN
 10
1.000000E+20
 20
1.000000E+20
 30
1.000000E+20
  9
$PEXTMAX
 10
-1.000000E+20
 20
-1.000000E+20
 30
-1.000000E+20
  9
$PLIMMIN
 10
0.0
 20
0.0
  9
$PLIMMAX
 10
12.0
 20
9.0
  9
$UNITMODE
 70
     0
  9
$VISRETAIN
 70
     0
  9
$PLINEGEN
 70
     1
  9
$PSLTSCALE
 70
     0
  9
$TREEDEPTH
 70
  3020
  9
$PICKSTYLE
 70
     1
  9
$CMLSTYLE
  2
STANDARD
  9
$CMLJUST
 70
     0
  9
$CMLSCALE
 40
1.0
  9
$SAVEIMAGES
 70
     0
  0
ENDSEC
  0
SECTION
  2
CLASSES
  0
CLASS
  1
LWPOLYLINE
  2
AcDbPolyline
  3
"AutoCAD"
 90
        0
280
     0
281
     1
  0
CLASS
  1
IMAGE
  2
AcDbRasterImage
  3
ISM
 90
      127
280
     0
281
     1
  0
CLASS
  1
OLE2FRAME
  2
AcDbOle2Frame
  3
""
 90
        0
280
     0
281
     1
  0
CLASS
  1
HATCH
  2
AcDbHatch
  3
"ACAD_SEDONA"
 90
        0
280
     0
281
     1
  0
CLASS
  1
DICTIONARYVAR
  2
AcDbDictionaryVar
  3
"AutoCAD"
 90
        0
280
     0
281
     0
  0
CLASS
  1
RASTERVARIABLES
  2
AcDbRasterVariables
  3
ISM
 90
        0
280
     0
281
     0
  0
CLASS
  1
IMAGEDEF
  2
AcDbRasterImageDef
  3
ISM
 90
        0
280
     0
281
     0
  0
CLASS
  1
IMAGEDEF_REACTOR
  2
AcDbRasterImageDefReactor
  3
ISM
 90
        1
280
     0
281
     0
  0
CLASS
  1
IDBUFFER
  2
AcDbIdBuffer
  3
"Acad"
 90
        0
280
     0
281
     0
  0
CLASS
  1
SPATIAL_FILTER
  2
AcDbSpatialFilter
  3
"Acad"
 90
        0
280
     0
281
     0
  0
CLASS
  1
XRECORD
  2
AcDbXrecord
  3
"<Built In>"
 90
        0
280
     0
281
     0
  0
CLASS
  1
SORTENTSTABLE
  2
AcDbSortentsTable
  3
"AutoCAD"
 90
        0
280
     0
281
     0
  0
CLASS
  1
LAYER_INDEX
  2
AcDbLayerIndex
  3
"Acad"
 90
        0
280
     0
281
     0
  0
CLASS
  1
SPATIAL_INDEX
  2
AcDbSpatialIndex
  3
"Acad"
 90
        0
280
     0
281
     0
  0
CLASS
  1
OBJECT_PTR
  2
CAseDLPNTableRecord
  3
"ASE-LPNTableRecord"
 90
        1
280
     0
281
     0
  0
CLASS
  1
LAYOUT
  2
AcDbLayout
  3
"AutoCAD 2000"
 90
        1
280
     0
281
     0
  0
CLASS
  1
PLOTSETTINGS
  2
AcDbPlotSettings
  3
"AutoCAD 2000"
 90
        1
280
     0
281
     0
  0
CLASS
  1
ACDBDICTIONARYWDFLT
  2
AcDbDictionaryWithDefault
  3
"AutoCAD 2000"
 90
        1
280
     0
281
     0
  0
CLASS
  1
ACDBPLACEHOLDER
  2
AcDbPlaceHolder
  3
"AutoCAD 2000"
 90
        1
280
     0
281
     0
  0
ENDSEC
  0
SECTION
  2
TABLES
  0
TABLE
  2
VPORT
  5
7
100
AcDbSymbolTable
 70
     1
  0
VPORT
  5
15
100
AcDbSymbolTableRecord
100
AcDbViewportTableRecord
  2
*ACTIVE
 70
     0
 10
0.0
 20
0.0
 11
1.0
 21
1.0
 12
6.591288
 22
4.579184
 13
0.0
 23
0.0
 14
1.0
 24
1.0
 15
0.0
 25
0.0
 16
0.0
 26
0.0
 36
1.0
 17
0.0
 27
0.0
 37
0.0
 40
9.158369
 41
0.688564
 42
50.0
 43
0.0
 44
0.0
 50
0.0
 51
0.0
 71
     0
 72
   100
 73
     1
 74
     1
 75
     0
 76
     0
 77
     0
 78
     0
  0
ENDTAB
  0
TABLE
  2
LTYPE
  5
4
100
AcDbSymbolTable
 70
    11
  0
LTYPE
  5
11
100
AcDbSymbolTableRecord
100
AcDbLinetypeTableRecord
  2
BYBLOCK
 70
    64
  3

 72
    65
 73
     0
 40
0.0
  0
LTYPE
  5
12
100
AcDbSymbolTableRecord
100
AcDbLinetypeTableRecord
  2
BYLAYER
 70
    64
  3

 72
    65
 73
     0
 40
0.0
  0
LTYPE
  5
13
100
AcDbSymbolTableRecord
100
AcDbLinetypeTableRecord
  2
CONTINUOUS
 70
    64
  3
Solid line
 72
    65
 73
     0
 40
0.0
  0
LTYPE
  5
1D
100
AcDbSymbolTableRecord
100
AcDbLinetypeTableRecord
  2
DOT
 70
     0
  3
____    ____    
 72
    65
 73
     4
 40
16.0
 49
4.0
 74
     0
 49
-4.0
 74
     0
 49
4.0
 74
     0
 49
-4.0
 74
     0
  0
LTYPE
  5
1E
100
AcDbSymbolTableRecord
100
AcDbLinetypeTableRecord
  2
HIDDEN
 70
     0
  3
__  __  __  __  
 72
    65
 73
     8
 40
16.0
 49
2.0
 74
     0
 49
-2.0
 74
     0
 49
2.0
 74
     0
 49
-2.0
 74
     0
 49
2.0
 74
     0
 49
-2.0
 74
     0
 49
2.0
 74
     0
 49
-2.0
 74
     0
  0
LTYPE
  5
1F
100
AcDbSymbolTableRecord
100
AcDbLinetypeTableRecord
  2
DASHED
 70
     0
  3
________        
 72
    65
 73
     2
 40
16.0
 49
8.0
 74
     0
 49
-8.0
 74
     0
  0
LTYPE
  5
20
100
AcDbSymbolTableRecord
100
AcDbLinetypeTableRecord
  2
DASHDOT
 70
     0
  3
____________    
 72
    65
 73
     2
 40
16.0
 49
12.0
 74
     0
 49
-4.0
 74
     0
  0
LTYPE
  5
21
100
AcDbSymbolTableRecord
100
AcDbLinetypeTableRecord
  2
BORDER
 70
     0
  3
_____________ _ 
 72
    65
 73
     4
 40
16.0
 49
13.0
 74
     0
 49
-1.0
 74
     0
 49
1.0
 74
     0
 49
-1.0
 74
     0
  0
LTYPE
  5
22
100
AcDbSymbolTableRecord
100
AcDbLinetypeTableRecord
  2
CENTER
 70
     0
  3
_________  ___  
 72
    65
 73
     4
 40
16.0
 49
9.0
 74
     0
 49
-2.0
 74
     0
 49
3.0
 74
     0
 49
-2.0
 74
     0
  0
LTYPE
  5
23
100
AcDbSymbolTableRecord
100
AcDbLinetypeTableRecord
  2
PHANTOM
 70
     0
  3
_______   ___   
 72
    65
 73
     4
 40
16.0
 49
7.0
 74
     0
 49
-3.0
 74
     0
 49
3.0
 74
     0
 49
-3.0
 74
     0
  0
LTYPE
  5
24
100
AcDbSymbolTableRecord
100
AcDbLinetypeTableRecord
  2
DIVIDE
 70
     0
  3
_______  __ __  
 72
    65
 73
     6
 40
16.0
 49
7.0
 74
     0
 49
-2.0
 74
     0
 49
2.0
 74
     0
 49
-1.0
 74
     0
 49
2.0
 74
     0
 49
-2.0
 74
     0
  0
ENDTAB
  0
TABLE
  2
LAYER
  5
2
100
AcDbSymbolTable
 70
     5
  0
LAYER
  5
14
100
AcDbSymbolTableRecord
100
AcDbLayerTableRecord
  2
0
 70
     0
 62
     7
  6
CONTINUOUS
  0
LAYER
  5
26
100
AcDbSymbolTableRecord
100
AcDbLayerTableRecord
  2
1
 70
     0
 62
     1
  6
CONTINUOUS
  0
LAYER
  5
2CE
100
AcDbSymbolTableRecord
100
AcDbLayerTableRecord
  2
PROFILE
 70
     0
 62
     1
  6
CONTINUOUS
  0
LAYER
  5
2DC
100
AcDbSymbolTableRecord
100
AcDbLayerTableRecord
  2
GEN_LAYER
 70
     0
 62
     1
  6
CONTINUOUS
  0
LAYER
  5
3AC
100
AcDbSymbolTableRecord
100
AcDbLayerTableRecord
  2
FIXING
 70
     0
 62
     1
  6
CONTINUOUS
  0
ENDTAB
  0
TABLE
  2
STYLE
  5
3
100
AcDbSymbolTable
 70
     2
  0
STYLE
  5
17
100
AcDbSymbolTableRecord
100
AcDbTextStyleTableRecord
  2
STANDARD
 70
     0
 40
0.0
 41
1.0
 50
0.0
 71
     0
 42
0.0
  3
TXT
  4

  0
STYLE
  5
25
100
AcDbSymbolTableRecord
100
AcDbTextStyleTableRecord
  2
ARIAL
 70
     0
 40
0.2
 41
1.0
 50
0.0
 71
     0
 42
0.2
  3
ARIAL.TTF
  4

  0
ENDTAB
  0
TABLE
  2
VIEW
  5
5
100
AcDbSymbolTable
 70
     0
  0
ENDTAB
  0
TABLE
  2
UCS
  5
6
100
AcDbSymbolTable
 70
     0
  0
ENDTAB
  0
TABLE
  2
APPID
  5
8
100
AcDbSymbolTable
 70
     1
  0
APPID
  5
16
100
AcDbSymbolTableRecord
100
AcDbRegAppTableRecord
  2
ACAD
 70
     0
  0
ENDTAB
  0
TABLE
  2
DIMSTYLE
  5
9
100
AcDbSymbolTable
 70
     1
  0
DIMSTYLE
105
18
100
AcDbSymbolTableRecord
100
AcDbDimStyleTableRecord
  2
STANDARD
 70
     0
  3

  4

  5

  6

  7

 40
1.0
 41
0.18
 42
0.0625
 43
0.38
 44
0.18
 45
0.0
 46
0.0
 47
0.0
 48
0.0
 71
     0
 72
     0
 73
     1
 74
     1
 75
     0
 76
     0
 77
     0
 78
     0
140
0.18
141
0.09
142
0.0
143
25.4
144
1.0
145
0.0
146
1.0
147
0.09
170
     0
171
     2
172
     0
173
     0
174
     0
175
     0
176
     0
177
     0
178
     0
270
     2
271
     4
272
     4
273
     2
274
     2
275
     0
280
     0
281
     0
282
     0
283
     1
284
     0
285
     0
286
     0
287
     0
288
     0
340
17
  0
ENDTAB
  0
TABLE
  2
BLOCK_RECORD
  5
1
100
AcDbSymbolTable
 70
    14
  0
BLOCK_RECORD
  5
A
100
AcDbSymbolTableRecord
100
AcDbBlockTableRecord
  2
*MODEL_SPACE
  0
BLOCK_RECORD
  5
B
100
AcDbSymbolTableRecord
100
AcDbBlockTableRecord
  2
*PAPER_SPACE
  0
BLOCK_RECORD
  5
27
100
AcDbSymbolTableRecord
100
AcDbBlockTableRecord
  2
GEN_BLOCK
  0
BLOCK_RECORD
  5
4B
100
AcDbSymbolTableRecord
100
AcDbBlockTableRecord
  2
GEN_BLOCK00001
  0
BLOCK_RECORD
  5
75
100
AcDbSymbolTableRecord
100
AcDbBlockTableRecord
  2
GEN_BLOCK00002
  0
BLOCK_RECORD
  5
220
100
AcDbSymbolTableRecord
100
AcDbBlockTableRecord
  2
GEN_BLOCK00003
  0
BLOCK_RECORD
  5
22E
100
AcDbSymbolTableRecord
100
AcDbBlockTableRecord
  2
PROTO
  0
BLOCK_RECORD
  5
24B
100
AcDbSymbolTableRecord
100
AcDbBlockTableRecord
  2
GEN_BLOCK00005
  0
BLOCK_RECORD
  5
275
100
AcDbSymbolTableRecord
100
AcDbBlockTableRecord
  2
GEN_BLOCK00006
  0
BLOCK_RECORD
  5
2AF
100
AcDbSymbolTableRecord
100
AcDbBlockTableRecord
  2
GEN_BLOCK00007
  0
BLOCK_RECORD
  5
2CF
100
AcDbSymbolTableRecord
100
AcDbBlockTableRecord
  2
GEN_BLOCK00008
  0
BLOCK_RECORD
  5
2DD
100
AcDbSymbolTableRecord
100
AcDbBlockTableRecord
  2
GEN_BLOCK00009
  0
BLOCK_RECORD
  5
375
100
AcDbSymbolTableRecord
100
AcDbBlockTableRecord
  2
GEN_BLOCK00010
  0
BLOCK_RECORD
  5
37C
100
AcDbSymbolTableRecord
100
AcDbBlockTableRecord
  2
GEN_BLOCK00011
  0
BLOCK_RECORD
  5
38D
100
AcDbSymbolTableRecord
100
AcDbBlockTableRecord
  2
GEN_BLOCK00012
  0
BLOCK_RECORD
  5
3AD
100
AcDbSymbolTableRecord
100
AcDbBlockTableRecord
  2
8569S
  0
ENDTAB
  0
ENDSEC
  0
SECTION
  2
BLOCKS
  0
BLOCK
  5
D
100
AcDbEntity
  8
0
100
AcDbBlockBegin
  2
*MODEL_SPACE
 70
     0
 10
0.0
 20
0.0
 30
0.0
  3
*MODEL_SPACE
  1

  0
ENDBLK
  5
E
100
AcDbEntity
  8
0
100
AcDbBlockEnd
  0
BLOCK
  5
F
100
AcDbEntity
 67
     1
  8
0
100
AcDbBlockBegin
  2
*PAPER_SPACE
 70
     0
 10
0.0
 20
0.0
 30
0.0
  3
*PAPER_SPACE
  1

  0
ENDBLK
  5
10
100
AcDbEntity
 67
     1
  8
0
100
AcDbBlockEnd
  0
BLOCK
  5
28
100
AcDbEntity
  8
1
100
AcDbBlockBegin
  2
GEN_BLOCK
 70
     0
 10
0.0
 20
0.0
 30
0.0
  3
GEN_BLOCK
  1

  0
LINE
  5
2A
100
AcDbEntity
  8
1
  6
CONTINUOUS
 62
    15
100
AcDbLine
 10
3.374293
 20
20.252153
 30
0.0
 11
3.374293
 21
18.202153
 31
0.0
  0
ARC
  5
2B
100
AcDbEntity
  8
1
  6
CONTINUOUS
 62
    15
100
AcDbCircle
 10
3.374293
 20
17.452153
 30
0.0
 40
0.75
100
AcDbArc
 50
-90.0
 51
90.0
  0
LINE
  5
2C
100
AcDbEntity
  8
1
  6
CONTINUOUS
 62
    15
100
AcDbLine
 10
3.374293
 20
16.702153
 30
0.0
 11
2.447516
 21
17.628929
 31
0.0
  0
LINE
  5
2D
100
AcDbEntity
  8
1
  6
CONTINUOUS
 62
    15
100
AcDbLine
 10
2.374293
 20
17.805706
 30
0.0
 11
2.374293
 21
20.252153
 31
0.0
  0
LINE
  5
2E
100
AcDbEntity
  8
1
  6
CONTINUOUS
 62
    15
100
AcDbLine
 10
4.624293
 20
21.502153
 30
0.0
 11
-0.29728
 21
21.502153
 31
0.0
  0
ARC
  5
2F
100
AcDbEntity
  8
1
  6
CONTINUOUS
 62
    15
100
AcDbCircle
 10
-3.125707
 20
20.502153
 30
0.0
 40
3.0
100
AcDbArc
 50
19.471221
 51
90.0
  0
ARC
  5
30
100
AcDbEntity
  8
1
  6
CONTINUOUS
 62
    15
100
AcDbCircle
 10
-3.125707
 20
20.502153
 30
0.0
 40
2.0
100
AcDbArc
 50
19.471221
 51
90.0
  0
LINE
  5
31
100
AcDbEntity
  8
1
  6
CONTINUOUS
 62
    15
100
AcDbLine
 10
4.874293
 20
21.252153
 30
0.0
 11
4.874293
 21
20.752153
 31
0.0
  0
ARC
  5
32
100
AcDbEntity
  8
1
  6
CONTINUOUS
 62
    15
100
AcDbCircle
 10
4.624293
 20
21.252153
 30
0.0
 40
0.25
100
AcDbArc
 50
0.0
 51
90.0
  0
ARC
  5
33
100
AcDbEntity
  8
1
  6
CONTINUOUS
 62
    15
100
AcDbCircle
 10
-0.29728
 20
21.502153
 30
0.0
 40
1.0
100
AcDbArc
 50
-160.528779
 51
-90.0
  0
LINE
  5
34
100
AcDbEntity
  8
1
  6
CONTINUOUS
 62
    15
100
AcDbLine
 10
3.624293
 20
20.502153
 30
0.0
 11
4.624293
 21
20.502153
 31
0.0
  0
ARC
  5
35
100
AcDbEntity
  8
1
  6
CONTINUOUS
 62
    15
100
AcDbCircle
 10
4.624293
 20
20.752153
 30
0.0
 40
0.25
100
AcDbArc
 50
-90.0
 51
0.0
  0
LINE
  5
36
100
AcDbEntity
  8
1
  6
CONTINUOUS
 62
    15
100
AcDbLine
 10
2.124293
 20
20.502153
 30
0.0
 11
-0.29728
 21
20.502153
 31
0.0
  0
ARC
  5
37
100
AcDbEntity
  8
1
  6
CONTINUOUS
 62
    15
100
AcDbCircle
 10
2.124293
 20
20.252153
 30
0.0
 40
0.25
100
AcDbArc
 50
0.0
 51
90.0
  0
ARC
  5
38
100
AcDbEntity
  8
1
  6
CONTINUOUS
 62
    15
100
AcDbCircle
 10
3.624293
 20
20.252153
 30
0.0
 40
0.25
100
AcDbArc
 50
90.0
 51
180.0
  0
ARC
  5
39
100
AcDbEntity
  8
1
  6
CONTINUOUS
 62
    15
100
AcDbCircle
 10
2.624293
 20
17.805706
 30
0.0
 40
0.25
100
AcDbArc
 50
180.0
 51
-135.0
  0
LINE
  5
3A
100
AcDbEntity
  8
1
  6
CONTINUOUS
 62
    15
100
AcDbLine
 10
-9.625707
 20
20.252153
 30
0.0
 11
-9.625707
 21
18.202153
 31
0.0
  0
ARC
  5
3B
100
AcDbEntity
  8
1
  6
CONTINUOUS
 62
    15
100
AcDbCircle
 10
-9.625707
 20
17.452153
 30
0.0
 40
0.75
100
AcDbArc
 50
90.0
 51
-90.0
  0
LINE
  5
3C
100
AcDbEntity
  8
1
  6
CONTINUOUS
 62
    15
100
AcDbLine
 10
-9.625707
 20
16.702153
 30
0.0
 11
-8.69893
 21
17.628929
 31
0.0
  0
LINE
  5
3D
100
AcDbEntity
  8
1
  6
CONTINUOUS
 62
    15
100
AcDbLine
 10
-8.625707
 20
17.805706
 30
0.0
 11
-8.625707
 21
20.252153
 31
0.0
  0
LINE
  5
3E
100
AcDbEntity
  8
1
  6
CONTINUOUS
 62
    15
100
AcDbLine
 10
-10.875707
 20
21.502153
 30
0.0
 11
-5.954134
 21
21.502153
 31
0.0
  0
ARC
  5
3F
100
AcDbEntity
  8
1
  6
CONTINUOUS
 62
    15
100
AcDbCircle
 10
-3.125707
 20
20.502153
 30
0.0
 40
3.0
100
AcDbArc
 50
90.0
 51
160.528779
  0
ARC
  5
40
100
AcDbEntity
  8
1
  6
CONTINUOUS
 62
    15
100
AcDbCircle
 10
-3.125707
 20
20.502153
 30
0.0
 40
2.0
100
AcDbArc
 50
90.0
 51
160.528779
  0
LINE
  5
41
100
AcDbEntity
  8
1
  6
CONTINUOUS
 62
    15
100
AcDbLine
 10
-11.125707
 20
21.252153
 30
0.0
 11
-11.125707
 21
20.752153
 31
0.0
  0
ARC
  5
42
100
AcDbEntity
  8
1
  6
CONTINUOUS
 62
    15
100
AcDbCircle
 10
-10.875707
 20
21.252153
 30
0.0
 40
0.25
100
AcDbArc
 50
90.0
 51
180.0
  0
ARC
  5
43
100
AcDbEntity
  8
1
  6
CONTINUOUS
 62
    15
100
AcDbCircle
 10
-5.954134
 20
21.502153
 30
0.0
 40
1.0
100
AcDbArc
 50
-90.0
 51
-19.471221
  0
LINE
  5
44
100
AcDbEntity
  8
1
  6
CONTINUOUS
 62
    15
100
AcDbLine
 10
-9.875707
 20
20.502153
 30
0.0
 11
-10.875707
 21
20.502153
 31
0.0
  0
ARC
  5
45
100
AcDbEntity
  8
1
  6
CONTINUOUS
 62
    15
100
AcDbCircle
 10
-10.875707
 20
20.752153
 30
0.0
 40
0.25
100
AcDbArc
 50
180.0
 51
-90.0
  0
LINE
  5
46
100
AcDbEntity
  8
1
  6
CONTINUOUS
 62
    15
100
AcDbLine
 10
-8.375707
 20
20.502153
 30
0.0
 11
-5.954134
 21
20.502153
 31
0.0
  0
ARC
  5
47
100
AcDbEntity
  8
1
  6
CONTINUOUS
 62
    15
100
AcDbCircle
 10
-8.375707
 20
20.252153
 30
0.0
 40
0.25
100
AcDbArc
 50
90.0
 51
180.0
  0
ARC
  5
48
100
AcDbEntity
  8
1
  6
CONTINUOUS
 62
    15
100
AcDbCircle
 10
-9.875707
 20
20.252153
 30
0.0
 40
0.25
100
AcDbArc
 50
0.0
 51
90.0
  0
ARC
  5
49
100
AcDbEntity
  8
1
  6
CONTINUOUS
 62
    15
100
AcDbCircle
 10
-8.875707
 20
17.805706
 30
0.0
 40
0.25
100
AcDbArc
 50
-45.0
 51
0.0
  0
ENDBLK
  5
4A
100
AcDbEntity
  8
0
100
AcDbBlockEnd
  0
BLOCK
  5
4C
100
AcDbEntity
  8
1
100
AcDbBlockBegin
  2
GEN_BLOCK00001
 70
     0
 10
0.0
 20
0.0
 30
0.0
  3
GEN_BLOCK00001
  1

  0
LINE
  5
4E
100
AcDbEntity
  8
1
  6
CONTINUOUS
 62
    15
100
AcDbLine
 10
21.562979
 20
12.563535
 30
0.0
 11
20.312979
 21
12.813535
 31
0.0
  0
LINE
  5
4F
100
AcDbEntity
  8
1
  6
CONTINUOUS
 62
    15
100
AcDbLine
 10
20.312979
 20
12.813535
 30
0.0
 11
19.312979
 21
12.813535
 31
0.0
  0
LINE
  5
50
100
AcDbEntity
  8
1
  6
CONTINUOUS
 62
    15
100
AcDbLine
 10
19.312979
 20
12.813535
 30
0.0
 11
18.062979
 21
12.563535
 31
0.0
  0
LINE
  5
51
100
AcDbEntity
  8
1
  6
CONTINUOUS
 62
    15
100
AcDbLine
 10
20.312979
 20
12.303633
 30
0.0
 11
21.562979
 21
12.053633
 31
0.0
  0
LINE
  5
52
100
AcDbEntity
  8
1
  6
CONTINUOUS
 62
    15
100
AcDbLine
 10
21.562979
 20
12.053633
 30
0.0
 11
21.562979
 21
12.563535
 31
0.0
  0
LINE
  5
53
100
AcDbEntity
  8
1
  6
CONTINUOUS
 62
    15
100
AcDbLine
 10
21.562979
 20
12.563535
 30
0.0
 11
20.312979
 21
12.813535
 31
0.0
  0
LINE
  5
54
100
AcDbEntity
  8
1
  6
CONTINUOUS
 62
    15
100
AcDbLine
 10
20.312979
 20
12.813535
 30
0.0
 11
19.312979
 21
12.813535
 31
0.0
  0
LINE
  5
55
100
AcDbEntity
  8
1
  6
CONTINUOUS
 62
    15
100
AcDbLine
 10
19.312979
 20
12.813535
 30
0.0
 11
18.062979
 21
12.563535
 31
0.0
  0
LINE
  5
56
100
AcDbEntity
  8
1
  6
CONTINUOUS
 62
    15
100
AcDbLine
 10
18.062979
 20
12.563535
 30
0.0
 11
18.062979
 21
12.053633
 31
0.0
  0
LINE
  5
57
100
AcDbEntity
  8
1
  6
CONTINUOUS
 62
    15
100
AcDbLine
 10
18.062979
 20
12.053633
 30
0.0
 11
19.362489
 21
12.313535
 31
0.0
  0
LINE
  5
58
100
AcDbEntity
  8
1
  6
CONTINUOUS
 62
    15
100
AcDbLine
 10
19.312979
 20
12.303633
 30
0.0
 11
18.912979
 21
10.313535
 31
0.0
  0
LINE
  5
59
100
AcDbEntity
  8
1
  6
CONTINUOUS
 62
    15
100
AcDbLine
 10
20.712979
 20
10.313535
 30
0.0
 11
20.263469
 21
12.313535
 31
0.0
  0
LINE
  5
5A
100
AcDbEntity
  8
1
  6
CONTINUOUS
 62
    15
100
AcDbLine
 10
20.712979
 20
10.313535
 30
0.0
 11
27.512979
 21
10.313535
 31
0.0
  0
LINE
  5
5B
100
AcDbEntity
  8
1
  6
CONTINUOUS
 62
    15
100
AcDbLine
 10
27.512979
 20
10.313535
 30
0.0
 11
27.284055
 21
12.14493
 31
0.0
  0
LINE
  5
5C
100
AcDbEntity
  8
1
  6
CONTINUOUS
 62
    15
100
AcDbLine
 10
27.432896
 20
12.313535
 30
0.0
 11
28.048557
 21
12.313535
 31
0.0
  0
LINE
  5
5D
100
AcDbEntity
  8
1
  6
CONTINUOUS
 62
    15
100
AcDbLine
 10
28.193222
 20
12.203183
 30
0.0
 11
28.321328
 21
11.735749
 31
0.0
  0
LINE
  5
5E
100
AcDbEntity
  8
1
  6
CONTINUOUS
 62
    15
100
AcDbLine
 10
26.862979
 20
9.063535
 30
0.0
 11
24.862979
 21
9.063535
 31
0.0
  0
LINE
  5
5F
100
AcDbEntity
  8
1
  6
CONTINUOUS
 62
    15
100
AcDbLine
 10
23.662979
 20
9.063535
 30
0.0
 11
21.662979
 21
9.063535
 31
0.0
  0
LINE
  5
60
100
AcDbEntity
  8
1
  6
CONTINUOUS
 62
    15
100
AcDbLine
 10
20.462979
 20
9.063535
 30
0.0
 11
18.562979
 21
9.063535
 31
0.0
  0
LINE
  5
61
100
AcDbEntity
  8
1
  6
CONTINUOUS
 62
    15
100
AcDbLine
 10
17.812979
 20
10.313535
 30
0.0
 11
18.912979
 21
10.313535
 31
0.0
  0
LINE
  5
62
100
AcDbEntity
  8
1
  6
CONTINUOUS
 62
    15
100
AcDbLine
 10
17.478158
 20
9.063535
 30
0.0
 11
17.812979
 21
10.313535
 31
0.0
  0
ARC
  5
63
100
AcDbEntity
  8
1
  6
CONTINUOUS
 62
    15
100
AcDbCircle
 10
28.048557
 20
12.163535
 30
0.0
 40
0.15
100
AcDbArc
 50
15.326302
 51
90.0
  0
ARC
  5
64
100
AcDbEntity
  8
1
  6
CONTINUOUS
 62
    15
100
AcDbCircle
 10
27.432896
 20
12.163535
 30
0.0
 40
0.15
100
AcDbArc
 50
90.0
 51
-172.874984
  0
ARC
  5
65
100
AcDbEntity
  8
1
  6
CONTINUOUS
 62
    15
100
AcDbCircle
 10
32.179073
 20
12.793013
 30
0.0
 40
4.0
100
AcDbArc
 50
-164.673698
 51
-90.278178
  0
ARC
  5
66
100
AcDbEntity
  8
1
  6
CONTINUOUS
 62
    15
100
AcDbCircle
 10
32.301273
 20
8.313535
 30
0.0
 40
0.5
100
AcDbArc
 50
-90.0
 51
76.67158
  0
ARC
  5
67
100
AcDbEntity
  8
1
  6
CONTINUOUS
 62
    15
100
AcDbCircle
 10
31.261689
 20
15.745702
 30
0.0
 40
8.0
100
AcDbArc
 50
-120.685034
 51
-82.037342
  0
ARC
  5
68
100
AcDbEntity
  8
1
  6
CONTINUOUS
 62
    15
100
AcDbCircle
 10
31.261689
 20
15.745702
 30
0.0
 40
8.0
100
AcDbArc
 50
-123.355952
 51
-120.685034
  0
ARC
  5
69
100
AcDbEntity
  8
1
  6
CONTINUOUS
 62
    15
100
AcDbCircle
 10
27.345053
 20
13.800869
 30
0.0
 40
6.0
100
AcDbArc
 50
-127.855995
 51
-93.723584
  0
LINE
  5
6A
100
AcDbEntity
  8
1
  6
CONTINUOUS
 62
    15
100
AcDbLine
 10
26.955394
 20
7.813535
 30
0.0
 11
27.515251
 21
8.313535
 31
0.0
  0
ARC
  5
6B
100
AcDbEntity
  8
1
  6
CONTINUOUS
 62
    15
100
AcDbCircle
 10
27.778103
 20
14.307775
 30
0.0
 40
6.0
100
AcDbArc
 50
-119.068445
 51
-92.510859
  0
ARC
  5
6C
100
AcDbEntity
  8
1
  6
CONTINUOUS
 62
    15
100
AcDbCircle
 10
24.513875
 20
14.772322
 30
0.0
 40
7.0
100
AcDbArc
 50
-125.359119
 51
-96.22046
  0
LINE
  5
6D
100
AcDbEntity
  8
1
  6
CONTINUOUS
 62
    15
100
AcDbLine
 10
23.755394
 20
7.813535
 30
0.0
 11
24.243191
 21
8.313535
 31
0.0
  0
ARC
  5
6E
100
AcDbEntity
  8
1
  6
CONTINUOUS
 62
    15
100
AcDbCircle
 10
24.870609
 20
15.28536
 30
0.0
 40
7.0
100
AcDbArc
 50
-117.273138
 51
-95.142392
  0
ARC
  5
6F
100
AcDbEntity
  8
1
  6
CONTINUOUS
 62
    15
100
AcDbCircle
 10
16.103318
 20
10.781112
 30
0.0
 40
3.0
100
AcDbArc
 50
-81.568617
 51
-34.926525
  0
LINE
  5
70
100
AcDbEntity
  8
1
  6
CONTINUOUS
 62
    15
100
AcDbLine
 10
16.543193
 20
7.813535
 30
0.0
 11
16.065091
 21
8.303196
 31
0.0
  0
LINE
  5
71
100
AcDbEntity
  8
1
  6
CONTINUOUS
 62
    15
100
AcDbLine
 10
16.065091
 20
8.303196
 30
0.0
 11
17.478158
 21
9.063535
 31
0.0
  0
ARC
  5
72
100
AcDbEntity
  8
1
  6
CONTINUOUS
 62
    15
100
AcDbCircle
 10
32.179073
 20
12.793013
 30
0.0
 40
4.0
100
AcDbArc
 50
-164.673698
 51
-92.669838
  0
ARC
  5
73
100
AcDbEntity
  8
1
  6
CONTINUOUS
 62
    15
100
AcDbCircle
 10
32.179073
 20
12.793013
 30
0.0
 40
4.0
100
AcDbArc
 50
-92.669838
 51
-86.596549
  0
ENDBLK
  5
74
100
AcDbEntity
  8
0
100
AcDbBlockEnd
  0
BLOCK
  5
76
100
AcDbEntity
  8
0
100
AcDbBlockBegin
  2
GEN_BLOCK00002
 70
     0
 10
0.0
 20
0.0
 30
0.0
  3
GEN_BLOCK00002
  1

  0
LINE
  5
78
100
AcDbEntity
  8
0
  6
CONTINUOUS
 62
    15
100
AcDbLine
 10
-141.788188
 20
-91.146336
 30
0.0
 11
-141.766552
 21
-91.535756
 31
0.0
  0
LINE
  5
79
100
AcDbEntity
  8
0
  6
CONTINUOUS
 62
    15
100
AcDbLine
 10
-141.766552
 20
-91.535756
 30
0.0
 11
-141.701706
 21
-91.924108
 31
0.0
  0
LINE
  5
7A
100
AcDbEntity
  8
0
  6
CONTINUOUS
 62
    15
100
AcDbLine
 10
-141.701706
 20
-91.924108
 30
0.0
 11
-141.593825
 21
-92.310329
 31
0.0
  0
LINE
  5
7B
100
AcDbEntity
  8
0
  6
CONTINUOUS
 62
    15
100
AcDbLine
 10
-141.593825
 20
-92.310329
 30
0.0
 11
-141.443207
 21
-92.693359
 31
0.0
  0
LINE
  5
7C
100
AcDbEntity
  8
0
  6
CONTINUOUS
 62
    15
100
AcDbLine
 10
-141.443207
 20
-92.693359
 30
0.0
 11
-141.250264
 21
-93.072149
 31
0.0
  0
LINE
  5
7D
100
AcDbEntity
  8
0
  6
CONTINUOUS
 62
    15
100
AcDbLine
 10
-141.250264
 20
-93.072149
 30
0.0
 11
-141.015524
 21
-93.445661
 31
0.0
  0
LINE
  5
7E
100
AcDbEntity
  8
0
  6
CONTINUOUS
 62
    15
100
AcDbLine
 10
-141.015524
 20
-93.445661
 30
0.0
 11
-140.739632
 21
-93.81287
 31
0.0
  0
LINE
  5
7F
100
AcDbEntity
  8
0
  6
CONTINUOUS
 62
    15
100
AcDbLine
 10
-140.739632
 20
-93.81287
 30
0.0
 11
-140.423343
 21
-94.17277
 31
0.0
  0
LINE
  5
80
100
AcDbEntity
  8
0
  6
CONTINUOUS
 62
    15
100
AcDbLine
 10
-140.423343
 20
-94.17277
 30
0.0
 11
-140.067524
 21
-94.524375
 31
0.0
  0
LINE
  5
81
100
AcDbEntity
  8
0
  6
CONTINUOUS
 62
    15
100
AcDbLine
 10
-140.067524
 20
-94.524375
 30
0.0
 11
-139.673151
 21
-94.866721
 31
0.0
  0
LINE
  5
82
100
AcDbEntity
  8
0
  6
CONTINUOUS
 62
    15
100
AcDbLine
 10
-139.673151
 20
-94.866721
 30
0.0
 11
-139.241305
 21
-95.19887
 31
0.0
  0
LINE
  5
83
100
AcDbEntity
  8
0
  6
CONTINUOUS
 62
    15
100
AcDbLine
 10
-139.241305
 20
-95.19887
 30
0.0
 11
-138.773168
 21
-95.519911
 31
0.0
  0
LINE
  5
84
100
AcDbEntity
  8
0
  6
CONTINUOUS
 62
    15
100
AcDbLine
 10
-138.773168
 20
-95.519911
 30
0.0
 11
-138.270025
 21
-95.828965
 31
0.0
  0
LINE
  5
85
100
AcDbEntity
  8
0
  6
CONTINUOUS
 62
    15
100
AcDbLine
 10
-138.270025
 20
-95.828965
 30
0.0
 11
-137.733254
 21
-96.125184
 31
0.0
  0
LINE
  5
86
100
AcDbEntity
  8
0
  6
CONTINUOUS
 62
    15
100
AcDbLine
 10
-137.733254
 20
-96.125184
 30
0.0
 11
-137.164327
 21
-96.407756
 31
0.0
  0
LINE
  5
87
100
AcDbEntity
  8
0
  6
CONTINUOUS
 62
    15
100
AcDbLine
 10
-137.164327
 20
-96.407756
 30
0.0
 11
-136.564803
 21
-96.675906
 31
0.0
  0
LINE
  5
88
100
AcDbEntity
  8
0
  6
CONTINUOUS
 62
    15
100
AcDbLine
 10
-136.564803
 20
-96.675906
 30
0.0
 11
-135.936326
 21
-96.928901
 31
0.0
  0
LINE
  5
89
100
AcDbEntity
  8
0
  6
CONTINUOUS
 62
    15
100
AcDbLine
 10
-135.936326
 20
-96.928901
 30
0.0
 11
-135.280617
 21
-97.166046
 31
0.0
  0
LINE
  5
8A
100
AcDbEntity
  8
0
  6
CONTINUOUS
 62
    15
100
AcDbLine
 10
-135.280617
 20
-97.166046
 30
0.0
 11
-134.599474
 21
-97.386692
 31
0.0
  0
LINE
  5
8B
100
AcDbEntity
  8
0
  6
CONTINUOUS
 62
    15
100
AcDbLine
 10
-134.599474
 20
-97.386692
 30
0.0
 11
-133.894764
 21
-97.590233
 31
0.0
  0
LINE
  5
8C
100
AcDbEntity
  8
0
  6
CONTINUOUS
 62
    15
100
AcDbLine
 10
-133.894764
 20
-97.590233
 30
0.0
 11
-133.168419
 21
-97.776111
 31
0.0
  0
LINE
  5
8D
100
AcDbEntity
  8
0
  6
CONTINUOUS
 62
    15
100
AcDbLine
 10
-133.168419
 20
-97.776111
 30
0.0
 11
-132.42243
 21
-97.943818
 31
0.0
  0
LINE
  5
8E
100
AcDbEntity
  8
0
  6
CONTINUOUS
 62
    15
100
AcDbLine
 10
-132.42243
 20
-97.943818
 30
0.0
 11
-131.658841
 21
-98.092894
 31
0.0
  0
LINE
  5
8F
100
AcDbEntity
  8
0
  6
CONTINUOUS
 62
    15
100
AcDbLine
 10
-131.658841
 20
-98.092894
 30
0.0
 11
-130.879745
 21
-98.22293
 31
0.0
  0
LINE
  5
90
100
AcDbEntity
  8
0
  6
CONTINUOUS
 62
    15
100
AcDbLine
 10
-130.879745
 20
-98.22293
 30
0.0
 11
-130.087278
 21
-98.333569
 31
0.0
  0
LINE
  5
91
100
AcDbEntity
  8
0
  6
CONTINUOUS
 62
    15
100
AcDbLine
 10
-130.087278
 20
-98.333569
 30
0.0
 11
-129.283611
 21
-98.424508
 31
0.0
  0
LINE
  5
92
100
AcDbEntity
  8
0
  6
CONTINUOUS
 62
    15
100
AcDbLine
 10
-129.283611
 20
-98.424508
 30
0.0
 11
-128.470948
 21
-98.495499
 31
0.0
  0
LINE
  5
93
100
AcDbEntity
  8
0
  6
CONTINUOUS
 62
    15
100
AcDbLine
 10
-128.470948
 20
-98.495499
 30
0.0
 11
-127.651516
 21
-98.546346
 31
0.0
  0
LINE
  5
94
100
AcDbEntity
  8
0
  6
CONTINUOUS
 62
    15
100
AcDbLine
 10
-127.651516
 20
-98.546346
 30
0.0
 11
-126.827561
 21
-98.57691
 31
0.0
  0
LINE
  5
95
100
AcDbEntity
  8
0
  6
CONTINUOUS
 62
    15
100
AcDbLine
 10
-126.827561
 20
-98.57691
 30
0.0
 11
-126.001341
 21
-98.587107
 31
0.0
  0
LINE
  5
96
100
AcDbEntity
  8
0
  6
CONTINUOUS
 62
    15
100
AcDbLine
 10
-126.001341
 20
-98.587107
 30
0.0
 11
-125.175121
 21
-98.57691
 31
0.0
  0
LINE
  5
97
100
AcDbEntity
  8
0
  6
CONTINUOUS
 62
    15
100
AcDbLine
 10
-125.175121
 20
-98.57691
 30
0.0
 11
-124.351166
 21
-98.546346
 31
0.0
  0
LINE
  5
98
100
AcDbEntity
  8
0
  6
CONTINUOUS
 62
    15
100
AcDbLine
 10
-124.351166
 20
-98.546346
 30
0.0
 11
-123.531734
 21
-98.495499
 31
0.0
  0
LINE
  5
99
100
AcDbEntity
  8
0
  6
CONTINUOUS
 62
    15
100
AcDbLine
 10
-123.531734
 20
-98.495499
 30
0.0
 11
-122.719071
 21
-98.424508
 31
0.0
  0
LINE
  5
9A
100
AcDbEntity
  8
0
  6
CONTINUOUS
 62
    15
100
AcDbLine
 10
-122.719071
 20
-98.424508
 30
0.0
 11
-121.915405
 21
-98.333569
 31
0.0
  0
LINE
  5
9B
100
AcDbEntity
  8
0
  6
CONTINUOUS
 62
    15
100
AcDbLine
 10
-121.915405
 20
-98.333569
 30
0.0
 11
-121.122937
 21
-98.22293
 31
0.0
  0
LINE
  5
9C
100
AcDbEntity
  8
0
  6
CONTINUOUS
 62
    15
100
AcDbLine
 10
-121.122937
 20
-98.22293
 30
0.0
 11
-120.343841
 21
-98.092894
 31
0.0
  0
LINE
  5
9D
100
AcDbEntity
  8
0
  6
CONTINUOUS
 62
    15
100
AcDbLine
 10
-120.343841
 20
-98.092894
 30
0.0
 11
-119.580252
 21
-97.943818
 31
0.0
  0
LINE
  5
9E
100
AcDbEntity
  8
0
  6
CONTINUOUS
 62
    15
100
AcDbLine
 10
-119.580252
 20
-97.943818
 30
0.0
 11
-118.834263
 21
-97.776111
 31
0.0
  0
LINE
  5
9F
100
AcDbEntity
  8
0
  6
CONTINUOUS
 62
    15
100
AcDbLine
 10
-118.834263
 20
-97.776111
 30
0.0
 11
-118.107918
 21
-97.590233
 31
0.0
  0
LINE
  5
A0
100
AcDbEntity
  8
0
  6
CONTINUOUS
 62
    15
100
AcDbLine
 10
-118.107918
 20
-97.590233
 30
0.0
 11
-117.403208
 21
-97.386692
 31
0.0
  0
LINE
  5
A1
100
AcDbEntity
  8
0
  6
CONTINUOUS
 62
    15
100
AcDbLine
 10
-117.403208
 20
-97.386692
 30
0.0
 11
-116.722066
 21
-97.166046
 31
0.0
  0
LINE
  5
A2
100
AcDbEntity
  8
0
  6
CONTINUOUS
 62
    15
100
AcDbLine
 10
-116.722066
 20
-97.166046
 30
0.0
 11
-116.066357
 21
-96.928901
 31
0.0
  0
LINE
  5
A3
100
AcDbEntity
  8
0
  6
CONTINUOUS
 62
    15
100
AcDbLine
 10
-116.066357
 20
-96.928901
 30
0.0
 11
-115.437879
 21
-96.675906
 31
0.0
  0
LINE
  5
A4
100
AcDbEntity
  8
0
  6
CONTINUOUS
 62
    15
100
AcDbLine
 10
-115.437879
 20
-96.675906
 30
0.0
 11
-114.838355
 21
-96.407756
 31
0.0
  0
LINE
  5
A5
100
AcDbEntity
  8
0
  6
CONTINUOUS
 62
    15
100
AcDbLine
 10
-114.838355
 20
-96.407756
 30
0.0
 11
-114.269428
 21
-96.125184
 31
0.0
  0
LINE
  5
A6
100
AcDbEntity
  8
0
  6
CONTINUOUS
 62
    15
100
AcDbLine
 10
-114.269428
 20
-96.125184
 30
0.0
 11
-113.732657
 21
-95.828965
 31
0.0
  0
LINE
  5
A7
100
AcDbEntity
  8
0
  6
CONTINUOUS
 62
    15
100
AcDbLine
 10
-113.732657
 20
-95.828965
 30
0.0
 11
-113.229514
 21
-95.519911
 31
0.0
  0
LINE
  5
A8
100
AcDbEntity
  8
0
  6
CONTINUOUS
 62
    15
100
AcDbLine
 10
-113.229514
 20
-95.519911
 30
0.0
 11
-112.761378
 21
-95.19887
 31
0.0
  0
LINE
  5
A9
100
AcDbEntity
  8
0
  6
CONTINUOUS
 62
    15
100
AcDbLine
 10
-112.761378
 20
-95.19887
 30
0.0
 11
-112.329531
 21
-94.866721
 31
0.0
  0
LINE
  5
AA
100
AcDbEntity
  8
0
  6
CONTINUOUS
 62
    15
100
AcDbLine
 10
-112.329531
 20
-94.866721
 30
0.0
 11
-111.935158
 21
-94.524375
 31
0.0
  0
LINE
  5
AB
100
AcDbEntity
  8
0
  6
CONTINUOUS
 62
    15
100
AcDbLine
 10
-111.935158
 20
-94.524375
 30
0.0
 11
-111.579339
 21
-94.17277
 31
0.0
  0
LINE
  5
AC
100
AcDbEntity
  8
0
  6
CONTINUOUS
 62
    15
100
AcDbLine
 10
-111.579339
 20
-94.17277
 30
0.0
 11
-111.26305
 21
-93.81287
 31
0.0
  0
LINE
  5
AD
100
AcDbEntity
  8
0
  6
CONTINUOUS
 62
    15
100
AcDbLine
 10
-111.26305
 20
-93.81287
 30
0.0
 11
-110.987158
 21
-93.445661
 31
0.0
  0
LINE
  5
AE
100
AcDbEntity
  8
0
  6
CONTINUOUS
 62
    15
100
AcDbLine
 10
-110.987158
 20
-93.445661
 30
0.0
 11
-110.752419
 21
-93.072149
 31
0.0
  0
LINE
  5
AF
100
AcDbEntity
  8
0
  6
CONTINUOUS
 62
    15
100
AcDbLine
 10
-110.752419
 20
-93.072149
 30
0.0
 11
-110.559475
 21
-92.693359
 31
0.0
  0
LINE
  5
B0
100
AcDbEntity
  8
0
  6
CONTINUOUS
 62
    15
100
AcDbLine
 10
-110.559475
 20
-92.693359
 30
0.0
 11
-110.408857
 21
-92.310329
 31
0.0
  0
LINE
  5
B1
100
AcDbEntity
  8
0
  6
CONTINUOUS
 62
    15
100
AcDbLine
 10
-110.408857
 20
-92.310329
 30
0.0
 11
-110.300977
 21
-91.924108
 31
0.0
  0
LINE
  5
B2
100
AcDbEntity
  8
0
  6
CONTINUOUS
 62
    15
100
AcDbLine
 10
-110.300977
 20
-91.924108
 30
0.0
 11
-110.23613
 21
-91.535756
 31
0.0
  0
LINE
  5
B3
100
AcDbEntity
  8
0
  6
CONTINUOUS
 62
    15
100
AcDbLine
 10
-110.23613
 20
-91.535756
 30
0.0
 11
-110.214495
 21
-91.146336
 31
0.0
  0
LINE
  5
B4
100
AcDbEntity
  8
0
  6
CONTINUOUS
 62
    15
100
AcDbLine
 10
-110.214495
 20
-91.146336
 30
0.0
 11
-110.23613
 21
-90.756916
 31
0.0
  0
LINE
  5
B5
100
AcDbEntity
  8
0
  6
CONTINUOUS
 62
    15
100
AcDbLine
 10
-110.23613
 20
-90.756916
 30
0.0
 11
-110.300977
 21
-90.368564
 31
0.0
  0
LINE
  5
B6
100
AcDbEntity
  8
0
  6
CONTINUOUS
 62
    15
100
AcDbLine
 10
-110.300977
 20
-90.368564
 30
0.0
 11
-110.408857
 21
-89.982343
 31
0.0
  0
LINE
  5
B7
100
AcDbEntity
  8
0
  6
CONTINUOUS
 62
    15
100
AcDbLine
 10
-110.408857
 20
-89.982343
 30
0.0
 11
-110.559475
 21
-89.599313
 31
0.0
  0
LINE
  5
B8
100
AcDbEntity
  8
0
  6
CONTINUOUS
 62
    15
100
AcDbLine
 10
-110.559475
 20
-89.599313
 30
0.0
 11
-110.752419
 21
-89.220523
 31
0.0
  0
LINE
  5
B9
100
AcDbEntity
  8
0
  6
CONTINUOUS
 62
    15
100
AcDbLine
 10
-110.752419
 20
-89.220523
 30
0.0
 11
-110.987158
 21
-88.847011
 31
0.0
  0
LINE
  5
BA
100
AcDbEntity
  8
0
  6
CONTINUOUS
 62
    15
100
AcDbLine
 10
-110.987158
 20
-88.847011
 30
0.0
 11
-111.26305
 21
-88.479802
 31
0.0
  0
LINE
  5
BB
100
AcDbEntity
  8
0
  6
CONTINUOUS
 62
    15
100
AcDbLine
 10
-111.26305
 20
-88.479802
 30
0.0
 11
-111.579339
 21
-88.119902
 31
0.0
  0
LINE
  5
BC
100
AcDbEntity
  8
0
  6
CONTINUOUS
 62
    15
100
AcDbLine
 10
-111.579339
 20
-88.119902
 30
0.0
 11
-111.935158
 21
-87.768297
 31
0.0
  0
LINE
  5
BD
100
AcDbEntity
  8
0
  6
CONTINUOUS
 62
    15
100
AcDbLine
 10
-111.935158
 20
-87.768297
 30
0.0
 11
-112.329531
 21
-87.425951
 31
0.0
  0
LINE
  5
BE
100
AcDbEntity
  8
0
  6
CONTINUOUS
 62
    15
100
AcDbLine
 10
-112.329531
 20
-87.425951
 30
0.0
 11
-112.761378
 21
-87.093802
 31
0.0
  0
LINE
  5
BF
100
AcDbEntity
  8
0
  6
CONTINUOUS
 62
    15
100
AcDbLine
 10
-112.761378
 20
-87.093802
 30
0.0
 11
-113.229514
 21
-86.772761
 31
0.0
  0
LINE
  5
C0
100
AcDbEntity
  8
0
  6
CONTINUOUS
 62
    15
100
AcDbLine
 10
-113.229514
 20
-86.772761
 30
0.0
 11
-113.732657
 21
-86.463707
 31
0.0
  0
LINE
  5
C1
100
AcDbEntity
  8
0
  6
CONTINUOUS
 62
    15
100
AcDbLine
 10
-113.732657
 20
-86.463707
 30
0.0
 11
-114.269428
 21
-86.167488
 31
0.0
  0
LINE
  5
C2
100
AcDbEntity
  8
0
  6
CONTINUOUS
 62
    15
100
AcDbLine
 10
-114.269428
 20
-86.167488
 30
0.0
 11
-114.838355
 21
-85.884916
 31
0.0
  0
LINE
  5
C3
100
AcDbEntity
  8
0
  6
CONTINUOUS
 62
    15
100
AcDbLine
 10
-114.838355
 20
-85.884916
 30
0.0
 11
-115.437879
 21
-85.616766
 31
0.0
  0
LINE
  5
C4
100
AcDbEntity
  8
0
  6
CONTINUOUS
 62
    15
100
AcDbLine
 10
-115.437879
 20
-85.616766
 30
0.0
 11
-116.066357
 21
-85.363771
 31
0.0
  0
LINE
  5
C5
100
AcDbEntity
  8
0
  6
CONTINUOUS
 62
    15
100
AcDbLine
 10
-116.066357
 20
-85.363771
 30
0.0
 11
-116.722066
 21
-85.126626
 31
0.0
  0
LINE
  5
C6
100
AcDbEntity
  8
0
  6
CONTINUOUS
 62
    15
100
AcDbLine
 10
-116.722066
 20
-85.126626
 30
0.0
 11
-117.403208
 21
-84.90598
 31
0.0
  0
LINE
  5
C7
100
AcDbEntity
  8
0
  6
CONTINUOUS
 62
    15
100
AcDbLine
 10
-117.403208
 20
-84.90598
 30
0.0
 11
-118.107918
 21
-84.702439
 31
0.0
  0
LINE
  5
C8
100
AcDbEntity
  8
0
  6
CONTINUOUS
 62
    15
100
AcDbLine
 10
-118.107918
 20
-84.702439
 30
0.0
 11
-118.834263
 21
-84.516561
 31
0.0
  0
LINE
  5
C9
100
AcDbEntity
  8
0
  6
CONTINUOUS
 62
    15
100
AcDbLine
 10
-118.834263
 20
-84.516561
 30
0.0
 11
-119.580252
 21
-84.348854
 31
0.0
  0
LINE
  5
CA
100
AcDbEntity
  8
0
  6
CONTINUOUS
 62
    15
100
AcDbLine
 10
-119.580252
 20
-84.348854
 30
0.0
 11
-120.343841
 21
-84.199778
 31
0.0
  0
LINE
  5
CB
100
AcDbEntity
  8
0
  6
CONTINUOUS
 62
    15
100
AcDbLine
 10
-120.343841
 20
-84.199778
 30
0.0
 11
-121.122937
 21
-84.069742
 31
0.0
  0
LINE
  5
CC
100
AcDbEntity
  8
0
  6
CONTINUOUS
 62
    15
100
AcDbLine
 10
-121.122937
 20
-84.069742
 30
0.0
 11
-121.915405
 21
-83.959103
 31
0.0
  0
LINE
  5
CD
100
AcDbEntity
  8
0
  6
CONTINUOUS
 62
    15
100
AcDbLine
 10
-121.915405
 20
-83.959103
 30
0.0
 11
-122.719071
 21
-83.868164
 31
0.0
  0
LINE
  5
CE
100
AcDbEntity
  8
0
  6
CONTINUOUS
 62
    15
100
AcDbLine
 10
-122.719071
 20
-83.868164
 30
0.0
 11
-123.531734
 21
-83.797173
 31
0.0
  0
LINE
  5
CF
100
AcDbEntity
  8
0
  6
CONTINUOUS
 62
    15
100
AcDbLine
 10
-123.531734
 20
-83.797173
 30
0.0
 11
-124.351166
 21
-83.746326
 31
0.0
  0
LINE
  5
D0
100
AcDbEntity
  8
0
  6
CONTINUOUS
 62
    15
100
AcDbLine
 10
-124.351166
 20
-83.746326
 30
0.0
 11
-125.175121
 21
-83.715762
 31
0.0
  0
LINE
  5
D1
100
AcDbEntity
  8
0
  6
CONTINUOUS
 62
    15
100
AcDbLine
 10
-125.175121
 20
-83.715762
 30
0.0
 11
-126.001341
 21
-83.705565
 31
0.0
  0
LINE
  5
D2
100
AcDbEntity
  8
0
  6
CONTINUOUS
 62
    15
100
AcDbLine
 10
-126.001341
 20
-83.705565
 30
0.0
 11
-126.827561
 21
-83.715762
 31
0.0
  0
LINE
  5
D3
100
AcDbEntity
  8
0
  6
CONTINUOUS
 62
    15
100
AcDbLine
 10
-126.827561
 20
-83.715762
 30
0.0
 11
-127.651516
 21
-83.746326
 31
0.0
  0
LINE
  5
D4
100
AcDbEntity
  8
0
  6
CONTINUOUS
 62
    15
100
AcDbLine
 10
-127.651516
 20
-83.746326
 30
0.0
 11
-128.470948
 21
-83.797173
 31
0.0
  0
LINE
  5
D5
100
AcDbEntity
  8
0
  6
CONTINUOUS
 62
    15
100
AcDbLine
 10
-128.470948
 20
-83.797173
 30
0.0
 11
-129.283611
 21
-83.868164
 31
0.0
  0
LINE
  5
D6
100
AcDbEntity
  8
0
  6
CONTINUOUS
 62
    15
100
AcDbLine
 10
-129.283611
 20
-83.868164
 30
0.0
 11
-130.087278
 21
-83.959103
 31
0.0
  0
LINE
  5
D7
100
AcDbEntity
  8
0
  6
CONTINUOUS
 62
    15
100
AcDbLine
 10
-130.087278
 20
-83.959103
 30
0.0
 11
-130.879745
 21
-84.069742
 31
0.0
  0
LINE
  5
D8
100
AcDbEntity
  8
0
  6
CONTINUOUS
 62
    15
100
AcDbLine
 10
-130.879745
 20
-84.069742
 30
0.0
 11
-131.658841
 21
-84.199778
 31
0.0
  0
LINE
  5
D9
100
AcDbEntity
  8
0
  6
CONTINUOUS
 62
    15
100
AcDbLine
 10
-131.658841
 20
-84.199778
 30
0.0
 11
-132.42243
 21
-84.348854
 31
0.0
  0
LINE
  5
DA
100
AcDbEntity
  8
0
  6
CONTINUOUS
 62
    15
100
AcDbLine
 10
-132.42243
 20
-84.348854
 30
0.0
 11
-133.168419
 21
-84.516561
 31
0.0
  0
LINE
  5
DB
100
AcDbEntity
  8
0
  6
CONTINUOUS
 62
    15
100
AcDbLine
 10
-133.168419
 20
-84.516561
 30
0.0
 11
-133.894764
 21
-84.702439
 31
0.0
  0
LINE
  5
DC
100
AcDbEntity
  8
0
  6
CONTINUOUS
 62
    15
100
AcDbLine
 10
-133.894764
 20
-84.702439
 30
0.0
 11
-134.599474
 21
-84.90598
 31
0.0
  0
LINE
  5
DD
100
AcDbEntity
  8
0
  6
CONTINUOUS
 62
    15
100
AcDbLine
 10
-134.599474
 20
-84.90598
 30
0.0
 11
-135.280617
 21
-85.126626
 31
0.0
  0
LINE
  5
DE
100
AcDbEntity
  8
0
  6
CONTINUOUS
 62
    15
100
AcDbLine
 10
-135.280617
 20
-85.126626
 30
0.0
 11
-135.936326
 21
-85.363771
 31
0.0
  0
LINE
  5
DF
100
AcDbEntity
  8
0
  6
CONTINUOUS
 62
    15
100
AcDbLine
 10
-135.936326
 20
-85.363771
 30
0.0
 11
-136.564803
 21
-85.616766
 31
0.0
  0
LINE
  5
E0
100
AcDbEntity
  8
0
  6
CONTINUOUS
 62
    15
100
AcDbLine
 10
-136.564803
 20
-85.616766
 30
0.0
 11
-137.164327
 21
-85.884916
 31
0.0
  0
LINE
  5
E1
100
AcDbEntity
  8
0
  6
CONTINUOUS
 62
    15
100
AcDbLine
 10
-137.164327
 20
-85.884916
 30
0.0
 11
-137.733254
 21
-86.167488
 31
0.0
  0
LINE
  5
E2
100
AcDbEntity
  8
0
  6
CONTINUOUS
 62
    15
100
AcDbLine
 10
-137.733254
 20
-86.167488
 30
0.0
 11
-138.270025
 21
-86.463707
 31
0.0
  0
LINE
  5
E3
100
AcDbEntity
  8
0
  6
CONTINUOUS
 62
    15
100
AcDbLine
 10
-138.270025
 20
-86.463707
 30
0.0
 11
-138.773168
 21
-86.772761
 31
0.0
  0
LINE
  5
E4
100
AcDbEntity
  8
0
  6
CONTINUOUS
 62
    15
100
AcDbLine
 10
-138.773168
 20
-86.772761
 30
0.0
 11
-139.241305
 21
-87.093802
 31
0.0
  0
LINE
  5
E5
100
AcDbEntity
  8
0
  6
CONTINUOUS
 62
    15
100
AcDbLine
 10
-139.241305
 20
-87.093802
 30
0.0
 11
-139.673151
 21
-87.425951
 31
0.0
  0
LINE
  5
E6
100
AcDbEntity
  8
0
  6
CONTINUOUS
 62
    15
100
AcDbLine
 10
-139.673151
 20
-87.425951
 30
0.0
 11
-140.067524
 21
-87.768297
 31
0.0
  0
LINE
  5
E7
100
AcDbEntity
  8
0
  6
CONTINUOUS
 62
    15
100
AcDbLine
 10
-140.067524
 20
-87.768297
 30
0.0
 11
-140.423343
 21
-88.119902
 31
0.0
  0
LINE
  5
E8
100
AcDbEntity
  8
0
  6
CONTINUOUS
 62
    15
100
AcDbLine
 10
-140.423343
 20
-88.119902
 30
0.0
 11
-140.739632
 21
-88.479802
 31
0.0
  0
LINE
  5
E9
100
AcDbEntity
  8
0
  6
CONTINUOUS
 62
    15
100
AcDbLine
 10
-140.739632
 20
-88.479802
 30
0.0
 11
-141.015524
 21
-88.847011
 31
0.0
  0
LINE
  5
EA
100
AcDbEntity
  8
0
  6
CONTINUOUS
 62
    15
100
AcDbLine
 10
-141.015524
 20
-88.847011
 30
0.0
 11
-141.250264
 21
-89.220523
 31
0.0
  0
LINE
  5
EB
100
AcDbEntity
  8
0
  6
CONTINUOUS
 62
    15
100
AcDbLine
 10
-141.250264
 20
-89.220523
 30
0.0
 11
-141.443207
 21
-89.599313
 31
0.0
  0
LINE
  5
EC
100
AcDbEntity
  8
0
  6
CONTINUOUS
 62
    15
100
AcDbLine
 10
-141.443207
 20
-89.599313
 30
0.0
 11
-141.593825
 21
-89.982343
 31
0.0
  0
LINE
  5
ED
100
AcDbEntity
  8
0
  6
CONTINUOUS
 62
    15
100
AcDbLine
 10
-141.593825
 20
-89.982343
 30
0.0
 11
-141.701706
 21
-90.368564
 31
0.0
  0
LINE
  5
EE
100
AcDbEntity
  8
0
  6
CONTINUOUS
 62
    15
100
AcDbLine
 10
-141.701706
 20
-90.368564
 30
0.0
 11
-141.766552
 21
-90.756916
 31
0.0
  0
LINE
  5
EF
100
AcDbEntity
  8
0
  6
CONTINUOUS
 62
    15
100
AcDbLine
 10
-141.766552
 20
-90.756916
 30
0.0
 11
-141.788188
 21
-91.146336
 31
0.0
  0
ARC
  5
F0
100
AcDbEntity
  8
0
  6
CONTINUOUS
 62
    16
100
AcDbCircle
 10
-117.128596
 20
-95.442471
 30
0.0
 40
0.600591
100
AcDbArc
 50
61.06943
 51
142.6647
  0
ARC
  5
F1
100
AcDbEntity
  8
0
  6
CONTINUOUS
 62
    16
100
AcDbCircle
 10
-117.128596
 20
-95.442471
 30
0.0
 40
0.966216
100
AcDbArc
 50
64.49038
 51
142.973858
  0
LINE
  5
F2
100
AcDbEntity
  8
0
  6
CONTINUOUS
 62
    16
100
AcDbLine
 10
-133.94433
 20
-94.916829
 30
0.0
 11
-134.069908
 21
-94.570448
 31
0.0
  0
LINE
  5
F3
100
AcDbEntity
  8
0
  6
CONTINUOUS
 62
    16
100
AcDbLine
 10
-131.560271
 20
-95.514257
 30
0.0
 11
-131.685288
 21
-95.169421
 31
0.0
  0
ARC
  5
F4
100
AcDbEntity
  8
0
  6
CONTINUOUS
 62
    16
100
AcDbCircle
 10
-132.098369
 20
-94.295958
 30
0.0
 40
1.331841
100
AcDbArc
 50
-144.03027
 51
-66.169924
  0
ARC
  5
F5
100
AcDbEntity
  8
0
  6
CONTINUOUS
 62
    16
100
AcDbCircle
 10
-133.653795
 20
-95.442471
 30
0.0
 40
0.600591
100
AcDbArc
 50
37.3353
 51
118.93057
  0
ARC
  5
F6
100
AcDbEntity
  8
0
  6
CONTINUOUS
 62
    16
100
AcDbCircle
 10
-132.098369
 20
-94.295958
 30
0.0
 40
0.966216
100
AcDbArc
 50
-144.237877
 51
-64.689464
  0
ARC
  5
F7
100
AcDbEntity
  8
0
  6
CONTINUOUS
 62
    16
100
AcDbCircle
 10
-133.653795
 20
-95.442471
 30
0.0
 40
0.966216
100
AcDbArc
 50
37.026142
 51
115.50962
  0
LINE
  5
F8
100
AcDbEntity
  8
0
  6
CONTINUOUS
 62
    16
100
AcDbLine
 10
-119.22212
 20
-95.514257
 30
0.0
 11
-119.097102
 21
-95.169421
 31
0.0
  0
ARC
  5
F9
100
AcDbEntity
  8
0
  6
CONTINUOUS
 62
    16
100
AcDbCircle
 10
-118.684022
 20
-94.295958
 30
0.0
 40
0.966216
100
AcDbArc
 50
-115.310536
 51
-35.762123
  0
ARC
  5
FA
100
AcDbEntity
  8
0
  6
CONTINUOUS
 62
    16
100
AcDbCircle
 10
-118.684022
 20
-94.295958
 30
0.0
 40
1.331841
100
AcDbArc
 50
-113.830076
 51
-35.96973
  0
LINE
  5
FB
100
AcDbEntity
  8
0
  6
CONTINUOUS
 62
    16
100
AcDbLine
 10
-116.83806
 20
-94.916829
 30
0.0
 11
-116.712483
 21
-94.570448
 31
0.0
  0
ARC
  5
FC
100
AcDbEntity
  8
0
  6
CONTINUOUS
 62
    16
100
AcDbCircle
 10
-118.37907
 20
-90.856812
 30
0.0
 40
2.4375
100
AcDbArc
 50
-70.953953
 51
-51.766203
  0
LINE
  5
FD
100
AcDbEntity
  8
0
  6
CONTINUOUS
 62
    16
100
AcDbLine
 10
-117.543874
 20
-89.985453
 30
0.0
 11
-115.350124
 21
-89.985453
 31
0.0
  0
LINE
  5
FE
100
AcDbEntity
  8
0
  6
CONTINUOUS
 62
    16
100
AcDbLine
 10
-117.543874
 20
-93.397953
 30
0.0
 11
-116.081374
 21
-93.397953
 31
0.0
  0
LINE
  5
FF
100
AcDbEntity
  8
0
  6
CONTINUOUS
 62
    16
100
AcDbLine
 10
-115.683134
 20
-91.835894
 30
0.0
 11
-117.164158
 21
-90.453605
 31
0.0
  0
LINE
  5
100
100
AcDbEntity
  8
0
  6
CONTINUOUS
 62
    16
100
AcDbLine
 10
-131.125593
 20
-91.835894
 30
0.0
 11
-132.606617
 21
-90.453605
 31
0.0
  0
LINE
  5
101
100
AcDbEntity
  8
0
  6
CONTINUOUS
 62
    16
100
AcDbLine
 10
-130.389481
 20
-91.255928
 30
0.0
 11
-131.220918
 21
-90.47992
 31
0.0
  0
LINE
  5
102
100
AcDbEntity
  8
0
  6
CONTINUOUS
 62
    16
100
AcDbLine
 10
-131.125593
 20
-91.835894
 30
0.0
 11
-132.313029
 21
-92.771448
 31
0.0
  0
LINE
  5
103
100
AcDbEntity
  8
0
  6
CONTINUOUS
 62
    16
100
AcDbLine
 10
-130.891218
 20
-92.054644
 30
0.0
 11
-131.963733
 21
-92.899655
 31
0.0
  0
ARC
  5
104
100
AcDbEntity
  8
0
  6
CONTINUOUS
 62
    16
100
AcDbCircle
 10
-131.137761
 20
-90.390822
 30
0.0
 40
0.121875
100
AcDbArc
 50
96.323695
 51
-133.025066
  0
LINE
  5
105
100
AcDbEntity
  8
0
  6
CONTINUOUS
 62
    16
100
AcDbLine
 10
-132.986334
 20
-89.985453
 30
0.0
 11
-130.792584
 21
-89.985453
 31
0.0
  0
ARC
  5
106
100
AcDbEntity
  8
0
  6
CONTINUOUS
 62
    16
100
AcDbCircle
 10
-131.888308
 20
-92.995387
 30
0.0
 40
0.121875
100
AcDbArc
 50
128.233797
 51
-95.605123
  0
LINE
  5
107
100
AcDbEntity
  8
0
  6
CONTINUOUS
 62
    16
100
AcDbLine
 10
-131.51193
 20
-93.154786
 30
0.0
 11
-131.900212
 21
-93.116679
 31
0.0
  0
ARC
  5
108
100
AcDbEntity
  8
0
  6
CONTINUOUS
 62
    16
100
AcDbCircle
 10
-131.523834
 20
-93.276078
 30
0.0
 40
0.121875
100
AcDbArc
 50
-90.0
 51
84.394877
  0
ARC
  5
109
100
AcDbEntity
  8
0
  6
CONTINUOUS
 62
    16
100
AcDbCircle
 10
-133.821529
 20
-90.856812
 30
0.0
 40
2.4375
100
AcDbArc
 50
-70.953953
 51
-51.766203
  0
ARC
  5
10A
100
AcDbEntity
  8
0
  6
CONTINUOUS
 62
    16
100
AcDbCircle
 10
-132.986334
 20
-93.276078
 30
0.0
 40
0.121875
100
AcDbArc
 50
109.046047
 51
-90.0
  0
ARC
  5
10B
100
AcDbEntity
  8
0
  6
CONTINUOUS
 62
    16
100
AcDbCircle
 10
-133.271877
 20
-91.166384
 30
0.0
 40
0.975
100
AcDbArc
 50
46.974934
 51
74.910663
  0
ARC
  5
10C
100
AcDbEntity
  8
0
  6
CONTINUOUS
 62
    16
100
AcDbCircle
 10
-132.986334
 20
-90.107328
 30
0.0
 40
0.121875
100
AcDbArc
 50
90.0
 51
-105.089337
  0
LINE
  5
10D
100
AcDbEntity
  8
0
  6
CONTINUOUS
 62
    16
100
AcDbLine
 10
-132.986334
 20
-93.397953
 30
0.0
 11
-131.523834
 21
-93.397953
 31
0.0
  0
ARC
  5
10E
100
AcDbEntity
  8
0
  6
CONTINUOUS
 62
    16
100
AcDbCircle
 10
-134.873792
 20
-91.326078
 30
0.0
 40
1.70625
100
AcDbArc
 50
-90.0
 51
-27.818139
  0
ARC
  5
10F
100
AcDbEntity
  8
0
  6
CONTINUOUS
 62
    16
100
AcDbCircle
 10
-133.256938
 20
-92.179203
 30
0.0
 40
0.121875
100
AcDbArc
 50
0.0
 51
152.181861
  0
ARC
  5
110
100
AcDbEntity
  8
0
  6
CONTINUOUS
 62
    16
100
AcDbCircle
 10
-134.353813
 20
-92.179203
 30
0.0
 40
1.21875
100
AcDbArc
 50
-90.0
 51
0.0
  0
ARC
  5
111
100
AcDbEntity
  8
0
  6
CONTINUOUS
 62
    16
100
AcDbCircle
 10
-136.181938
 20
-92.788578
 30
0.0
 40
0.24375
100
AcDbArc
 50
180.0
 51
-90.0
  0
ARC
  5
112
100
AcDbEntity
  8
0
  6
CONTINUOUS
 62
    16
100
AcDbCircle
 10
-135.19999
 20
-91.634355
 30
0.0
 40
0.771432
100
AcDbArc
 50
1.983446
 51
90.505274
  0
ARC
  5
113
100
AcDbEntity
  8
0
  6
CONTINUOUS
 62
    16
100
AcDbCircle
 10
-134.307166
 20
-91.609897
 30
0.0
 40
0.121875
100
AcDbArc
 50
178.945911
 51
0.0
  0
ARC
  5
114
100
AcDbEntity
  8
0
  6
CONTINUOUS
 62
    16
100
AcDbCircle
 10
-135.189701
 20
-89.741703
 30
0.0
 40
0.73125
100
AcDbArc
 50
-90.0
 51
-11.536959
  0
ARC
  5
115
100
AcDbEntity
  8
0
  6
CONTINUOUS
 62
    16
100
AcDbCircle
 10
-134.353813
 20
-89.912328
 30
0.0
 40
0.121875
100
AcDbArc
 50
0.0
 51
168.463041
  0
LINE
  5
116
100
AcDbEntity
  8
0
  6
CONTINUOUS
 62
    16
100
AcDbLine
 10
-134.231938
 20
-89.912328
 30
0.0
 11
-134.185291
 21
-91.609897
 31
0.0
  0
ARC
  5
117
100
AcDbEntity
  8
0
  6
CONTINUOUS
 62
    16
100
AcDbCircle
 10
-136.303813
 20
-90.984828
 30
0.0
 40
0.121875
100
AcDbArc
 50
90.0
 51
180.0
  0
LINE
  5
118
100
AcDbEntity
  8
0
  6
CONTINUOUS
 62
    16
100
AcDbLine
 10
-136.425688
 20
-90.984828
 30
0.0
 11
-136.425688
 21
-92.788578
 31
0.0
  0
ARC
  5
119
100
AcDbEntity
  8
0
  6
CONTINUOUS
 62
    16
100
AcDbCircle
 10
-136.303813
 20
-90.351078
 30
0.0
 40
0.121875
100
AcDbArc
 50
180.0
 51
-90.0
  0
LINE
  5
11A
100
AcDbEntity
  8
0
  6
CONTINUOUS
 62
    16
100
AcDbLine
 10
-136.303813
 20
-90.862953
 30
0.0
 11
-135.206793
 21
-90.862953
 31
0.0
  0
LINE
  5
11B
100
AcDbEntity
  8
0
  6
CONTINUOUS
 62
    16
100
AcDbLine
 10
-136.303813
 20
-90.472953
 30
0.0
 11
-135.189701
 21
-90.472953
 31
0.0
  0
ARC
  5
11C
100
AcDbEntity
  8
0
  6
CONTINUOUS
 62
    16
100
AcDbCircle
 10
-136.279438
 20
-88.645881
 30
0.0
 40
0.14625
100
AcDbArc
 50
100.03753
 51
180.0
  0
ARC
  5
11D
100
AcDbEntity
  8
0
  6
CONTINUOUS
 62
    16
100
AcDbCircle
 10
-134.104824
 20
-88.734685
 30
0.0
 40
0.24375
100
AcDbArc
 50
11.915541
 51
80.345042
  0
ARC
  5
11E
100
AcDbEntity
  8
0
  6
CONTINUOUS
 62
    16
100
AcDbCircle
 10
-135.162882
 20
-94.954014
 30
0.0
 40
6.552438
100
AcDbArc
 50
80.345042
 51
100.03753
  0
LINE
  5
11F
100
AcDbEntity
  8
0
  6
CONTINUOUS
 62
    16
100
AcDbLine
 10
-133.681591
 20
-89.294546
 30
0.0
 11
-133.866326
 21
-88.684358
 31
0.0
  0
ARC
  5
120
100
AcDbEntity
  8
0
  6
CONTINUOUS
 62
    16
100
AcDbCircle
 10
-133.566587
 20
-89.254203
 30
0.0
 40
0.121875
100
AcDbArc
 50
-175.499398
 51
0.0
  0
ARC
  5
121
100
AcDbEntity
  8
0
  6
CONTINUOUS
 62
    16
100
AcDbCircle
 10
-133.622563
 20
-88.157328
 30
0.0
 40
0.121875
100
AcDbArc
 50
0.0
 51
90.0
  0
LINE
  5
122
100
AcDbEntity
  8
0
  6
CONTINUOUS
 62
    16
100
AcDbLine
 10
-133.500688
 20
-88.157328
 30
0.0
 11
-133.444712
 21
-89.254203
 31
0.0
  0
ARC
  5
123
100
AcDbEntity
  8
0
  6
CONTINUOUS
 62
    16
100
AcDbCircle
 10
-138.131938
 20
-88.82448
 30
0.0
 40
0.4875
100
AcDbArc
 50
0.0
 51
81.949746
  0
ARC
  5
124
100
AcDbEntity
  8
0
  6
CONTINUOUS
 62
    16
100
AcDbCircle
 10
-138.131938
 20
-92.608926
 30
0.0
 40
0.4875
100
AcDbArc
 50
-81.949746
 51
0.0
  0
LINE
  5
125
100
AcDbEntity
  8
0
  6
CONTINUOUS
 62
    16
100
AcDbLine
 10
-138.063667
 20
-93.091622
 30
0.0
 11
-138.51463
 21
-93.155404
 31
0.0
  0
LINE
  5
126
100
AcDbEntity
  8
0
  6
CONTINUOUS
 62
    16
100
AcDbLine
 10
-138.063667
 20
-88.341784
 30
0.0
 11
-138.51463
 21
-88.278002
 31
0.0
  0
ARC
  5
127
100
AcDbEntity
  8
0
  6
CONTINUOUS
 62
    16
100
AcDbCircle
 10
-138.497563
 20
-93.276078
 30
0.0
 40
0.121875
100
AcDbArc
 50
98.050254
 51
-90.0
  0
ARC
  5
128
100
AcDbEntity
  8
0
  6
CONTINUOUS
 62
    16
100
AcDbCircle
 10
-138.497563
 20
-88.157328
 30
0.0
 40
0.121875
100
AcDbArc
 50
90.0
 51
-98.050254
  0
LINE
  5
129
100
AcDbEntity
  8
0
  6
CONTINUOUS
 62
    16
100
AcDbLine
 10
-136.181938
 20
-93.032328
 30
0.0
 11
-134.873792
 21
-93.032328
 31
0.0
  0
LINE
  5
12A
100
AcDbEntity
  8
0
  6
CONTINUOUS
 62
    16
100
AcDbLine
 10
-136.425688
 20
-88.645881
 30
0.0
 11
-136.425688
 21
-90.351078
 31
0.0
  0
LINE
  5
12B
100
AcDbEntity
  8
0
  6
CONTINUOUS
 62
    16
100
AcDbLine
 10
-138.497563
 20
-88.035453
 30
0.0
 11
-133.622563
 21
-88.035453
 31
0.0
  0
LINE
  5
12C
100
AcDbEntity
  8
0
  6
CONTINUOUS
 62
    16
100
AcDbLine
 10
-138.497563
 20
-93.397953
 30
0.0
 11
-134.353813
 21
-93.397953
 31
0.0
  0
LINE
  5
12D
100
AcDbEntity
  8
0
  6
CONTINUOUS
 62
    16
100
AcDbLine
 10
-137.644438
 20
-88.82448
 30
0.0
 11
-137.644438
 21
-92.608926
 31
0.0
  0
ARC
  5
12E
100
AcDbEntity
  8
0
  6
CONTINUOUS
 62
    16
100
AcDbCircle
 10
-120.734346
 20
-91.199682
 30
0.0
 40
0.121875
100
AcDbArc
 50
-175.009732
 51
-90.0
  0
ARC
  5
12F
100
AcDbEntity
  8
0
  6
CONTINUOUS
 62
    16
100
AcDbCircle
 10
-119.21626
 20
-91.199682
 30
0.0
 40
0.121875
100
AcDbArc
 50
-90.0
 51
-4.990268
  0
ARC
  5
130
100
AcDbEntity
  8
0
  6
CONTINUOUS
 62
    16
100
AcDbCircle
 10
-119.975303
 20
-91.133404
 30
0.0
 40
0.883806
100
AcDbArc
 50
-4.990268
 51
-175.009732
  0
ARC
  5
131
100
AcDbEntity
  8
0
  6
CONTINUOUS
 62
    16
100
AcDbCircle
 10
-117.543874
 20
-90.107328
 30
0.0
 40
0.121875
100
AcDbArc
 50
90.0
 51
-105.089337
  0
ARC
  5
132
100
AcDbEntity
  8
0
  6
CONTINUOUS
 62
    16
100
AcDbCircle
 10
-117.829418
 20
-91.166384
 30
0.0
 40
0.975
100
AcDbArc
 50
46.974934
 51
74.910663
  0
ARC
  5
133
100
AcDbEntity
  8
0
  6
CONTINUOUS
 62
    16
100
AcDbCircle
 10
-117.543874
 20
-93.276078
 30
0.0
 40
0.121875
100
AcDbArc
 50
109.046047
 51
-90.0
  0
LINE
  5
134
100
AcDbEntity
  8
0
  6
CONTINUOUS
 62
    16
100
AcDbLine
 10
-127.44821
 20
-93.397953
 30
0.0
 11
-125.264019
 21
-93.397953
 31
0.0
  0
LINE
  5
135
100
AcDbEntity
  8
0
  6
CONTINUOUS
 62
    16
100
AcDbLine
 10
-119.69133
 20
-93.397953
 30
0.0
 11
-119.877803
 21
-93.396213
 31
0.0
  0
ARC
  5
136
100
AcDbEntity
  8
0
  6
CONTINUOUS
 62
    16
100
AcDbCircle
 10
-118.060349
 20
-91.521078
 30
0.0
 40
0.121875
100
AcDbArc
 50
-90.0
 51
7.150316
  0
ARC
  5
137
100
AcDbEntity
  8
0
  6
CONTINUOUS
 62
    16
100
AcDbCircle
 10
-120.735607
 20
-91.764828
 30
0.0
 40
0.121875
100
AcDbArc
 50
90.0
 51
-178.145644
  0
ARC
  5
138
100
AcDbEntity
  8
0
  6
CONTINUOUS
 62
    16
100
AcDbCircle
 10
-119.746733
 20
-88.921855
 30
0.0
 40
3.923362
100
AcDbArc
 50
-89.982844
 51
-65.315854
  0
ARC
  5
139
100
AcDbEntity
  8
0
  6
CONTINUOUS
 62
    16
100
AcDbCircle
 10
-119.745558
 20
-91.732774
 30
0.0
 40
1.112442
100
AcDbArc
 50
-178.145644
 51
-89.554178
  0
ARC
  5
13A
100
AcDbEntity
  8
0
  6
CONTINUOUS
 62
    16
100
AcDbCircle
 10
-119.69133
 20
-90.960453
 30
0.0
 40
2.4375
100
AcDbArc
 50
-90.0
 51
-44.850808
  0
ARC
  5
13B
100
AcDbEntity
  8
0
  6
CONTINUOUS
 62
    16
100
AcDbCircle
 10
-118.049678
 20
-92.593578
 30
0.0
 40
0.121875
100
AcDbArc
 50
-44.850808
 51
118.737939
  0
LINE
  5
13C
100
AcDbEntity
  8
0
  6
CONTINUOUS
 62
    16
100
AcDbLine
 10
-120.734346
 20
-91.321557
 30
0.0
 11
-119.21626
 21
-91.321557
 31
0.0
  0
LINE
  5
13D
100
AcDbEntity
  8
0
  6
CONTINUOUS
 62
    16
100
AcDbLine
 10
-120.735607
 20
-91.642953
 30
0.0
 11
-118.060349
 21
-91.642953
 31
0.0
  0
LINE
  5
13E
100
AcDbEntity
  8
0
  6
CONTINUOUS
 62
    16
100
AcDbLine
 10
-119.092689
 20
-90.131452
 30
0.0
 11
-119.187183
 21
-90.097674
 31
0.0
  0
LINE
  5
13F
100
AcDbEntity
  8
0
  6
CONTINUOUS
 62
    16
100
AcDbLine
 10
-119.187183
 20
-90.097674
 30
0.0
 11
-119.28357
 21
-90.068264
 31
0.0
  0
LINE
  5
140
100
AcDbEntity
  8
0
  6
CONTINUOUS
 62
    16
100
AcDbLine
 10
-119.28357
 20
-90.068264
 30
0.0
 11
-119.381585
 21
-90.043305
 31
0.0
  0
LINE
  5
141
100
AcDbEntity
  8
0
  6
CONTINUOUS
 62
    16
100
AcDbLine
 10
-119.381585
 20
-90.043305
 30
0.0
 11
-119.480961
 21
-90.022863
 31
0.0
  0
LINE
  5
142
100
AcDbEntity
  8
0
  6
CONTINUOUS
 62
    16
100
AcDbLine
 10
-119.480961
 20
-90.022863
 30
0.0
 11
-119.581424
 21
-90.006996
 31
0.0
  0
LINE
  5
143
100
AcDbEntity
  8
0
  6
CONTINUOUS
 62
    16
100
AcDbLine
 10
-119.581424
 20
-90.006996
 30
0.0
 11
-119.6827
 21
-89.995746
 31
0.0
  0
LINE
  5
144
100
AcDbEntity
  8
0
  6
CONTINUOUS
 62
    16
100
AcDbLine
 10
-119.6827
 20
-89.995746
 30
0.0
 11
-119.78451
 21
-89.989145
 31
0.0
  0
LINE
  5
145
100
AcDbEntity
  8
0
  6
CONTINUOUS
 62
    16
100
AcDbLine
 10
-119.78451
 20
-89.989145
 30
0.0
 11
-119.886576
 21
-89.98721
 31
0.0
  0
LINE
  5
146
100
AcDbEntity
  8
0
  6
CONTINUOUS
 62
    16
100
AcDbLine
 10
-119.886576
 20
-89.98721
 30
0.0
 11
-119.988618
 21
-89.989948
 31
0.0
  0
LINE
  5
147
100
AcDbEntity
  8
0
  6
CONTINUOUS
 62
    16
100
AcDbLine
 10
-119.988618
 20
-89.989948
 30
0.0
 11
-120.090357
 21
-89.997349
 31
0.0
  0
LINE
  5
148
100
AcDbEntity
  8
0
  6
CONTINUOUS
 62
    16
100
AcDbLine
 10
-120.090357
 20
-89.997349
 30
0.0
 11
-120.191512
 21
-90.009395
 31
0.0
  0
LINE
  5
149
100
AcDbEntity
  8
0
  6
CONTINUOUS
 62
    16
100
AcDbLine
 10
-120.191512
 20
-90.009395
 30
0.0
 11
-120.291808
 21
-90.026052
 31
0.0
  0
LINE
  5
14A
100
AcDbEntity
  8
0
  6
CONTINUOUS
 62
    16
100
AcDbLine
 10
-120.291808
 20
-90.026052
 30
0.0
 11
-120.390969
 21
-90.047274
 31
0.0
  0
LINE
  5
14B
100
AcDbEntity
  8
0
  6
CONTINUOUS
 62
    16
100
AcDbLine
 10
-120.390969
 20
-90.047274
 30
0.0
 11
-120.488724
 21
-90.073004
 31
0.0
  0
LINE
  5
14C
100
AcDbEntity
  8
0
  6
CONTINUOUS
 62
    16
100
AcDbLine
 10
-120.488724
 20
-90.073004
 30
0.0
 11
-120.584804
 21
-90.10317
 31
0.0
  0
LINE
  5
14D
100
AcDbEntity
  8
0
  6
CONTINUOUS
 62
    16
100
AcDbLine
 10
-120.584804
 20
-90.10317
 30
0.0
 11
-120.678946
 21
-90.137691
 31
0.0
  0
LINE
  5
14E
100
AcDbEntity
  8
0
  6
CONTINUOUS
 62
    16
100
AcDbLine
 10
-120.662916
 20
-93.251954
 30
0.0
 11
-120.568422
 21
-93.285732
 31
0.0
  0
LINE
  5
14F
100
AcDbEntity
  8
0
  6
CONTINUOUS
 62
    16
100
AcDbLine
 10
-120.568422
 20
-93.285732
 30
0.0
 11
-120.472035
 21
-93.315142
 31
0.0
  0
LINE
  5
150
100
AcDbEntity
  8
0
  6
CONTINUOUS
 62
    16
100
AcDbLine
 10
-120.472035
 20
-93.315142
 30
0.0
 11
-120.37402
 21
-93.340101
 31
0.0
  0
LINE
  5
151
100
AcDbEntity
  8
0
  6
CONTINUOUS
 62
    16
100
AcDbLine
 10
-120.37402
 20
-93.340101
 30
0.0
 11
-120.274644
 21
-93.360543
 31
0.0
  0
LINE
  5
152
100
AcDbEntity
  8
0
  6
CONTINUOUS
 62
    16
100
AcDbLine
 10
-120.274644
 20
-93.360543
 30
0.0
 11
-120.174181
 21
-93.37641
 31
0.0
  0
LINE
  5
153
100
AcDbEntity
  8
0
  6
CONTINUOUS
 62
    16
100
AcDbLine
 10
-120.174181
 20
-93.37641
 30
0.0
 11
-120.072905
 21
-93.38766
 31
0.0
  0
LINE
  5
154
100
AcDbEntity
  8
0
  6
CONTINUOUS
 62
    16
100
AcDbLine
 10
-120.072905
 20
-93.38766
 30
0.0
 11
-119.971095
 21
-93.394261
 31
0.0
  0
ARC
  5
155
100
AcDbEntity
  8
0
  6
CONTINUOUS
 62
    16
100
AcDbCircle
 10
-123.588885
 20
-90.472345
 30
0.0
 40
2.925
100
AcDbArc
 50
-97.084921
 51
-58.986736
  0
ARC
  5
156
100
AcDbEntity
  8
0
  6
CONTINUOUS
 62
    16
100
AcDbCircle
 10
-122.875389
 20
-88.026492
 30
0.0
 40
4.875
100
AcDbArc
 50
-93.656295
 51
-81.212877
  0
ARC
  5
157
100
AcDbEntity
  8
0
  6
CONTINUOUS
 62
    16
100
AcDbCircle
 10
-123.16762
 20
-92.599664
 30
0.0
 40
0.2925
100
AcDbArc
 50
-180.0
 51
-93.656295
  0
ARC
  5
158
100
AcDbEntity
  8
0
  6
CONTINUOUS
 62
    16
100
AcDbCircle
 10
-123.874495
 20
-92.770289
 30
0.0
 40
0.609375
100
AcDbArc
 50
-180.0
 51
-97.084921
  0
ARC
  5
159
100
AcDbEntity
  8
0
  6
CONTINUOUS
 62
    16
100
AcDbCircle
 10
-122.119495
 20
-92.916539
 30
0.0
 40
0.073125
100
AcDbArc
 50
-66.672721
 51
98.787123
  0
LINE
  5
15A
100
AcDbEntity
  8
0
  6
CONTINUOUS
 62
    16
100
AcDbLine
 10
-122.322234
 20
-89.768392
 30
0.0
 11
-122.500664
 21
-89.985453
 31
0.0
  0
LINE
  5
15B
100
AcDbEntity
  8
0
  6
CONTINUOUS
 62
    16
100
AcDbLine
 10
-122.460745
 20
-90.472953
 30
0.0
 11
-122.198245
 21
-89.842953
 31
0.0
  0
ARC
  5
15C
100
AcDbEntity
  8
0
  6
CONTINUOUS
 62
    16
100
AcDbCircle
 10
-122.265745
 20
-89.814828
 30
0.0
 40
0.073125
100
AcDbArc
 50
-22.619865
 51
140.578807
  0
LINE
  5
15D
100
AcDbEntity
  8
0
  6
CONTINUOUS
 62
    16
100
AcDbLine
 10
-123.46012
 20
-89.985453
 30
0.0
 11
-123.46012
 21
-89.132328
 31
0.0
  0
LINE
  5
15E
100
AcDbEntity
  8
0
  6
CONTINUOUS
 62
    16
100
AcDbLine
 10
-123.46012
 20
-90.472953
 30
0.0
 11
-122.460745
 21
-90.472953
 31
0.0
  0
ARC
  5
15F
100
AcDbEntity
  8
0
  6
CONTINUOUS
 62
    16
100
AcDbCircle
 10
-130.919411
 20
-82.528069
 30
0.0
 40
9.75
100
AcDbArc
 50
-52.415461
 51
-41.989736
  0
ARC
  5
160
100
AcDbEntity
  8
0
  6
CONTINUOUS
 62
    16
100
AcDbCircle
 10
-123.581995
 20
-89.132328
 30
0.0
 40
0.121875
100
AcDbArc
 50
0.0
 51
138.010264
  0
ARC
  5
161
100
AcDbEntity
  8
0
  6
CONTINUOUS
 62
    16
100
AcDbCircle
 10
-124.898245
 20
-90.351078
 30
0.0
 40
0.121875
100
AcDbArc
 50
127.584539
 51
-90.0
  0
LINE
  5
162
100
AcDbEntity
  8
0
  6
CONTINUOUS
 62
    16
100
AcDbLine
 10
-124.898245
 20
-90.472953
 30
0.0
 11
-124.48387
 21
-90.472953
 31
0.0
  0
LINE
  5
163
100
AcDbEntity
  8
0
  6
CONTINUOUS
 62
    16
100
AcDbLine
 10
-123.46012
 20
-92.599664
 30
0.0
 11
-123.46012
 21
-90.472953
 31
0.0
  0
LINE
  5
164
100
AcDbEntity
  8
0
  6
CONTINUOUS
 62
    16
100
AcDbLine
 10
-124.48387
 20
-92.770289
 30
0.0
 11
-124.48387
 21
-90.472953
 31
0.0
  0
LINE
  5
165
100
AcDbEntity
  8
0
  6
CONTINUOUS
 62
    16
100
AcDbLine
 10
-123.46012
 20
-89.985453
 30
0.0
 11
-122.500664
 21
-89.985453
 31
0.0
  0
ARC
  5
166
100
AcDbEntity
  8
0
  6
CONTINUOUS
 62
    16
100
AcDbCircle
 10
-127.427664
 20
-87.606905
 30
0.0
 40
1.962907
100
AcDbArc
 50
-55.581084
 51
-34.235696
  0
ARC
  5
167
100
AcDbEntity
  8
0
  6
CONTINUOUS
 62
    16
100
AcDbCircle
 10
-127.427664
 20
-89.689417
 30
0.0
 40
1.962907
100
AcDbArc
 50
34.235696
 51
55.581084
  0
ARC
  5
168
100
AcDbEntity
  8
0
  6
CONTINUOUS
 62
    16
100
AcDbCircle
 10
-125.348743
 20
-89.689417
 30
0.0
 40
1.962907
100
AcDbArc
 50
124.418916
 51
145.764304
  0
ARC
  5
169
100
AcDbEntity
  8
0
  6
CONTINUOUS
 62
    16
100
AcDbCircle
 10
-125.348743
 20
-87.606905
 30
0.0
 40
1.962907
100
AcDbArc
 50
-145.764304
 51
-124.418916
  0
ARC
  5
16A
100
AcDbEntity
  8
0
  6
CONTINUOUS
 62
    16
100
AcDbCircle
 10
-126.388203
 20
-89.141755
 30
0.0
 40
0.109688
100
AcDbArc
 50
-129.690928
 51
-50.309072
  0
ARC
  5
16B
100
AcDbEntity
  8
0
  6
CONTINUOUS
 62
    16
100
AcDbCircle
 10
-126.881797
 20
-88.648161
 30
0.0
 40
0.109688
100
AcDbArc
 50
144.899116
 51
-144.899116
  0
ARC
  5
16C
100
AcDbEntity
  8
0
  6
CONTINUOUS
 62
    16
100
AcDbCircle
 10
-126.388203
 20
-88.154567
 30
0.0
 40
0.109688
100
AcDbArc
 50
50.309072
 51
129.690928
  0
ARC
  5
16D
100
AcDbEntity
  8
0
  6
CONTINUOUS
 62
    16
100
AcDbCircle
 10
-125.89461
 20
-88.648161
 30
0.0
 40
0.109688
100
AcDbArc
 50
-35.100884
 51
35.100884
  0
ARC
  5
16E
100
AcDbEntity
  8
0
  6
CONTINUOUS
 62
    16
100
AcDbCircle
 10
-125.74196
 20
-92.974404
 30
0.0
 40
0.121875
100
AcDbArc
 50
180.0
 51
-96.711459
  0
LINE
  5
16F
100
AcDbEntity
  8
0
  6
CONTINUOUS
 62
    16
100
AcDbLine
 10
-125.249776
 20
-93.155038
 30
0.0
 11
-125.756204
 21
-93.095444
 31
0.0
  0
ARC
  5
170
100
AcDbEntity
  8
0
  6
CONTINUOUS
 62
    16
100
AcDbCircle
 10
-125.264019
 20
-93.276078
 30
0.0
 40
0.121875
100
AcDbArc
 50
-90.0
 51
83.288541
  0
ARC
  5
171
100
AcDbEntity
  8
0
  6
CONTINUOUS
 62
    16
100
AcDbCircle
 10
-127.00946
 20
-92.979016
 30
0.0
 40
0.121875
100
AcDbArc
 50
-83.288541
 51
0.0
  0
LINE
  5
172
100
AcDbEntity
  8
0
  6
CONTINUOUS
 62
    16
100
AcDbLine
 10
-127.462454
 20
-93.155038
 30
0.0
 11
-126.995217
 21
-93.100056
 31
0.0
  0
ARC
  5
173
100
AcDbEntity
  8
0
  6
CONTINUOUS
 62
    16
100
AcDbCircle
 10
-127.44821
 20
-93.276078
 30
0.0
 40
0.121875
100
AcDbArc
 50
96.711459
 51
-90.0
  0
LINE
  5
174
100
AcDbEntity
  8
0
  6
CONTINUOUS
 62
    16
100
AcDbLine
 10
-127.00946
 20
-90.645562
 30
0.0
 11
-127.455459
 21
-90.618987
 31
0.0
  0
ARC
  5
175
100
AcDbEntity
  8
0
  6
CONTINUOUS
 62
    16
100
AcDbCircle
 10
-127.00946
 20
-90.767437
 30
0.0
 40
0.121875
100
AcDbArc
 50
0.0
 51
90.0
  0
ARC
  5
176
100
AcDbEntity
  8
0
  6
CONTINUOUS
 62
    16
100
AcDbCircle
 10
-129.253088
 20
-80.791848
 30
0.0
 40
9.75
100
AcDbArc
 50
-79.46534
 51
-70.671826
  0
ARC
  5
177
100
AcDbEntity
  8
0
  6
CONTINUOUS
 62
    16
100
AcDbCircle
 10
-125.98571
 20
-90.107328
 30
0.0
 40
0.121875
100
AcDbArc
 50
0.0
 51
109.328174
  0
ARC
  5
178
100
AcDbEntity
  8
0
  6
CONTINUOUS
 62
    16
100
AcDbCircle
 10
-127.44821
 20
-90.497328
 30
0.0
 40
0.121875
100
AcDbArc
 50
100.53466
 51
-93.409894
  0
LINE
  5
179
100
AcDbEntity
  8
0
  6
CONTINUOUS
 62
    16
100
AcDbLine
 10
-125.863835
 20
-92.974404
 30
0.0
 11
-125.863835
 21
-90.107328
 31
0.0
  0
LINE
  5
17A
100
AcDbEntity
  8
0
  6
CONTINUOUS
 62
    16
100
AcDbLine
 10
-126.887585
 20
-92.979016
 30
0.0
 11
-126.887585
 21
-90.767437
 31
0.0
  0
LINE
  5
17B
100
AcDbEntity
  8
0
  6
CONTINUOUS
 62
    16
100
AcDbLine
 10
-130.410079
 20
-93.397953
 30
0.0
 11
-128.216329
 21
-93.397953
 31
0.0
  0
LINE
  5
17C
100
AcDbEntity
  8
0
  6
CONTINUOUS
 62
    16
100
AcDbLine
 10
-129.678829
 20
-89.985453
 30
0.0
 11
-128.216329
 21
-89.985453
 31
0.0
  0
ARC
  5
17D
100
AcDbEntity
  8
0
  6
CONTINUOUS
 62
    16
100
AcDbCircle
 10
-129.456791
 20
-90.365924
 30
0.0
 40
0.121875
100
AcDbArc
 50
-51.766203
 51
86.30527
  0
LINE
  5
17E
100
AcDbEntity
  8
0
  6
CONTINUOUS
 62
    16
100
AcDbLine
 10
-129.686683
 20
-90.22895
 30
0.0
 11
-129.448937
 21
-90.244302
 31
0.0
  0
ARC
  5
17F
100
AcDbEntity
  8
0
  6
CONTINUOUS
 62
    16
100
AcDbCircle
 10
-129.678829
 20
-90.107328
 30
0.0
 40
0.121875
100
AcDbArc
 50
90.0
 51
-93.69473
  0
ARC
  5
180
100
AcDbEntity
  8
0
  6
CONTINUOUS
 62
    16
100
AcDbCircle
 10
-130.061634
 20
-92.995634
 30
0.0
 40
0.121875
100
AcDbArc
 50
-84.193047
 51
46.974934
  0
LINE
  5
181
100
AcDbEntity
  8
0
  6
CONTINUOUS
 62
    16
100
AcDbLine
 10
-130.42241
 20
-93.154828
 30
0.0
 11
-130.049303
 21
-93.116884
 31
0.0
  0
ARC
  5
182
100
AcDbEntity
  8
0
  6
CONTINUOUS
 62
    16
100
AcDbCircle
 10
-130.410079
 20
-93.276078
 30
0.0
 40
0.121875
100
AcDbArc
 50
95.806953
 51
-90.0
  0
LINE
  5
183
100
AcDbEntity
  8
0
  6
CONTINUOUS
 62
    16
100
AcDbLine
 10
-130.77916
 20
-90.228461
 30
0.0
 11
-131.151185
 21
-90.269689
 31
0.0
  0
ARC
  5
184
100
AcDbEntity
  8
0
  6
CONTINUOUS
 62
    16
100
AcDbCircle
 10
-130.792584
 20
-90.107328
 30
0.0
 40
0.121875
100
AcDbArc
 50
-83.676305
 51
90.0
  0
ARC
  5
185
100
AcDbEntity
  8
0
  6
CONTINUOUS
 62
    16
100
AcDbCircle
 10
-127.648481
 20
-92.602914
 30
0.0
 40
2.4375
100
AcDbArc
 50
102.818894
 51
128.233797
  0
ARC
  5
186
100
AcDbEntity
  8
0
  6
CONTINUOUS
 62
    16
100
AcDbCircle
 10
-128.216329
 20
-90.107328
 30
0.0
 40
0.121875
100
AcDbArc
 50
-77.181106
 51
90.0
  0
LINE
  5
187
100
AcDbEntity
  8
0
  6
CONTINUOUS
 62
    16
100
AcDbLine
 10
-129.156981
 20
-90.688277
 30
0.0
 11
-130.155106
 21
-91.474678
 31
0.0
  0
LINE
  5
188
100
AcDbEntity
  8
0
  6
CONTINUOUS
 62
    16
100
AcDbLine
 10
-129.381366
 20
-90.461655
 30
0.0
 11
-130.389481
 21
-91.255928
 31
0.0
  0
ARC
  5
189
100
AcDbEntity
  8
0
  6
CONTINUOUS
 62
    16
100
AcDbCircle
 10
-127.930786
 20
-92.217022
 30
0.0
 40
0.975
100
AcDbArc
 50
-133.025066
 51
-105.089337
  0
ARC
  5
18A
100
AcDbEntity
  8
0
  6
CONTINUOUS
 62
    16
100
AcDbCircle
 10
-128.216329
 20
-93.276078
 30
0.0
 40
0.121875
100
AcDbArc
 50
-90.0
 51
74.910663
  0
LINE
  5
18B
100
AcDbEntity
  8
0
  6
CONTINUOUS
 62
    16
100
AcDbLine
 10
-128.596046
 20
-92.929801
 30
0.0
 11
-130.155106
 21
-91.474678
 31
0.0
  0
LINE
  5
18C
100
AcDbEntity
  8
0
  6
CONTINUOUS
 62
    16
100
AcDbLine
 10
-129.978476
 20
-92.906537
 30
0.0
 11
-130.891218
 21
-92.054644
 31
0.0
  0
ARC
  5
18D
100
AcDbEntity
  8
0
  6
CONTINUOUS
 62
    16
100
AcDbCircle
 10
-112.77387
 20
-90.107328
 30
0.0
 40
0.121875
100
AcDbArc
 50
-77.181106
 51
90.0
  0
LINE
  5
18E
100
AcDbEntity
  8
0
  6
CONTINUOUS
 62
    16
100
AcDbLine
 10
-114.244223
 20
-90.22895
 30
0.0
 11
-114.006478
 21
-90.244302
 31
0.0
  0
ARC
  5
18F
100
AcDbEntity
  8
0
  6
CONTINUOUS
 62
    16
100
AcDbCircle
 10
-114.014331
 20
-90.365924
 30
0.0
 40
0.121875
100
AcDbArc
 50
-51.766203
 51
86.30527
  0
LINE
  5
190
100
AcDbEntity
  8
0
  6
CONTINUOUS
 62
    16
100
AcDbLine
 10
-114.23637
 20
-89.985453
 30
0.0
 11
-112.77387
 21
-89.985453
 31
0.0
  0
ARC
  5
191
100
AcDbEntity
  8
0
  6
CONTINUOUS
 62
    16
100
AcDbCircle
 10
-115.350124
 20
-90.107328
 30
0.0
 40
0.121875
100
AcDbArc
 50
-83.676305
 51
90.0
  0
ARC
  5
192
100
AcDbEntity
  8
0
  6
CONTINUOUS
 62
    16
100
AcDbCircle
 10
-115.695301
 20
-90.390822
 30
0.0
 40
0.121875
100
AcDbArc
 50
96.323695
 51
-133.025066
  0
LINE
  5
193
100
AcDbEntity
  8
0
  6
CONTINUOUS
 62
    16
100
AcDbLine
 10
-115.3367
 20
-90.228461
 30
0.0
 11
-115.708725
 21
-90.269689
 31
0.0
  0
ARC
  5
194
100
AcDbEntity
  8
0
  6
CONTINUOUS
 62
    16
100
AcDbCircle
 10
-114.23637
 20
-90.107328
 30
0.0
 40
0.121875
100
AcDbArc
 50
90.0
 51
-93.69473
  0
LINE
  5
195
100
AcDbEntity
  8
0
  6
CONTINUOUS
 62
    16
100
AcDbLine
 10
-113.714521
 20
-90.688277
 30
0.0
 11
-114.712647
 21
-91.474678
 31
0.0
  0
LINE
  5
196
100
AcDbEntity
  8
0
  6
CONTINUOUS
 62
    16
100
AcDbLine
 10
-114.947022
 20
-91.255928
 30
0.0
 11
-115.778459
 21
-90.47992
 31
0.0
  0
LINE
  5
197
100
AcDbEntity
  8
0
  6
CONTINUOUS
 62
    16
100
AcDbLine
 10
-113.938906
 20
-90.461655
 30
0.0
 11
-114.947022
 21
-91.255928
 31
0.0
  0
ARC
  5
198
100
AcDbEntity
  8
0
  6
CONTINUOUS
 62
    16
100
AcDbCircle
 10
-112.206021
 20
-92.602914
 30
0.0
 40
2.4375
100
AcDbArc
 50
102.818894
 51
128.233797
  0
ARC
  5
199
100
AcDbEntity
  8
0
  6
CONTINUOUS
 62
    16
100
AcDbCircle
 10
-112.488326
 20
-92.217022
 30
0.0
 40
0.975
100
AcDbArc
 50
-133.025066
 51
-105.089337
  0
ARC
  5
19A
100
AcDbEntity
  8
0
  6
CONTINUOUS
 62
    16
100
AcDbCircle
 10
-112.77387
 20
-93.276078
 30
0.0
 40
0.121875
100
AcDbArc
 50
-90.0
 51
74.910663
  0
LINE
  5
19B
100
AcDbEntity
  8
0
  6
CONTINUOUS
 62
    16
100
AcDbLine
 10
-114.979951
 20
-93.154828
 30
0.0
 11
-114.606843
 21
-93.116884
 31
0.0
  0
ARC
  5
19C
100
AcDbEntity
  8
0
  6
CONTINUOUS
 62
    16
100
AcDbCircle
 10
-114.619174
 20
-92.995634
 30
0.0
 40
0.121875
100
AcDbArc
 50
-84.193047
 51
46.974934
  0
LINE
  5
19D
100
AcDbEntity
  8
0
  6
CONTINUOUS
 62
    16
100
AcDbLine
 10
-116.06947
 20
-93.154786
 30
0.0
 11
-116.457752
 21
-93.116679
 31
0.0
  0
ARC
  5
19E
100
AcDbEntity
  8
0
  6
CONTINUOUS
 62
    16
100
AcDbCircle
 10
-116.081374
 20
-93.276078
 30
0.0
 40
0.121875
100
AcDbArc
 50
-90.0
 51
84.394877
  0
ARC
  5
19F
100
AcDbEntity
  8
0
  6
CONTINUOUS
 62
    16
100
AcDbCircle
 10
-114.96762
 20
-93.276078
 30
0.0
 40
0.121875
100
AcDbArc
 50
95.806953
 51
-90.0
  0
LINE
  5
1A0
100
AcDbEntity
  8
0
  6
CONTINUOUS
 62
    16
100
AcDbLine
 10
-114.96762
 20
-93.397953
 30
0.0
 11
-112.77387
 21
-93.397953
 31
0.0
  0
LINE
  5
1A1
100
AcDbEntity
  8
0
  6
CONTINUOUS
 62
    16
100
AcDbLine
 10
-114.536016
 20
-92.906537
 30
0.0
 11
-115.448758
 21
-92.054644
 31
0.0
  0
LINE
  5
1A2
100
AcDbEntity
  8
0
  6
CONTINUOUS
 62
    16
100
AcDbLine
 10
-115.448758
 20
-92.054644
 30
0.0
 11
-116.521273
 21
-92.899655
 31
0.0
  0
LINE
  5
1A3
100
AcDbEntity
  8
0
  6
CONTINUOUS
 62
    16
100
AcDbLine
 10
-113.153586
 20
-92.929801
 30
0.0
 11
-114.712647
 21
-91.474678
 31
0.0
  0
ARC
  5
1A4
100
AcDbEntity
  8
0
  6
CONTINUOUS
 62
    16
100
AcDbCircle
 10
-116.445848
 20
-92.995387
 30
0.0
 40
0.121875
100
AcDbArc
 50
128.233797
 51
-95.605123
  0
LINE
  5
1A5
100
AcDbEntity
  8
0
  6
CONTINUOUS
 62
    16
100
AcDbLine
 10
-115.683134
 20
-91.835894
 30
0.0
 11
-116.87057
 21
-92.771448
 31
0.0
  0
LINE
  5
1A6
100
AcDbEntity
  8
0
  6
CONTINUOUS
 62
    15
100
AcDbLine
 10
-130.955484
 20
-98.717205
 30
0.0
 11
-130.149966
 21
-98.829666
 31
0.0
  0
LINE
  5
1A7
100
AcDbEntity
  8
0
  6
CONTINUOUS
 62
    15
100
AcDbLine
 10
-130.149966
 20
-98.829666
 30
0.0
 11
-129.333485
 21
-98.922056
 31
0.0
  0
LINE
  5
1A8
100
AcDbEntity
  8
0
  6
CONTINUOUS
 62
    15
100
AcDbLine
 10
-129.333485
 20
-98.922056
 30
0.0
 11
-128.508193
 21
-98.994149
 31
0.0
  0
LINE
  5
1A9
100
AcDbEntity
  8
0
  6
CONTINUOUS
 62
    15
100
AcDbLine
 10
-128.508193
 20
-98.994149
 30
0.0
 11
-127.67627
 21
-99.045771
 31
0.0
  0
LINE
  5
1AA
100
AcDbEntity
  8
0
  6
CONTINUOUS
 62
    15
100
AcDbLine
 10
-127.67627
 20
-99.045771
 30
0.0
 11
-126.839915
 21
-99.076795
 31
0.0
  0
LINE
  5
1AB
100
AcDbEntity
  8
0
  6
CONTINUOUS
 62
    15
100
AcDbLine
 10
-126.839915
 20
-99.076795
 30
0.0
 11
-126.001341
 21
-99.087145
 31
0.0
  0
LINE
  5
1AC
100
AcDbEntity
  8
0
  6
CONTINUOUS
 62
    15
100
AcDbLine
 10
-126.001341
 20
-99.087145
 30
0.0
 11
-125.162767
 21
-99.076795
 31
0.0
  0
LINE
  5
1AD
100
AcDbEntity
  8
0
  6
CONTINUOUS
 62
    15
100
AcDbLine
 10
-125.162767
 20
-99.076795
 30
0.0
 11
-124.326412
 21
-99.045771
 31
0.0
  0
LINE
  5
1AE
100
AcDbEntity
  8
0
  6
CONTINUOUS
 62
    15
100
AcDbLine
 10
-124.326412
 20
-99.045771
 30
0.0
 11
-123.494489
 21
-98.994149
 31
0.0
  0
LINE
  5
1AF
100
AcDbEntity
  8
0
  6
CONTINUOUS
 62
    15
100
AcDbLine
 10
-123.494489
 20
-98.994149
 30
0.0
 11
-122.669198
 21
-98.922056
 31
0.0
  0
LINE
  5
1B0
100
AcDbEntity
  8
0
  6
CONTINUOUS
 62
    15
100
AcDbLine
 10
-122.669198
 20
-98.922056
 30
0.0
 11
-121.852716
 21
-98.829666
 31
0.0
  0
LINE
  5
1B1
100
AcDbEntity
  8
0
  6
CONTINUOUS
 62
    15
100
AcDbLine
 10
-121.852716
 20
-98.829666
 30
0.0
 11
-121.047199
 21
-98.717205
 31
0.0
  0
LINE
  5
1B2
100
AcDbEntity
  8
0
  6
CONTINUOUS
 62
    15
100
AcDbLine
 10
-121.047199
 20
-98.717205
 30
0.0
 11
-120.254764
 21
-98.584943
 31
0.0
  0
LINE
  5
1B3
100
AcDbEntity
  8
0
  6
CONTINUOUS
 62
    15
100
AcDbLine
 10
-120.254764
 20
-98.584943
 30
0.0
 11
-119.477494
 21
-98.433197
 31
0.0
  0
LINE
  5
1B4
100
AcDbEntity
  8
0
  6
CONTINUOUS
 62
    15
100
AcDbLine
 10
-119.477494
 20
-98.433197
 30
0.0
 11
-118.717423
 21
-98.262324
 31
0.0
  0
LINE
  5
1B5
100
AcDbEntity
  8
0
  6
CONTINUOUS
 62
    15
100
AcDbLine
 10
-118.717423
 20
-98.262324
 30
0.0
 11
-117.976535
 21
-98.072723
 31
0.0
  0
LINE
  5
1B6
100
AcDbEntity
  8
0
  6
CONTINUOUS
 62
    15
100
AcDbLine
 10
-117.976535
 20
-98.072723
 30
0.0
 11
-117.256757
 21
-97.86483
 31
0.0
  0
LINE
  5
1B7
100
AcDbEntity
  8
0
  6
CONTINUOUS
 62
    15
100
AcDbLine
 10
-117.256757
 20
-97.86483
 30
0.0
 11
-116.559952
 21
-97.639111
 31
0.0
  0
LINE
  5
1B8
100
AcDbEntity
  8
0
  6
CONTINUOUS
 62
    15
100
AcDbLine
 10
-116.559952
 20
-97.639111
 30
0.0
 11
-115.887917
 21
-97.396061
 31
0.0
  0
LINE
  5
1B9
100
AcDbEntity
  8
0
  6
CONTINUOUS
 62
    15
100
AcDbLine
 10
-115.887917
 20
-97.396061
 30
0.0
 11
-115.242378
 21
-97.136199
 31
0.0
  0
LINE
  5
1BA
100
AcDbEntity
  8
0
  6
CONTINUOUS
 62
    15
100
AcDbLine
 10
-115.242378
 20
-97.136199
 30
0.0
 11
-114.624987
 21
-96.860057
 31
0.0
  0
LINE
  5
1BB
100
AcDbEntity
  8
0
  6
CONTINUOUS
 62
    15
100
AcDbLine
 10
-114.624987
 20
-96.860057
 30
0.0
 11
-114.037321
 21
-96.568177
 31
0.0
  0
LINE
  5
1BC
100
AcDbEntity
  8
0
  6
CONTINUOUS
 62
    15
100
AcDbLine
 10
-114.037321
 20
-96.568177
 30
0.0
 11
-113.480881
 21
-96.261104
 31
0.0
  0
LINE
  5
1BD
100
AcDbEntity
  8
0
  6
CONTINUOUS
 62
    15
100
AcDbLine
 10
-113.480881
 20
-96.261104
 30
0.0
 11
-112.957102
 21
-95.939375
 31
0.0
  0
LINE
  5
1BE
100
AcDbEntity
  8
0
  6
CONTINUOUS
 62
    15
100
AcDbLine
 10
-112.957102
 20
-95.939375
 30
0.0
 11
-112.467351
 21
-95.603511
 31
0.0
  0
LINE
  5
1BF
100
AcDbEntity
  8
0
  6
CONTINUOUS
 62
    15
100
AcDbLine
 10
-112.467351
 20
-95.603511
 30
0.0
 11
-112.012953
 21
-95.254017
 31
0.0
  0
LINE
  5
1C0
100
AcDbEntity
  8
0
  6
CONTINUOUS
 62
    15
100
AcDbLine
 10
-112.012953
 20
-95.254017
 30
0.0
 11
-111.595199
 21
-94.891374
 31
0.0
  0
LINE
  5
1C1
100
AcDbEntity
  8
0
  6
CONTINUOUS
 62
    15
100
AcDbLine
 10
-111.595199
 20
-94.891374
 30
0.0
 11
-111.215381
 21
-94.516054
 31
0.0
  0
LINE
  5
1C2
100
AcDbEntity
  8
0
  6
CONTINUOUS
 62
    15
100
AcDbLine
 10
-111.215381
 20
-94.516054
 30
0.0
 11
-110.87482
 21
-94.128535
 31
0.0
  0
LINE
  5
1C3
100
AcDbEntity
  8
0
  6
CONTINUOUS
 62
    15
100
AcDbLine
 10
-110.87482
 20
-94.128535
 30
0.0
 11
-110.574902
 21
-93.729348
 31
0.0
  0
LINE
  5
1C4
100
AcDbEntity
  8
0
  6
CONTINUOUS
 62
    15
100
AcDbLine
 10
-110.574902
 20
-93.729348
 30
0.0
 11
-110.317103
 21
-93.319145
 31
0.0
  0
LINE
  5
1C5
100
AcDbEntity
  8
0
  6
CONTINUOUS
 62
    15
100
AcDbLine
 10
-110.317103
 20
-93.319145
 30
0.0
 11
-110.10299
 21
-92.898794
 31
0.0
  0
LINE
  5
1C6
100
AcDbEntity
  8
0
  6
CONTINUOUS
 62
    15
100
AcDbLine
 10
-110.10299
 20
-92.898794
 30
0.0
 11
-109.934175
 21
-92.469489
 31
0.0
  0
LINE
  5
1C7
100
AcDbEntity
  8
0
  6
CONTINUOUS
 62
    15
100
AcDbLine
 10
-109.934175
 20
-92.469489
 30
0.0
 11
-109.812212
 21
-92.03285
 31
0.0
  0
LINE
  5
1C8
100
AcDbEntity
  8
0
  6
CONTINUOUS
 62
    15
100
AcDbLine
 10
-109.812212
 20
-92.03285
 30
0.0
 11
-109.738426
 21
-91.590965
 31
0.0
  0
LINE
  5
1C9
100
AcDbEntity
  8
0
  6
CONTINUOUS
 62
    15
100
AcDbLine
 10
-109.738426
 20
-91.590965
 30
0.0
 11
-109.713724
 21
-91.146336
 31
0.0
  0
LINE
  5
1CA
100
AcDbEntity
  8
0
  6
CONTINUOUS
 62
    15
100
AcDbLine
 10
-109.713724
 20
-91.146336
 30
0.0
 11
-109.738426
 21
-90.701707
 31
0.0
  0
LINE
  5
1CB
100
AcDbEntity
  8
0
  6
CONTINUOUS
 62
    15
100
AcDbLine
 10
-109.738426
 20
-90.701707
 30
0.0
 11
-109.812212
 21
-90.259822
 31
0.0
  0
LINE
  5
1CC
100
AcDbEntity
  8
0
  6
CONTINUOUS
 62
    15
100
AcDbLine
 10
-109.812212
 20
-90.259822
 30
0.0
 11
-109.934175
 21
-89.823183
 31
0.0
  0
LINE
  5
1CD
100
AcDbEntity
  8
0
  6
CONTINUOUS
 62
    15
100
AcDbLine
 10
-109.934175
 20
-89.823183
 30
0.0
 11
-110.10299
 21
-89.393878
 31
0.0
  0
LINE
  5
1CE
100
AcDbEntity
  8
0
  6
CONTINUOUS
 62
    15
100
AcDbLine
 10
-110.10299
 20
-89.393878
 30
0.0
 11
-110.317103
 21
-88.973527
 31
0.0
  0
LINE
  5
1CF
100
AcDbEntity
  8
0
  6
CONTINUOUS
 62
    15
100
AcDbLine
 10
-110.317103
 20
-88.973527
 30
0.0
 11
-110.574902
 21
-88.563324
 31
0.0
  0
LINE
  5
1D0
100
AcDbEntity
  8
0
  6
CONTINUOUS
 62
    15
100
AcDbLine
 10
-110.574902
 20
-88.563324
 30
0.0
 11
-110.87482
 21
-88.164137
 31
0.0
  0
LINE
  5
1D1
100
AcDbEntity
  8
0
  6
CONTINUOUS
 62
    15
100
AcDbLine
 10
-110.87482
 20
-88.164137
 30
0.0
 11
-111.215381
 21
-87.776618
 31
0.0
  0
LINE
  5
1D2
100
AcDbEntity
  8
0
  6
CONTINUOUS
 62
    15
100
AcDbLine
 10
-111.215381
 20
-87.776618
 30
0.0
 11
-111.595199
 21
-87.401298
 31
0.0
  0
LINE
  5
1D3
100
AcDbEntity
  8
0
  6
CONTINUOUS
 62
    15
100
AcDbLine
 10
-111.595199
 20
-87.401298
 30
0.0
 11
-112.012953
 21
-87.038655
 31
0.0
  0
LINE
  5
1D4
100
AcDbEntity
  8
0
  6
CONTINUOUS
 62
    15
100
AcDbLine
 10
-112.012953
 20
-87.038655
 30
0.0
 11
-112.467351
 21
-86.689161
 31
0.0
  0
LINE
  5
1D5
100
AcDbEntity
  8
0
  6
CONTINUOUS
 62
    15
100
AcDbLine
 10
-112.467351
 20
-86.689161
 30
0.0
 11
-112.957102
 21
-86.353297
 31
0.0
  0
LINE
  5
1D6
100
AcDbEntity
  8
0
  6
CONTINUOUS
 62
    15
100
AcDbLine
 10
-112.957102
 20
-86.353297
 30
0.0
 11
-113.480881
 21
-86.031568
 31
0.0
  0
LINE
  5
1D7
100
AcDbEntity
  8
0
  6
CONTINUOUS
 62
    15
100
AcDbLine
 10
-113.480881
 20
-86.031568
 30
0.0
 11
-114.037321
 21
-85.724495
 31
0.0
  0
LINE
  5
1D8
100
AcDbEntity
  8
0
  6
CONTINUOUS
 62
    15
100
AcDbLine
 10
-114.037321
 20
-85.724495
 30
0.0
 11
-114.624987
 21
-85.432615
 31
0.0
  0
LINE
  5
1D9
100
AcDbEntity
  8
0
  6
CONTINUOUS
 62
    15
100
AcDbLine
 10
-114.624987
 20
-85.432615
 30
0.0
 11
-115.242378
 21
-85.156473
 31
0.0
  0
LINE
  5
1DA
100
AcDbEntity
  8
0
  6
CONTINUOUS
 62
    15
100
AcDbLine
 10
-115.242378
 20
-85.156473
 30
0.0
 11
-115.887917
 21
-84.896611
 31
0.0
  0
LINE
  5
1DB
100
AcDbEntity
  8
0
  6
CONTINUOUS
 62
    15
100
AcDbLine
 10
-115.887917
 20
-84.896611
 30
0.0
 11
-116.559952
 21
-84.653561
 31
0.0
  0
LINE
  5
1DC
100
AcDbEntity
  8
0
  6
CONTINUOUS
 62
    15
100
AcDbLine
 10
-116.559952
 20
-84.653561
 30
0.0
 11
-117.256757
 21
-84.427842
 31
0.0
  0
LINE
  5
1DD
100
AcDbEntity
  8
0
  6
CONTINUOUS
 62
    15
100
AcDbLine
 10
-117.256757
 20
-84.427842
 30
0.0
 11
-117.976535
 21
-84.219949
 31
0.0
  0
LINE
  5
1DE
100
AcDbEntity
  8
0
  6
CONTINUOUS
 62
    15
100
AcDbLine
 10
-117.976535
 20
-84.219949
 30
0.0
 11
-118.717423
 21
-84.030348
 31
0.0
  0
LINE
  5
1DF
100
AcDbEntity
  8
0
  6
CONTINUOUS
 62
    15
100
AcDbLine
 10
-118.717423
 20
-84.030348
 30
0.0
 11
-119.477494
 21
-83.859475
 31
0.0
  0
LINE
  5
1E0
100
AcDbEntity
  8
0
  6
CONTINUOUS
 62
    15
100
AcDbLine
 10
-119.477494
 20
-83.859475
 30
0.0
 11
-120.254764
 21
-83.707729
 31
0.0
  0
LINE
  5
1E1
100
AcDbEntity
  8
0
  6
CONTINUOUS
 62
    15
100
AcDbLine
 10
-120.254764
 20
-83.707729
 30
0.0
 11
-121.047199
 21
-83.575467
 31
0.0
  0
LINE
  5
1E2
100
AcDbEntity
  8
0
  6
CONTINUOUS
 62
    15
100
AcDbLine
 10
-121.047199
 20
-83.575467
 30
0.0
 11
-121.852716
 21
-83.463006
 31
0.0
  0
LINE
  5
1E3
100
AcDbEntity
  8
0
  6
CONTINUOUS
 62
    15
100
AcDbLine
 10
-121.852716
 20
-83.463006
 30
0.0
 11
-122.669198
 21
-83.370616
 31
0.0
  0
LINE
  5
1E4
100
AcDbEntity
  8
0
  6
CONTINUOUS
 62
    15
100
AcDbLine
 10
-122.669198
 20
-83.370616
 30
0.0
 11
-123.494489
 21
-83.298523
 31
0.0
  0
LINE
  5
1E5
100
AcDbEntity
  8
0
  6
CONTINUOUS
 62
    15
100
AcDbLine
 10
-123.494489
 20
-83.298523
 30
0.0
 11
-124.326412
 21
-83.246901
 31
0.0
  0
LINE
  5
1E6
100
AcDbEntity
  8
0
  6
CONTINUOUS
 62
    15
100
AcDbLine
 10
-124.326412
 20
-83.246901
 30
0.0
 11
-125.162767
 21
-83.215877
 31
0.0
  0
LINE
  5
1E7
100
AcDbEntity
  8
0
  6
CONTINUOUS
 62
    15
100
AcDbLine
 10
-125.162767
 20
-83.215877
 30
0.0
 11
-126.001341
 21
-83.205527
 31
0.0
  0
LINE
  5
1E8
100
AcDbEntity
  8
0
  6
CONTINUOUS
 62
    15
100
AcDbLine
 10
-126.001341
 20
-83.205527
 30
0.0
 11
-126.839915
 21
-83.215877
 31
0.0
  0
LINE
  5
1E9
100
AcDbEntity
  8
0
  6
CONTINUOUS
 62
    15
100
AcDbLine
 10
-126.839915
 20
-83.215877
 30
0.0
 11
-127.67627
 21
-83.246901
 31
0.0
  0
LINE
  5
1EA
100
AcDbEntity
  8
0
  6
CONTINUOUS
 62
    15
100
AcDbLine
 10
-127.67627
 20
-83.246901
 30
0.0
 11
-128.508193
 21
-83.298523
 31
0.0
  0
LINE
  5
1EB
100
AcDbEntity
  8
0
  6
CONTINUOUS
 62
    15
100
AcDbLine
 10
-128.508193
 20
-83.298523
 30
0.0
 11
-129.333485
 21
-83.370616
 31
0.0
  0
LINE
  5
1EC
100
AcDbEntity
  8
0
  6
CONTINUOUS
 62
    15
100
AcDbLine
 10
-129.333485
 20
-83.370616
 30
0.0
 11
-130.149966
 21
-83.463006
 31
0.0
  0
LINE
  5
1ED
100
AcDbEntity
  8
0
  6
CONTINUOUS
 62
    15
100
AcDbLine
 10
-130.149966
 20
-83.463006
 30
0.0
 11
-130.955484
 21
-83.575467
 31
0.0
  0
LINE
  5
1EE
100
AcDbEntity
  8
0
  6
CONTINUOUS
 62
    15
100
AcDbLine
 10
-130.955484
 20
-83.575467
 30
0.0
 11
-131.747918
 21
-83.707729
 31
0.0
  0
LINE
  5
1EF
100
AcDbEntity
  8
0
  6
CONTINUOUS
 62
    15
100
AcDbLine
 10
-131.747918
 20
-83.707729
 30
0.0
 11
-132.525188
 21
-83.859475
 31
0.0
  0
LINE
  5
1F0
100
AcDbEntity
  8
0
  6
CONTINUOUS
 62
    15
100
AcDbLine
 10
-132.525188
 20
-83.859475
 30
0.0
 11
-133.285259
 21
-84.030348
 31
0.0
  0
LINE
  5
1F1
100
AcDbEntity
  8
0
  6
CONTINUOUS
 62
    15
100
AcDbLine
 10
-133.285259
 20
-84.030348
 30
0.0
 11
-134.026147
 21
-84.219949
 31
0.0
  0
LINE
  5
1F2
100
AcDbEntity
  8
0
  6
CONTINUOUS
 62
    15
100
AcDbLine
 10
-134.026147
 20
-84.219949
 30
0.0
 11
-134.745926
 21
-84.427842
 31
0.0
  0
LINE
  5
1F3
100
AcDbEntity
  8
0
  6
CONTINUOUS
 62
    15
100
AcDbLine
 10
-134.745926
 20
-84.427842
 30
0.0
 11
-135.442731
 21
-84.653561
 31
0.0
  0
LINE
  5
1F4
100
AcDbEntity
  8
0
  6
CONTINUOUS
 62
    15
100
AcDbLine
 10
-135.442731
 20
-84.653561
 30
0.0
 11
-136.114766
 21
-84.896611
 31
0.0
  0
LINE
  5
1F5
100
AcDbEntity
  8
0
  6
CONTINUOUS
 62
    15
100
AcDbLine
 10
-136.114766
 20
-84.896611
 30
0.0
 11
-136.760304
 21
-85.156473
 31
0.0
  0
LINE
  5
1F6
100
AcDbEntity
  8
0
  6
CONTINUOUS
 62
    15
100
AcDbLine
 10
-136.760304
 20
-85.156473
 30
0.0
 11
-137.377695
 21
-85.432615
 31
0.0
  0
LINE
  5
1F7
100
AcDbEntity
  8
0
  6
CONTINUOUS
 62
    15
100
AcDbLine
 10
-137.377695
 20
-85.432615
 30
0.0
 11
-137.965362
 21
-85.724495
 31
0.0
  0
LINE
  5
1F8
100
AcDbEntity
  8
0
  6
CONTINUOUS
 62
    15
100
AcDbLine
 10
-137.965362
 20
-85.724495
 30
0.0
 11
-138.521801
 21
-86.031568
 31
0.0
  0
LINE
  5
1F9
100
AcDbEntity
  8
0
  6
CONTINUOUS
 62
    15
100
AcDbLine
 10
-138.521801
 20
-86.031568
 30
0.0
 11
-139.045581
 21
-86.353297
 31
0.0
  0
LINE
  5
1FA
100
AcDbEntity
  8
0
  6
CONTINUOUS
 62
    15
100
AcDbLine
 10
-139.045581
 20
-86.353297
 30
0.0
 11
-139.535331
 21
-86.689161
 31
0.0
  0
LINE
  5
1FB
100
AcDbEntity
  8
0
  6
CONTINUOUS
 62
    15
100
AcDbLine
 10
-139.535331
 20
-86.689161
 30
0.0
 11
-139.98973
 21
-87.038655
 31
0.0
  0
LINE
  5
1FC
100
AcDbEntity
  8
0
  6
CONTINUOUS
 62
    15
100
AcDbLine
 10
-139.98973
 20
-87.038655
 30
0.0
 11
-140.407484
 21
-87.401298
 31
0.0
  0
LINE
  5
1FD
100
AcDbEntity
  8
0
  6
CONTINUOUS
 62
    15
100
AcDbLine
 10
-140.407484
 20
-87.401298
 30
0.0
 11
-140.787302
 21
-87.776618
 31
0.0
  0
LINE
  5
1FE
100
AcDbEntity
  8
0
  6
CONTINUOUS
 62
    15
100
AcDbLine
 10
-140.787302
 20
-87.776618
 30
0.0
 11
-141.127863
 21
-88.164137
 31
0.0
  0
LINE
  5
1FF
100
AcDbEntity
  8
0
  6
CONTINUOUS
 62
    15
100
AcDbLine
 10
-141.127863
 20
-88.164137
 30
0.0
 11
-141.427781
 21
-88.563324
 31
0.0
  0
LINE
  5
200
100
AcDbEntity
  8
0
  6
CONTINUOUS
 62
    15
100
AcDbLine
 10
-141.427781
 20
-88.563324
 30
0.0
 11
-141.685579
 21
-88.973527
 31
0.0
  0
LINE
  5
201
100
AcDbEntity
  8
0
  6
CONTINUOUS
 62
    15
100
AcDbLine
 10
-141.685579
 20
-88.973527
 30
0.0
 11
-141.899692
 21
-89.393878
 31
0.0
  0
LINE
  5
202
100
AcDbEntity
  8
0
  6
CONTINUOUS
 62
    15
100
AcDbLine
 10
-141.899692
 20
-89.393878
 30
0.0
 11
-142.068507
 21
-89.823183
 31
0.0
  0
LINE
  5
203
100
AcDbEntity
  8
0
  6
CONTINUOUS
 62
    15
100
AcDbLine
 10
-142.068507
 20
-89.823183
 30
0.0
 11
-142.190471
 21
-90.259822
 31
0.0
  0
LINE
  5
204
100
AcDbEntity
  8
0
  6
CONTINUOUS
 62
    15
100
AcDbLine
 10
-142.190471
 20
-90.259822
 30
0.0
 11
-142.264256
 21
-90.701707
 31
0.0
  0
LINE
  5
205
100
AcDbEntity
  8
0
  6
CONTINUOUS
 62
    15
100
AcDbLine
 10
-142.264256
 20
-90.701707
 30
0.0
 11
-142.288959
 21
-91.146336
 31
0.0
  0
LINE
  5
206
100
AcDbEntity
  8
0
  6
CONTINUOUS
 62
    15
100
AcDbLine
 10
-142.288959
 20
-91.146336
 30
0.0
 11
-142.264256
 21
-91.590965
 31
0.0
  0
LINE
  5
207
100
AcDbEntity
  8
0
  6
CONTINUOUS
 62
    15
100
AcDbLine
 10
-142.264256
 20
-91.590965
 30
0.0
 11
-142.190471
 21
-92.03285
 31
0.0
  0
LINE
  5
208
100
AcDbEntity
  8
0
  6
CONTINUOUS
 62
    15
100
AcDbLine
 10
-142.190471
 20
-92.03285
 30
0.0
 11
-142.068507
 21
-92.469489
 31
0.0
  0
LINE
  5
209
100
AcDbEntity
  8
0
  6
CONTINUOUS
 62
    15
100
AcDbLine
 10
-142.068507
 20
-92.469489
 30
0.0
 11
-141.899692
 21
-92.898794
 31
0.0
  0
LINE
  5
20A
100
AcDbEntity
  8
0
  6
CONTINUOUS
 62
    15
100
AcDbLine
 10
-141.899692
 20
-92.898794
 30
0.0
 11
-141.685579
 21
-93.319145
 31
0.0
  0
LINE
  5
20B
100
AcDbEntity
  8
0
  6
CONTINUOUS
 62
    15
100
AcDbLine
 10
-141.685579
 20
-93.319145
 30
0.0
 11
-141.427781
 21
-93.729348
 31
0.0
  0
LINE
  5
20C
100
AcDbEntity
  8
0
  6
CONTINUOUS
 62
    15
100
AcDbLine
 10
-141.427781
 20
-93.729348
 30
0.0
 11
-141.127863
 21
-94.128535
 31
0.0
  0
LINE
  5
20D
100
AcDbEntity
  8
0
  6
CONTINUOUS
 62
    15
100
AcDbLine
 10
-141.127863
 20
-94.128535
 30
0.0
 11
-140.787302
 21
-94.516054
 31
0.0
  0
LINE
  5
20E
100
AcDbEntity
  8
0
  6
CONTINUOUS
 62
    15
100
AcDbLine
 10
-140.787302
 20
-94.516054
 30
0.0
 11
-140.407484
 21
-94.891374
 31
0.0
  0
LINE
  5
20F
100
AcDbEntity
  8
0
  6
CONTINUOUS
 62
    15
100
AcDbLine
 10
-140.407484
 20
-94.891374
 30
0.0
 11
-139.98973
 21
-95.254017
 31
0.0
  0
LINE
  5
210
100
AcDbEntity
  8
0
  6
CONTINUOUS
 62
    15
100
AcDbLine
 10
-139.98973
 20
-95.254017
 30
0.0
 11
-139.535331
 21
-95.603511
 31
0.0
  0
LINE
  5
211
100
AcDbEntity
  8
0
  6
CONTINUOUS
 62
    15
100
AcDbLine
 10
-139.535331
 20
-95.603511
 30
0.0
 11
-139.045581
 21
-95.939375
 31
0.0
  0
LINE
  5
212
100
AcDbEntity
  8
0
  6
CONTINUOUS
 62
    15
100
AcDbLine
 10
-139.045581
 20
-95.939375
 30
0.0
 11
-138.521801
 21
-96.261104
 31
0.0
  0
LINE
  5
213
100
AcDbEntity
  8
0
  6
CONTINUOUS
 62
    15
100
AcDbLine
 10
-138.521801
 20
-96.261104
 30
0.0
 11
-137.965362
 21
-96.568177
 31
0.0
  0
LINE
  5
214
100
AcDbEntity
  8
0
  6
CONTINUOUS
 62
    15
100
AcDbLine
 10
-137.965362
 20
-96.568177
 30
0.0
 11
-137.377695
 21
-96.860057
 31
0.0
  0
LINE
  5
215
100
AcDbEntity
  8
0
  6
CONTINUOUS
 62
    15
100
AcDbLine
 10
-137.377695
 20
-96.860057
 30
0.0
 11
-136.760304
 21
-97.136199
 31
0.0
  0
LINE
  5
216
100
AcDbEntity
  8
0
  6
CONTINUOUS
 62
    15
100
AcDbLine
 10
-136.760304
 20
-97.136199
 30
0.0
 11
-136.114766
 21
-97.396061
 31
0.0
  0
LINE
  5
217
100
AcDbEntity
  8
0
  6
CONTINUOUS
 62
    15
100
AcDbLine
 10
-136.114766
 20
-97.396061
 30
0.0
 11
-135.442731
 21
-97.639111
 31
0.0
  0
LINE
  5
218
100
AcDbEntity
  8
0
  6
CONTINUOUS
 62
    15
100
AcDbLine
 10
-135.442731
 20
-97.639111
 30
0.0
 11
-134.745926
 21
-97.86483
 31
0.0
  0
LINE
  5
219
100
AcDbEntity
  8
0
  6
CONTINUOUS
 62
    15
100
AcDbLine
 10
-134.745926
 20
-97.86483
 30
0.0
 11
-134.026147
 21
-98.072723
 31
0.0
  0
LINE
  5
21A
100
AcDbEntity
  8
0
  6
CONTINUOUS
 62
    15
100
AcDbLine
 10
-134.026147
 20
-98.072723
 30
0.0
 11
-133.285259
 21
-98.262324
 31
0.0
  0
LINE
  5
21B
100
AcDbEntity
  8
0
  6
CONTINUOUS
 62
    15
100
AcDbLine
 10
-133.285259
 20
-98.262324
 30
0.0
 11
-132.525188
 21
-98.433197
 31
0.0
  0
LINE
  5
21C
100
AcDbEntity
  8
0
  6
CONTINUOUS
 62
    15
100
AcDbLine
 10
-132.525188
 20
-98.433197
 30
0.0
 11
-131.747918
 21
-98.584943
 31
0.0
  0
LINE
  5
21D
100
AcDbEntity
  8
0
  6
CONTINUOUS
 62
    15
100
AcDbLine
 10
-131.747918
 20
-98.584943
 30
0.0
 11
-130.955484
 21
-98.717205
 31
0.0
  0
LINE
  5
21E
100
AcDbEntity
  8
0
  6
CONTINUOUS
 62
    16
100
AcDbLine
 10
134.637476
 20
-101.868643
 30
0.0
 11
134.637476
 21
-81.868643
 31
0.0
  0
ENDBLK
  5
21F
100
AcDbEntity
  8
0
100
AcDbBlockEnd
  0
BLOCK
  5
221
100
AcDbEntity
  8
0
100
AcDbBlockBegin
  2
GEN_BLOCK00003
 70
     0
 10
0.0
 20
0.0
 30
0.0
  3
GEN_BLOCK00003
  1

  0
LINE
  5
223
100
AcDbEntity
  8
0
  6
CONTINUOUS
 62
    16
100
AcDbLine
 10
-144.637476
 20
-101.868643
 30
0.0
 11
-144.637476
 21
101.868643
 31
0.0
  0
LINE
  5
224
100
AcDbEntity
  8
0
  6
CONTINUOUS
 62
    16
100
AcDbLine
 10
-144.637476
 20
-101.868643
 30
0.0
 11
134.637475
 21
-101.868643
 31
0.0
  0
LINE
  5
225
100
AcDbEntity
  8
0
  6
CONTINUOUS
 62
    16
100
AcDbLine
 10
-144.637476
 20
101.868643
 30
0.0
 11
134.637475
 21
101.868643
 31
0.0
  0
LINE
  5
226
100
AcDbEntity
  8
0
  6
CONTINUOUS
 62
    16
100
AcDbLine
 10
134.637475
 20
-101.868643
 30
0.0
 11
134.637475
 21
101.868643
 31
0.0
  0
LINE
  5
227
100
AcDbEntity
  8
0
  6
CONTINUOUS
 62
    16
100
AcDbLine
 10
-144.637476
 20
-81.868643
 30
0.0
 11
134.637476
 21
-81.868643
 31
0.0
  0
LINE
  5
228
100
AcDbEntity
  8
0
  6
CONTINUOUS
 62
    16
100
AcDbLine
 10
-24.637476
 20
-81.868643
 30
0.0
 11
-24.637476
 21
-101.868643
 31
0.0
  0
LINE
  5
229
100
AcDbEntity
  8
0
  6
CONTINUOUS
 62
    16
100
AcDbLine
 10
40.362524
 20
-81.868643
 30
0.0
 11
40.362524
 21
-101.868643
 31
0.0
  0
LINE
  5
22A
100
AcDbEntity
  8
0
  6
CONTINUOUS
 62
    16
100
AcDbLine
 10
71.787508
 20
-101.868643
 30
0.0
 11
71.787508
 21
-81.868643
 31
0.0
  0
LINE
  5
22B
100
AcDbEntity
  8
0
  6
CONTINUOUS
 62
    16
100
AcDbLine
 10
103.212492
 20
-101.868643
 30
0.0
 11
103.212492
 21
-81.868643
 31
0.0
  0
LINE
  5
22C
100
AcDbEntity
  8
0
  6
CONTINUOUS
 62
    16
100
AcDbLine
 10
-24.637476
 20
-91.868643
 30
0.0
 11
134.637476
 21
-91.868643
 31
0.0
  0
ENDBLK
  5
22D
100
AcDbEntity
  8
0
100
AcDbBlockEnd
  0
BLOCK
  5
22F
100
AcDbEntity
  8
0
100
AcDbBlockBegin
  2
PROTO
 70
     0
 10
0.0
 20
0.0
 30
0.0
  3
PROTO
  1

  0
TEXT
  5
231
100
AcDbEntity
  8
0
  6
CONTINUOUS
 62
    15
100
AcDbText
 10
-102.519525
 20
-93.247322
 30
0.0
 40
1.76
  1
Mountplesent, Dundalk, Ireland
  7
ARIAL
 11
-102.519525
 21
-93.247322
 31
0.0
100
AcDbText
 73
     1
  0
TEXT
  5
232
100
AcDbEntity
  8
0
  6
CONTINUOUS
 62
    15
100
AcDbText
 10
-100.661738
 20
-96.239322
 30
0.0
 40
1.76
  1
Telephone (353/42) 9371244
  7
ARIAL
 11
-100.661738
 21
-96.239322
 31
0.0
100
AcDbText
 73
     1
  0
TEXT
  5
233
100
AcDbEntity
  8
0
  6
CONTINUOUS
 62
    15
100
AcDbText
 10
-96.481718
 20
-99.231323
 30
0.0
 40
1.76
  1
Fax (353/42) 9371221
  7
ARIAL
 11
-96.481718
 21
-99.231323
 31
0.0
100
AcDbText
 73
     1
  0
TEXT
  5
234
100
AcDbEntity
  8
0
  6
CONTINUOUS
 62
    16
100
AcDbText
 10
-102.674341
 20
-88.294014
 30
0.0
 40
3.53
  1
EXITEX LTD
 11
-102.674341
 21
-88.294014
 31
0.0
100
AcDbText
 73
     1
  0
TEXT
  5
235
100
AcDbEntity
  8
0
  6
CONTINUOUS
 62
    15
100
AcDbText
 10
-24.63748
 20
-94.847059
 30
0.0
 40
1.76
  1
DESCRIPTION
  7
ARIAL
 11
-24.63748
 21
-94.847059
 31
0.0
100
AcDbText
 73
     1
  0
TEXT
  5
236
100
AcDbEntity
  8
0
  6
CONTINUOUS
 62
    15
100
AcDbText
 10
-24.63748
 20
-84.692793
 30
0.0
 40
1.76
  1
CODE
  7
ARIAL
 11
-24.63748
 21
-84.692793
 31
0.0
100
AcDbText
 73
     1
  0
TEXT
  5
237
100
AcDbEntity
  8
0
  6
CONTINUOUS
 62
    15
100
AcDbText
 10
42.425274
 20
-84.692793
 30
0.0
 40
1.76
  1
TOLERANCE
  7
ARIAL
 11
42.425274
 21
-84.692793
 31
0.0
100
AcDbText
 73
     1
  0
TEXT
  5
238
100
AcDbEntity
  8
0
  6
CONTINUOUS
 62
    15
100
AcDbText
 10
42.425274
 20
-94.847059
 30
0.0
 40
1.76
  1
DRAWN
  7
ARIAL
 11
42.425274
 21
-94.847059
 31
0.0
100
AcDbText
 73
     1
  0
TEXT
  5
239
100
AcDbEntity
  8
0
  6
CONTINUOUS
 62
    15
100
AcDbText
 10
74.127899
 20
-94.847059
 30
0.0
 40
1.76
  1
DRAWING No
  7
ARIAL
 11
74.127899
 21
-94.847059
 31
0.0
100
AcDbText
 73
     1
  0
TEXT
  5
23A
100
AcDbEntity
  8
0
  6
CONTINUOUS
 62
    15
100
AcDbText
 10
74.127899
 20
-84.692793
 30
0.0
 40
1.76
  1
SCALE
  7
ARIAL
 11
74.127899
 21
-84.692793
 31
0.0
100
AcDbText
 73
     1
  0
TEXT
  5
23B
100
AcDbEntity
  8
0
  6
CONTINUOUS
 62
    15
100
AcDbText
 10
105.1791
 20
-84.692793
 30
0.0
 40
1.76
  1
APPROVED
  7
ARIAL
 11
105.1791
 21
-84.692793
 31
0.0
100
AcDbText
 73
     1
  0
TEXT
  5
23C
100
AcDbEntity
  8
0
  6
CONTINUOUS
 62
    15
100
AcDbText
 10
105.1791
 20
-94.847059
 30
0.0
 40
1.76
  1
DATE
  7
ARIAL
 11
105.1791
 21
-94.847059
 31
0.0
100
AcDbText
 73
     1
  0
TEXT
  5
23D
100
AcDbEntity
  8
0
  6
CONTINUOUS
 62
    15
100
AcDbText
 10
58.63747
 20
98.838645
 30
0.0
 40
1.06
  1
DATE
  7
ARIAL
 11
58.63747
 21
98.838645
 31
0.0
100
AcDbText
 73
     1
  0
TEXT
  5
23E
100
AcDbEntity
  8
0
  6
CONTINUOUS
 62
    15
100
AcDbText
 10
66.637474
 20
98.838645
 30
0.0
 40
1.06
  1
ISSUE
  7
ARIAL
 11
66.637474
 21
98.838645
 31
0.0
100
AcDbText
 73
     1
  0
TEXT
  5
23F
100
AcDbEntity
  8
0
  6
CONTINUOUS
 62
    15
100
AcDbText
 10
89.956551
 20
98.838645
 30
0.0
 40
1.06
  1
CHANGE
  7
ARIAL
 11
89.956551
 21
98.838645
 31
0.0
100
AcDbText
 73
     1
  0
TEXT
  5
240
100
AcDbEntity
  8
0
  6
CONTINUOUS
 62
    15
100
AcDbText
 10
122.637466
 20
98.838645
 30
0.0
 40
1.06
  1
SIGNED
  7
ARIAL
 11
122.637466
 21
98.838645
 31
0.0
100
AcDbText
 73
     1
  0
TEXT
  5
241
100
AcDbEntity
  8
0
  6
CONTINUOUS
 62
    15
100
AcDbText
 10
-142.822266
 20
99.266303
 30
0.0
 40
1.06
  1
THIS DRAWING  IS  THE PROPERTY OF  EXITEX  LTD  AND  MUST
  7
ARIAL
 11
-142.822266
 21
99.266303
 31
0.0
100
AcDbText
 73
     1
  0
TEXT
  5
242
100
AcDbEntity
  8
0
  6
CONTINUOUS
 62
    15
100
AcDbText
 10
-142.822266
 20
97.464303
 30
0.0
 40
1.06
  1
NOT BE REPRODUCED IN WHOLE OR IN PART WITHOUT CONSENT
  7
ARIAL
 11
-142.822266
 21
97.464303
 31
0.0
100
AcDbText
 73
     1
  0
TEXT
  5
243
100
AcDbEntity
  8
0
  6
CONTINUOUS
 62
    15
100
AcDbText
 10
-142.822266
 20
95.662302
 30
0.0
 40
1.06
  1
C  COPYRIGHT EXITEX.
  7
ARIAL
 11
-142.822266
 21
95.662302
 31
0.0
100
AcDbText
 73
     1
  0
LINE
  5
244
100
AcDbEntity
  8
0
  6
CONTINUOUS
 62
     9
100
AcDbLine
 10
66.637475
 20
101.868643
 30
0.0
 11
66.637475
 21
87.787664
 31
0.0
  0
LINE
  5
245
100
AcDbEntity
  8
0
  6
CONTINUOUS
 62
     9
100
AcDbLine
 10
74.637475
 20
101.868643
 30
0.0
 11
74.637475
 21
87.787664
 31
0.0
  0
LINE
  5
246
100
AcDbEntity
  8
0
  6
CONTINUOUS
 62
     9
100
AcDbLine
 10
122.637475
 20
101.868643
 30
0.0
 11
122.637475
 21
87.787664
 31
0.0
  0
LINE
  5
247
100
AcDbEntity
  8
0
  6
CONTINUOUS
 62
     9
100
AcDbLine
 10
134.637475
 20
96.868643
 30
0.0
 11
58.637475
 21
96.868643
 31
0.0
  0
LINE
  5
248
100
AcDbEntity
  8
0
  6
CONTINUOUS
 62
     9
100
AcDbLine
 10
58.637475
 20
101.868643
 30
0.0
 11
58.637475
 21
87.787664
 31
0.0
  0
CIRCLE
  5
249
100
AcDbEntity
  8
0
  6
CONTINUOUS
 62
    15
100
AcDbCircle
 10
-142.051548
 20
96.16363
 30
0.0
 40
0.785832
  0
ENDBLK
  5
24A
100
AcDbEntity
  8
0
100
AcDbBlockEnd
  0
BLOCK
  5
24C
100
AcDbEntity
  8
1
100
AcDbBlockBegin
  2
GEN_BLOCK00005
 70
     0
 10
0.0
 20
0.0
 30
0.0
  3
GEN_BLOCK00005
  1

  0
LINE
  5
24E
100
AcDbEntity
  8
1
  6
CONTINUOUS
 62
    15
100
AcDbLine
 10
-27.772602
 20
12.556546
 30
0.0
 11
-26.522602
 21
12.806546
 31
0.0
  0
LINE
  5
24F
100
AcDbEntity
  8
1
  6
CONTINUOUS
 62
    15
100
AcDbLine
 10
-26.522602
 20
12.806546
 30
0.0
 11
-25.522602
 21
12.806546
 31
0.0
  0
LINE
  5
250
100
AcDbEntity
  8
1
  6
CONTINUOUS
 62
    15
100
AcDbLine
 10
-25.522602
 20
12.806546
 30
0.0
 11
-24.272602
 21
12.556546
 31
0.0
  0
LINE
  5
251
100
AcDbEntity
  8
1
  6
CONTINUOUS
 62
    15
100
AcDbLine
 10
-26.522602
 20
12.296644
 30
0.0
 11
-27.772602
 21
12.046644
 31
0.0
  0
LINE
  5
252
100
AcDbEntity
  8
1
  6
CONTINUOUS
 62
    15
100
AcDbLine
 10
-27.772602
 20
12.046644
 30
0.0
 11
-27.772602
 21
12.556546
 31
0.0
  0
LINE
  5
253
100
AcDbEntity
  8
1
  6
CONTINUOUS
 62
    15
100
AcDbLine
 10
-27.772602
 20
12.556546
 30
0.0
 11
-26.522602
 21
12.806546
 31
0.0
  0
LINE
  5
254
100
AcDbEntity
  8
1
  6
CONTINUOUS
 62
    15
100
AcDbLine
 10
-26.522602
 20
12.806546
 30
0.0
 11
-25.522602
 21
12.806546
 31
0.0
  0
LINE
  5
255
100
AcDbEntity
  8
1
  6
CONTINUOUS
 62
    15
100
AcDbLine
 10
-25.522602
 20
12.806546
 30
0.0
 11
-24.272602
 21
12.556546
 31
0.0
  0
LINE
  5
256
100
AcDbEntity
  8
1
  6
CONTINUOUS
 62
    15
100
AcDbLine
 10
-24.272602
 20
12.556546
 30
0.0
 11
-24.272602
 21
12.046644
 31
0.0
  0
LINE
  5
257
100
AcDbEntity
  8
1
  6
CONTINUOUS
 62
    15
100
AcDbLine
 10
-24.272602
 20
12.046644
 30
0.0
 11
-25.572112
 21
12.306546
 31
0.0
  0
LINE
  5
258
100
AcDbEntity
  8
1
  6
CONTINUOUS
 62
    15
100
AcDbLine
 10
-25.522602
 20
12.296644
 30
0.0
 11
-25.122602
 21
10.306546
 31
0.0
  0
LINE
  5
259
100
AcDbEntity
  8
1
  6
CONTINUOUS
 62
    15
100
AcDbLine
 10
-26.922602
 20
10.306546
 30
0.0
 11
-26.473093
 21
12.306546
 31
0.0
  0
LINE
  5
25A
100
AcDbEntity
  8
1
  6
CONTINUOUS
 62
    15
100
AcDbLine
 10
-26.922602
 20
10.306546
 30
0.0
 11
-33.722602
 21
10.306546
 31
0.0
  0
LINE
  5
25B
100
AcDbEntity
  8
1
  6
CONTINUOUS
 62
    15
100
AcDbLine
 10
-33.722602
 20
10.306546
 30
0.0
 11
-33.493678
 21
12.137941
 31
0.0
  0
LINE
  5
25C
100
AcDbEntity
  8
1
  6
CONTINUOUS
 62
    15
100
AcDbLine
 10
-33.64252
 20
12.306546
 30
0.0
 11
-34.258181
 21
12.306546
 31
0.0
  0
LINE
  5
25D
100
AcDbEntity
  8
1
  6
CONTINUOUS
 62
    15
100
AcDbLine
 10
-34.402846
 20
12.196194
 30
0.0
 11
-34.530952
 21
11.72876
 31
0.0
  0
LINE
  5
25E
100
AcDbEntity
  8
1
  6
CONTINUOUS
 62
    15
100
AcDbLine
 10
-33.072602
 20
9.056546
 30
0.0
 11
-31.072602
 21
9.056546
 31
0.0
  0
LINE
  5
25F
100
AcDbEntity
  8
1
  6
CONTINUOUS
 62
    15
100
AcDbLine
 10
-29.872602
 20
9.056546
 30
0.0
 11
-27.872602
 21
9.056546
 31
0.0
  0
LINE
  5
260
100
AcDbEntity
  8
1
  6
CONTINUOUS
 62
    15
100
AcDbLine
 10
-26.672602
 20
9.056546
 30
0.0
 11
-24.772602
 21
9.056546
 31
0.0
  0
LINE
  5
261
100
AcDbEntity
  8
1
  6
CONTINUOUS
 62
    15
100
AcDbLine
 10
-24.022602
 20
10.306546
 30
0.0
 11
-25.122602
 21
10.306546
 31
0.0
  0
LINE
  5
262
100
AcDbEntity
  8
1
  6
CONTINUOUS
 62
    15
100
AcDbLine
 10
-23.687781
 20
9.056546
 30
0.0
 11
-24.022602
 21
10.306546
 31
0.0
  0
ARC
  5
263
100
AcDbEntity
  8
1
  6
CONTINUOUS
 62
    15
100
AcDbCircle
 10
-34.258181
 20
12.156546
 30
0.0
 40
0.15
100
AcDbArc
 50
90.0
 51
164.673698
  0
ARC
  5
264
100
AcDbEntity
  8
1
  6
CONTINUOUS
 62
    15
100
AcDbCircle
 10
-33.64252
 20
12.156546
 30
0.0
 40
0.15
100
AcDbArc
 50
-7.125016
 51
90.0
  0
ARC
  5
265
100
AcDbEntity
  8
1
  6
CONTINUOUS
 62
    15
100
AcDbCircle
 10
-38.388697
 20
12.786024
 30
0.0
 40
4.0
100
AcDbArc
 50
-89.721822
 51
-15.326302
  0
ARC
  5
266
100
AcDbEntity
  8
1
  6
CONTINUOUS
 62
    15
100
AcDbCircle
 10
-38.510896
 20
8.306546
 30
0.0
 40
0.5
100
AcDbArc
 50
103.32842
 51
-90.0
  0
ARC
  5
267
100
AcDbEntity
  8
1
  6
CONTINUOUS
 62
    15
100
AcDbCircle
 10
-37.471313
 20
15.738713
 30
0.0
 40
8.0
100
AcDbArc
 50
-97.962658
 51
-59.314966
  0
ARC
  5
268
100
AcDbEntity
  8
1
  6
CONTINUOUS
 62
    15
100
AcDbCircle
 10
-37.471313
 20
15.738713
 30
0.0
 40
8.0
100
AcDbArc
 50
-59.314966
 51
-56.644048
  0
ARC
  5
269
100
AcDbEntity
  8
1
  6
CONTINUOUS
 62
    15
100
AcDbCircle
 10
-33.554676
 20
13.79388
 30
0.0
 40
6.0
100
AcDbArc
 50
-86.276416
 51
-52.144005
  0
LINE
  5
26A
100
AcDbEntity
  8
1
  6
CONTINUOUS
 62
    15
100
AcDbLine
 10
-33.165018
 20
7.806546
 30
0.0
 11
-33.724874
 21
8.306546
 31
0.0
  0
ARC
  5
26B
100
AcDbEntity
  8
1
  6
CONTINUOUS
 62
    15
100
AcDbCircle
 10
-33.987727
 20
14.300786
 30
0.0
 40
6.0
100
AcDbArc
 50
-87.489141
 51
-60.931555
  0
ARC
  5
26C
100
AcDbEntity
  8
1
  6
CONTINUOUS
 62
    15
100
AcDbCircle
 10
-30.723498
 20
14.765333
 30
0.0
 40
7.0
100
AcDbArc
 50
-83.77954
 51
-54.640881
  0
LINE
  5
26D
100
AcDbEntity
  8
1
  6
CONTINUOUS
 62
    15
100
AcDbLine
 10
-29.965018
 20
7.806546
 30
0.0
 11
-30.452814
 21
8.306546
 31
0.0
  0
ARC
  5
26E
100
AcDbEntity
  8
1
  6
CONTINUOUS
 62
    15
100
AcDbCircle
 10
-31.080233
 20
15.278371
 30
0.0
 40
7.0
100
AcDbArc
 50
-84.857608
 51
-62.726862
  0
ARC
  5
26F
100
AcDbEntity
  8
1
  6
CONTINUOUS
 62
    15
100
AcDbCircle
 10
-22.312942
 20
10.774123
 30
0.0
 40
3.0
100
AcDbArc
 50
-145.073475
 51
-98.431383
  0
LINE
  5
270
100
AcDbEntity
  8
1
  6
CONTINUOUS
 62
    15
100
AcDbLine
 10
-22.752816
 20
7.806546
 30
0.0
 11
-22.274714
 21
8.296207
 31
0.0
  0
LINE
  5
271
100
AcDbEntity
  8
1
  6
CONTINUOUS
 62
    15
100
AcDbLine
 10
-22.274714
 20
8.296207
 30
0.0
 11
-23.687781
 21
9.056546
 31
0.0
  0
ARC
  5
272
100
AcDbEntity
  8
1
  6
CONTINUOUS
 62
    15
100
AcDbCircle
 10
-38.388697
 20
12.786024
 30
0.0
 40
4.0
100
AcDbArc
 50
-87.330162
 51
-15.326302
  0
ARC
  5
273
100
AcDbEntity
  8
1
  6
CONTINUOUS
 62
    15
100
AcDbCircle
 10
-38.388697
 20
12.786024
 30
0.0
 40
4.0
100
AcDbArc
 50
-93.403451
 51
-87.330162
  0
ENDBLK
  5
274
100
AcDbEntity
  8
0
100
AcDbBlockEnd
  0
BLOCK
  5
276
100
AcDbEntity
  8
1
100
AcDbBlockBegin
  2
GEN_BLOCK00006
 70
     0
 10
0.0
 20
0.0
 30
0.0
  3
GEN_BLOCK00006
  1

  0
LINE
  5
278
100
AcDbEntity
  8
1
  6
CONTINUOUS
 62
    15
100
AcDbLine
 10
-28.901674
 20
-13.037578
 30
0.0
 11
-26.902427
 21
-13.037578
 31
0.0
  0
LINE
  5
279
100
AcDbEntity
  8
1
  6
CONTINUOUS
 62
    15
100
AcDbLine
 10
-25.713336
 20
-13.037578
 30
0.0
 11
-23.700609
 21
-13.037578
 31
0.0
  0
LINE
  5
27A
100
AcDbEntity
  8
1
  6
CONTINUOUS
 62
    15
100
AcDbLine
 10
-22.513336
 20
-13.037578
 30
0.0
 11
-20.544304
 21
-13.037578
 31
0.0
  0
LINE
  5
27B
100
AcDbEntity
  8
1
  6
CONTINUOUS
 62
    15
100
AcDbLine
 10
-11.073336
 20
-13.037578
 30
0.0
 11
-19.475122
 21
-13.037578
 31
0.0
  0
LINE
  5
27C
100
AcDbEntity
  8
1
  6
CONTINUOUS
 62
    15
100
AcDbLine
 10
-30.923085
 20
-13.601894
 30
0.0
 11
-32.055555
 21
-9.469736
 31
0.0
  0
ARC
  5
27D
100
AcDbEntity
  8
1
  6
CONTINUOUS
 62
    15
100
AcDbCircle
 10
-31.573336
 20
-9.337578
 30
0.0
 40
0.5
100
AcDbArc
 50
29.54206
 51
-164.673698
  0
LINE
  5
27E
100
AcDbEntity
  8
1
  6
CONTINUOUS
 62
    15
100
AcDbLine
 10
-31.138339
 20
-9.091047
 30
0.0
 11
-28.901674
 21
-13.037578
 31
0.0
  0
LINE
  5
27F
100
AcDbEntity
  8
1
  6
CONTINUOUS
 62
    15
100
AcDbLine
 10
-26.902427
 20
-13.037578
 30
0.0
 11
-28.473336
 21
-10.337578
 31
0.0
  0
LINE
  5
280
100
AcDbEntity
  8
1
  6
CONTINUOUS
 62
    15
100
AcDbLine
 10
-28.473336
 20
-10.337578
 30
0.0
 11
-27.873336
 21
-10.337578
 31
0.0
  0
LINE
  5
281
100
AcDbEntity
  8
1
  6
CONTINUOUS
 62
    15
100
AcDbLine
 10
-27.873336
 20
-10.337578
 30
0.0
 11
-25.713336
 21
-13.037578
 31
0.0
  0
LINE
  5
282
100
AcDbEntity
  8
1
  6
CONTINUOUS
 62
    15
100
AcDbLine
 10
-23.700609
 20
-13.037578
 30
0.0
 11
-25.173336
 21
-10.337578
 31
0.0
  0
LINE
  5
283
100
AcDbEntity
  8
1
  6
CONTINUOUS
 62
    15
100
AcDbLine
 10
-25.173336
 20
-10.337578
 30
0.0
 11
-24.673336
 21
-10.337578
 31
0.0
  0
LINE
  5
284
100
AcDbEntity
  8
1
  6
CONTINUOUS
 62
    15
100
AcDbLine
 10
-24.673336
 20
-10.337578
 30
0.0
 11
-22.513336
 21
-13.037578
 31
0.0
  0
LINE
  5
285
100
AcDbEntity
  8
1
  6
CONTINUOUS
 62
    15
100
AcDbLine
 10
-20.544304
 20
-13.037578
 30
0.0
 11
-19.673336
 21
-11.537578
 31
0.0
  0
LINE
  5
286
100
AcDbEntity
  8
1
  6
CONTINUOUS
 62
    15
100
AcDbLine
 10
-19.673336
 20
-11.537578
 30
0.0
 11
-19.073336
 21
-11.537578
 31
0.0
  0
LINE
  5
287
100
AcDbEntity
  8
1
  6
CONTINUOUS
 62
    15
100
AcDbLine
 10
-19.073336
 20
-11.537578
 30
0.0
 11
-19.475122
 21
-13.037578
 31
0.0
  0
LINE
  5
288
100
AcDbEntity
  8
1
  6
CONTINUOUS
 62
    15
100
AcDbLine
 10
-6.073336
 20
-13.037578
 30
0.0
 11
-6.073336
 21
-9.837578
 31
0.0
  0
ARC
  5
289
100
AcDbEntity
  8
1
  6
CONTINUOUS
 62
    15
100
AcDbCircle
 10
-5.573336
 20
-9.837578
 30
0.0
 40
0.5
100
AcDbArc
 50
0.0
 51
180.0
  0
LINE
  5
28A
100
AcDbEntity
  8
1
  6
CONTINUOUS
 62
    15
100
AcDbLine
 10
-5.073336
 20
-9.837578
 30
0.0
 11
-5.073336
 21
-11.182877
 31
0.0
  0
LINE
  5
28B
100
AcDbEntity
  8
1
  6
CONTINUOUS
 62
    15
100
AcDbLine
 10
-5.073336
 20
-11.182877
 30
0.0
 11
-3.073336
 21
-12.337578
 31
0.0
  0
LINE
  5
28C
100
AcDbEntity
  8
1
  6
CONTINUOUS
 62
    15
100
AcDbLine
 10
-3.073336
 20
-12.337578
 30
0.0
 11
-1.073336
 21
-11.182877
 31
0.0
  0
LINE
  5
28D
100
AcDbEntity
  8
1
  6
CONTINUOUS
 62
    15
100
AcDbLine
 10
-1.073336
 20
-11.182877
 30
0.0
 11
-1.073336
 21
-9.837578
 31
0.0
  0
ARC
  5
28E
100
AcDbEntity
  8
1
  6
CONTINUOUS
 62
    15
100
AcDbCircle
 10
-0.573336
 20
-9.837578
 30
0.0
 40
0.5
100
AcDbArc
 50
0.0
 51
180.0
  0
LINE
  5
28F
100
AcDbEntity
  8
1
  6
CONTINUOUS
 62
    15
100
AcDbLine
 10
-0.073336
 20
-9.837578
 30
0.0
 11
-0.073336
 21
-13.037578
 31
0.0
  0
LINE
  5
290
100
AcDbEntity
  8
1
  6
CONTINUOUS
 62
    15
100
AcDbLine
 10
-6.073336
 20
-13.037578
 30
0.0
 11
-19.475122
 21
-13.037578
 31
0.0
  0
LINE
  5
291
100
AcDbEntity
  8
1
  6
CONTINUOUS
 62
    15
100
AcDbLine
 10
22.755001
 20
-13.037578
 30
0.0
 11
20.755754
 21
-13.037578
 31
0.0
  0
LINE
  5
292
100
AcDbEntity
  8
1
  6
CONTINUOUS
 62
    15
100
AcDbLine
 10
19.566664
 20
-13.037578
 30
0.0
 11
17.553936
 21
-13.037578
 31
0.0
  0
LINE
  5
293
100
AcDbEntity
  8
1
  6
CONTINUOUS
 62
    15
100
AcDbLine
 10
16.366664
 20
-13.037578
 30
0.0
 11
14.397631
 21
-13.037578
 31
0.0
  0
LINE
  5
294
100
AcDbEntity
  8
1
  6
CONTINUOUS
 62
    15
100
AcDbLine
 10
4.926664
 20
-13.037578
 30
0.0
 11
13.328449
 21
-13.037578
 31
0.0
  0
LINE
  5
295
100
AcDbEntity
  8
1
  6
CONTINUOUS
 62
    15
100
AcDbLine
 10
24.776412
 20
-13.601894
 30
0.0
 11
25.908882
 21
-9.469736
 31
0.0
  0
ARC
  5
296
100
AcDbEntity
  8
1
  6
CONTINUOUS
 62
    15
100
AcDbCircle
 10
25.426664
 20
-9.337578
 30
0.0
 40
0.5
100
AcDbArc
 50
-15.326302
 51
150.45794
  0
LINE
  5
297
100
AcDbEntity
  8
1
  6
CONTINUOUS
 62
    15
100
AcDbLine
 10
24.991667
 20
-9.091047
 30
0.0
 11
22.755001
 21
-13.037578
 31
0.0
  0
LINE
  5
298
100
AcDbEntity
  8
1
  6
CONTINUOUS
 62
    15
100
AcDbLine
 10
20.755754
 20
-13.037578
 30
0.0
 11
22.326664
 21
-10.337578
 31
0.0
  0
LINE
  5
299
100
AcDbEntity
  8
1
  6
CONTINUOUS
 62
    15
100
AcDbLine
 10
22.326664
 20
-10.337578
 30
0.0
 11
21.726664
 21
-10.337578
 31
0.0
  0
LINE
  5
29A
100
AcDbEntity
  8
1
  6
CONTINUOUS
 62
    15
100
AcDbLine
 10
21.726664
 20
-10.337578
 30
0.0
 11
19.566664
 21
-13.037578
 31
0.0
  0
LINE
  5
29B
100
AcDbEntity
  8
1
  6
CONTINUOUS
 62
    15
100
AcDbLine
 10
17.553936
 20
-13.037578
 30
0.0
 11
19.026664
 21
-10.337578
 31
0.0
  0
LINE
  5
29C
100
AcDbEntity
  8
1
  6
CONTINUOUS
 62
    15
100
AcDbLine
 10
19.026664
 20
-10.337578
 30
0.0
 11
18.526664
 21
-10.337578
 31
0.0
  0
LINE
  5
29D
100
AcDbEntity
  8
1
  6
CONTINUOUS
 62
    15
100
AcDbLine
 10
18.526664
 20
-10.337578
 30
0.0
 11
16.366664
 21
-13.037578
 31
0.0
  0
LINE
  5
29E
100
AcDbEntity
  8
1
  6
CONTINUOUS
 62
    15
100
AcDbLine
 10
14.397631
 20
-13.037578
 30
0.0
 11
13.526664
 21
-11.537578
 31
0.0
  0
LINE
  5
29F
100
AcDbEntity
  8
1
  6
CONTINUOUS
 62
    15
100
AcDbLine
 10
13.526664
 20
-11.537578
 30
0.0
 11
12.926664
 21
-11.537578
 31
0.0
  0
LINE
  5
2A0
100
AcDbEntity
  8
1
  6
CONTINUOUS
 62
    15
100
AcDbLine
 10
12.926664
 20
-11.537578
 30
0.0
 11
13.328449
 21
-13.037578
 31
0.0
  0
LINE
  5
2A1
100
AcDbEntity
  8
1
  6
CONTINUOUS
 62
    15
100
AcDbLine
 10
-0.073336
 20
-13.037578
 30
0.0
 11
-0.073336
 21
-9.837578
 31
0.0
  0
ARC
  5
2A2
100
AcDbEntity
  8
1
  6
CONTINUOUS
 62
    15
100
AcDbCircle
 10
-0.573336
 20
-9.837578
 30
0.0
 40
0.5
100
AcDbArc
 50
0.0
 51
180.0
  0
LINE
  5
2A3
100
AcDbEntity
  8
1
  6
CONTINUOUS
 62
    15
100
AcDbLine
 10
-1.073336
 20
-9.837578
 30
0.0
 11
-1.073336
 21
-11.182877
 31
0.0
  0
LINE
  5
2A4
100
AcDbEntity
  8
1
  6
CONTINUOUS
 62
    15
100
AcDbLine
 10
-1.073336
 20
-11.182877
 30
0.0
 11
-3.073336
 21
-12.337578
 31
0.0
  0
LINE
  5
2A5
100
AcDbEntity
  8
1
  6
CONTINUOUS
 62
    15
100
AcDbLine
 10
-3.073336
 20
-12.337578
 30
0.0
 11
-5.073336
 21
-11.182877
 31
0.0
  0
LINE
  5
2A6
100
AcDbEntity
  8
1
  6
CONTINUOUS
 62
    15
100
AcDbLine
 10
-5.073336
 20
-11.182877
 30
0.0
 11
-5.073336
 21
-9.837578
 31
0.0
  0
ARC
  5
2A7
100
AcDbEntity
  8
1
  6
CONTINUOUS
 62
    15
100
AcDbCircle
 10
-5.573336
 20
-9.837578
 30
0.0
 40
0.5
100
AcDbArc
 50
0.0
 51
180.0
  0
LINE
  5
2A8
100
AcDbEntity
  8
1
  6
CONTINUOUS
 62
    15
100
AcDbLine
 10
-6.073336
 20
-9.837578
 30
0.0
 11
-6.073336
 21
-13.037578
 31
0.0
  0
LINE
  5
2A9
100
AcDbEntity
  8
1
  6
CONTINUOUS
 62
    15
100
AcDbLine
 10
-0.073336
 20
-13.037578
 30
0.0
 11
13.328449
 21
-13.037578
 31
0.0
  0
LINE
  5
2AA
100
AcDbEntity
  8
1
  6
CONTINUOUS
 62
    15
100
AcDbLine
 10
-29.523336
 20
-14.337578
 30
0.0
 11
-29.958649
 21
-14.337578
 31
0.0
  0
ARC
  5
2AB
100
AcDbEntity
  8
1
  6
CONTINUOUS
 62
    15
100
AcDbCircle
 10
-29.958649
 20
-13.337578
 30
0.0
 40
1.0
100
AcDbArc
 50
-164.673698
 51
-90.0
  0
ARC
  5
2AC
100
AcDbEntity
  8
1
  6
CONTINUOUS
 62
    15
100
AcDbCircle
 10
23.811976
 20
-13.337578
 30
0.0
 40
1.0
100
AcDbArc
 50
-90.0
 51
-15.326302
  0
LINE
  5
2AD
100
AcDbEntity
  8
1
  6
CONTINUOUS
 62
    15
100
AcDbLine
 10
-29.523336
 20
-14.337578
 30
0.0
 11
23.811976
 21
-14.337578
 31
0.0
  0
ENDBLK
  5
2AE
100
AcDbEntity
  8
0
100
AcDbBlockEnd
  0
BLOCK
  5
2B0
100
AcDbEntity
  8
1
100
AcDbBlockBegin
  2
GEN_BLOCK00007
 70
     0
 10
0.0
 20
0.0
 30
0.0
  3
GEN_BLOCK00007
  1

  0
LINE
  5
2B2
100
AcDbEntity
  8
1
  6
CONTINUOUS
 62
    15
100
AcDbLine
 10
-3.026896
 20
42.522694
 30
0.0
 11
-38.026897
 21
42.522694
 31
0.0
  0
LINE
  5
2B3
100
AcDbEntity
  8
1
  6
CONTINUOUS
 62
    15
100
AcDbLine
 10
-3.026896
 20
42.522694
 30
0.0
 11
31.973104
 21
42.522694
 31
0.0
  0
LINE
  5
2B4
100
AcDbEntity
  8
1
  6
CONTINUOUS
 62
    15
100
AcDbLine
 10
-35.026897
 20
41.772694
 30
0.0
 11
-38.026897
 21
42.522694
 31
0.0
  0
LINE
  5
2B5
100
AcDbEntity
  8
1
  6
CONTINUOUS
 62
    15
100
AcDbLine
 10
-38.026897
 20
42.522694
 30
0.0
 11
-35.026897
 21
43.272694
 31
0.0
  0
LINE
  5
2B6
100
AcDbEntity
  8
1
  6
CONTINUOUS
 62
    15
100
AcDbLine
 10
28.973104
 20
43.272694
 30
0.0
 11
31.973104
 21
42.522694
 31
0.0
  0
LINE
  5
2B7
100
AcDbEntity
  8
1
  6
CONTINUOUS
 62
    15
100
AcDbLine
 10
31.973104
 20
42.522694
 30
0.0
 11
28.973104
 21
41.772694
 31
0.0
  0
LINE
  5
2B8
100
AcDbEntity
  8
1
  6
CONTINUOUS
 62
    15
100
AcDbLine
 10
-38.026897
 20
14.510638
 30
0.0
 11
-38.026897
 21
45.122694
 31
0.0
  0
LINE
  5
2B9
100
AcDbEntity
  8
1
  6
CONTINUOUS
 62
    15
100
AcDbLine
 10
31.973104
 20
14.510638
 30
0.0
 11
31.973104
 21
45.122694
 31
0.0
  0
TEXT
  5
2BA
100
AcDbEntity
  8
1
  6
CONTINUOUS
 62
    15
100
AcDbText
 10
-6.386897
 20
42.722694
 30
0.0
 40
2.0
  1
70.0
 41
0.9
 11
-6.386897
 21
42.722694
 31
0.0
100
AcDbText
 73
     1
  0
LINE
  5
2BB
100
AcDbEntity
  8
1
  6
CONTINUOUS
 62
    15
100
AcDbLine
 10
42.871319
 20
17.002154
 30
0.0
 11
42.871319
 21
23.502155
 31
0.0
  0
LINE
  5
2BC
100
AcDbEntity
  8
1
  6
CONTINUOUS
 62
    15
100
AcDbLine
 10
42.871319
 20
17.002154
 30
0.0
 11
42.871319
 21
10.502153
 31
0.0
  0
LINE
  5
2BD
100
AcDbEntity
  8
1
  6
CONTINUOUS
 62
    15
100
AcDbLine
 10
42.121319
 20
20.502155
 30
0.0
 11
42.871319
 21
23.502155
 31
0.0
  0
LINE
  5
2BE
100
AcDbEntity
  8
1
  6
CONTINUOUS
 62
    15
100
AcDbLine
 10
42.871319
 20
23.502155
 30
0.0
 11
43.621319
 21
20.502155
 31
0.0
  0
LINE
  5
2BF
100
AcDbEntity
  8
1
  6
CONTINUOUS
 62
    15
100
AcDbLine
 10
43.621319
 20
13.502153
 30
0.0
 11
42.871319
 21
10.502153
 31
0.0
  0
LINE
  5
2C0
100
AcDbEntity
  8
1
  6
CONTINUOUS
 62
    15
100
AcDbLine
 10
42.871319
 20
10.502153
 30
0.0
 11
42.121319
 21
13.502153
 31
0.0
  0
LINE
  5
2C1
100
AcDbEntity
  8
1
  6
CONTINUOUS
 62
    15
100
AcDbLine
 10
-0.625707
 20
23.502154
 30
0.0
 11
45.471319
 21
23.502156
 31
0.0
  0
LINE
  5
2C2
100
AcDbEntity
  8
1
  6
CONTINUOUS
 62
    15
100
AcDbLine
 10
31.400055
 20
10.502153
 30
0.0
 11
45.471319
 21
10.502153
 31
0.0
  0
TEXT
  5
2C3
100
AcDbEntity
  8
1
  6
CONTINUOUS
 62
    15
100
AcDbText
 10
42.671294
 20
13.637112
 30
0.0
 40
2.0
  1
13.0
 50
89.713524
 41
0.9
 11
42.671294
 21
13.637112
 31
0.0
100
AcDbText
 73
     1
  0
LINE
  5
2C4
100
AcDbEntity
  8
1
  6
CONTINUOUS
 62
    15
100
AcDbLine
 10
-11.711864
 20
-61.16622
 30
0.0
 11
-32.880137
 21
-67.159933
 31
0.0
  0
LINE
  5
2C5
100
AcDbEntity
  8
1
  6
CONTINUOUS
 62
    15
100
AcDbLine
 10
-32.880137
 20
-67.159933
 30
0.0
 11
-32.880137
 21
-14.595578
 31
0.0
  0
LINE
  5
2C6
100
AcDbEntity
  8
1
  6
CONTINUOUS
 62
    15
100
AcDbLine
 10
-32.880137
 20
-14.595578
 30
0.0
 11
27.119863
 21
-14.595578
 31
0.0
  0
LINE
  5
2C7
100
AcDbEntity
  8
1
  6
CONTINUOUS
 62
    15
100
AcDbLine
 10
27.119863
 20
-14.595578
 30
0.0
 11
27.119863
 21
-73.350742
 31
0.0
  0
LINE
  5
2C8
100
AcDbEntity
  8
1
  6
CONTINUOUS
 62
    15
100
AcDbLine
 10
27.119863
 20
-73.350742
 30
0.0
 11
11.548235
 21
-65.070013
 31
0.0
  0
LINE
  5
2C9
100
AcDbEntity
  8
1
  6
CONTINUOUS
 62
    15
100
AcDbLine
 10
-25.49907
 20
-65.070013
 30
0.0
 11
-11.711864
 21
-61.16622
 31
0.0
  0
LINE
  5
2CA
100
AcDbEntity
  8
1
  6
CONTINUOUS
 62
    15
100
AcDbLine
 10
-11.711864
 20
-61.16622
 30
0.0
 11
-2.99907
 21
-69.299122
 31
0.0
  0
LINE
  5
2CB
100
AcDbEntity
  8
1
  6
CONTINUOUS
 62
    15
100
AcDbLine
 10
-2.99907
 20
-69.299122
 30
0.0
 11
11.548235
 21
-65.070013
 31
0.0
  0
LINE
  5
2CC
100
AcDbEntity
  8
1
  6
CONTINUOUS
 62
    15
100
AcDbLine
 10
11.548235
 20
-65.070013
 30
0.0
 11
19.50093
 21
-69.299122
 31
0.0
  0
ENDBLK
  5
2CD
100
AcDbEntity
  8
0
100
AcDbBlockEnd
  0
BLOCK
  5
2D0
100
AcDbEntity
  8
PROFILE
100
AcDbBlockBegin
  2
GEN_BLOCK00008
 70
     0
 10
0.0
 20
0.0
 30
0.0
  3
GEN_BLOCK00008
  1

  0
LINE
  5
2D2
100
AcDbEntity
  8
PROFILE
  6
CONTINUOUS
 62
    15
100
AcDbLine
 10
-2.880137
 20
-60.383522
 30
0.0
 11
-32.880138
 21
-60.383522
 31
0.0
  0
LINE
  5
2D3
100
AcDbEntity
  8
PROFILE
  6
CONTINUOUS
 62
    15
100
AcDbLine
 10
-2.880137
 20
-60.383522
 30
0.0
 11
27.119864
 21
-60.383522
 31
0.0
  0
LINE
  5
2D4
100
AcDbEntity
  8
PROFILE
  6
CONTINUOUS
 62
    15
100
AcDbLine
 10
-29.880138
 20
-61.133522
 30
0.0
 11
-32.880138
 21
-60.383522
 31
0.0
  0
LINE
  5
2D5
100
AcDbEntity
  8
PROFILE
  6
CONTINUOUS
 62
    15
100
AcDbLine
 10
-32.880138
 20
-60.383522
 30
0.0
 11
-29.880138
 21
-59.633522
 31
0.0
  0
LINE
  5
2D6
100
AcDbEntity
  8
PROFILE
  6
CONTINUOUS
 62
    15
100
AcDbLine
 10
24.119864
 20
-59.633522
 30
0.0
 11
27.119864
 21
-60.383522
 31
0.0
  0
LINE
  5
2D7
100
AcDbEntity
  8
PROFILE
  6
CONTINUOUS
 62
    15
100
AcDbLine
 10
27.119864
 20
-60.383522
 30
0.0
 11
24.119864
 21
-61.133522
 31
0.0
  0
LINE
  5
2D8
100
AcDbEntity
  8
PROFILE
  6
CONTINUOUS
 62
    15
100
AcDbLine
 10
-32.880138
 20
-64.659935
 30
0.0
 11
-32.880138
 21
-57.783522
 31
0.0
  0
LINE
  5
2D9
100
AcDbEntity
  8
PROFILE
  6
CONTINUOUS
 62
    15
100
AcDbLine
 10
27.119864
 20
-70.850739
 30
0.0
 11
27.119864
 21
-57.783522
 31
0.0
  0
TEXT
  5
2DA
100
AcDbEntity
  8
PROFILE
  6
CONTINUOUS
 62
    15
100
AcDbText
 10
-6.240138
 20
-60.183522
 30
0.0
 40
2.0
  1
60.0
 41
0.9
 11
-6.240138
 21
-60.183522
 31
0.0
100
AcDbText
 73
     1
  0
ENDBLK
  5
2DB
100
AcDbEntity
  8
0
100
AcDbBlockEnd
  0
BLOCK
  5
2DE
100
AcDbEntity
  8
GEN_LAYER
100
AcDbBlockBegin
  2
GEN_BLOCK00009
 70
     0
 10
0.0
 20
0.0
 30
0.0
  3
GEN_BLOCK00009
  1

  0
ARC
  5
2E0
100
AcDbEntity
  8
GEN_LAYER
  6
CONTINUOUS
 62
    15
100
AcDbCircle
 10
-31.600196
 20
18.169424
 30
0.0
 40
4.0
100
AcDbArc
 50
180.0
 51
-77.091742
  0
LINE
  5
2E1
100
AcDbEntity
  8
GEN_LAYER
  6
CONTINUOUS
 62
    15
100
AcDbLine
 10
-23.311891
 20
14.426363
 30
0.0
 11
-12.641129
 21
16.871912
 31
0.0
  0
LINE
  5
2E2
100
AcDbEntity
  8
GEN_LAYER
  6
CONTINUOUS
 62
    15
100
AcDbLine
 10
-38.100196
 20
71.332287
 30
0.0
 11
-37.100196
 21
70.332287
 31
0.0
  0
LINE
  5
2E3
100
AcDbEntity
  8
GEN_LAYER
  6
CONTINUOUS
 62
    15
100
AcDbLine
 10
-37.100196
 20
70.332287
 30
0.0
 11
-38.100196
 21
69.332287
 31
0.0
  0
LINE
  5
2E4
100
AcDbEntity
  8
GEN_LAYER
  6
CONTINUOUS
 62
    15
100
AcDbLine
 10
-38.100196
 20
69.332287
 30
0.0
 11
-37.100196
 21
68.332287
 31
0.0
  0
LINE
  5
2E5
100
AcDbEntity
  8
GEN_LAYER
  6
CONTINUOUS
 62
    15
100
AcDbLine
 10
-37.100196
 20
68.332287
 30
0.0
 11
-38.100196
 21
67.332287
 31
0.0
  0
LINE
  5
2E6
100
AcDbEntity
  8
GEN_LAYER
  6
CONTINUOUS
 62
    15
100
AcDbLine
 10
-38.100196
 20
67.332287
 30
0.0
 11
-37.100196
 21
66.332287
 31
0.0
  0
LINE
  5
2E7
100
AcDbEntity
  8
GEN_LAYER
  6
CONTINUOUS
 62
    15
100
AcDbLine
 10
-37.100196
 20
66.332287
 30
0.0
 11
-38.100196
 21
65.332287
 31
0.0
  0
LINE
  5
2E8
100
AcDbEntity
  8
GEN_LAYER
  6
CONTINUOUS
 62
    15
100
AcDbLine
 10
-38.100196
 20
65.332287
 30
0.0
 11
-37.100196
 21
64.332287
 31
0.0
  0
LINE
  5
2E9
100
AcDbEntity
  8
GEN_LAYER
  6
CONTINUOUS
 62
    15
100
AcDbLine
 10
-37.100196
 20
64.332287
 30
0.0
 11
-38.100196
 21
63.332287
 31
0.0
  0
LINE
  5
2EA
100
AcDbEntity
  8
GEN_LAYER
  6
CONTINUOUS
 62
    15
100
AcDbLine
 10
-38.100196
 20
63.332287
 30
0.0
 11
-37.100196
 21
62.332287
 31
0.0
  0
LINE
  5
2EB
100
AcDbEntity
  8
GEN_LAYER
  6
CONTINUOUS
 62
    15
100
AcDbLine
 10
-37.100196
 20
62.332287
 30
0.0
 11
-38.100196
 21
61.332287
 31
0.0
  0
LINE
  5
2EC
100
AcDbEntity
  8
GEN_LAYER
  6
CONTINUOUS
 62
    15
100
AcDbLine
 10
-38.100196
 20
61.332287
 30
0.0
 11
-37.100196
 21
60.332287
 31
0.0
  0
LINE
  5
2ED
100
AcDbEntity
  8
GEN_LAYER
  6
CONTINUOUS
 62
    15
100
AcDbLine
 10
-37.100196
 20
60.332287
 30
0.0
 11
-38.100196
 21
59.332287
 31
0.0
  0
LINE
  5
2EE
100
AcDbEntity
  8
GEN_LAYER
  6
CONTINUOUS
 62
    15
100
AcDbLine
 10
-38.100196
 20
59.332287
 30
0.0
 11
-37.100196
 21
58.332287
 31
0.0
  0
LINE
  5
2EF
100
AcDbEntity
  8
GEN_LAYER
  6
CONTINUOUS
 62
    15
100
AcDbLine
 10
-37.100196
 20
58.332287
 30
0.0
 11
-38.100196
 21
57.332287
 31
0.0
  0
LINE
  5
2F0
100
AcDbEntity
  8
GEN_LAYER
  6
CONTINUOUS
 62
    15
100
AcDbLine
 10
-38.100196
 20
57.332287
 30
0.0
 11
-37.100196
 21
56.332287
 31
0.0
  0
LINE
  5
2F1
100
AcDbEntity
  8
GEN_LAYER
  6
CONTINUOUS
 62
    15
100
AcDbLine
 10
-37.100196
 20
56.332287
 30
0.0
 11
-38.100196
 21
55.332287
 31
0.0
  0
LINE
  5
2F2
100
AcDbEntity
  8
GEN_LAYER
  6
CONTINUOUS
 62
    15
100
AcDbLine
 10
-38.100196
 20
55.332287
 30
0.0
 11
-37.100196
 21
54.332287
 31
0.0
  0
LINE
  5
2F3
100
AcDbEntity
  8
GEN_LAYER
  6
CONTINUOUS
 62
    15
100
AcDbLine
 10
-37.100196
 20
54.332287
 30
0.0
 11
-38.100196
 21
53.332287
 31
0.0
  0
LINE
  5
2F4
100
AcDbEntity
  8
GEN_LAYER
  6
CONTINUOUS
 62
    15
100
AcDbLine
 10
-38.100196
 20
53.332287
 30
0.0
 11
-37.100196
 21
52.332287
 31
0.0
  0
LINE
  5
2F5
100
AcDbEntity
  8
GEN_LAYER
  6
CONTINUOUS
 62
    15
100
AcDbLine
 10
-37.100196
 20
52.332287
 30
0.0
 11
-38.100196
 21
51.332287
 31
0.0
  0
LINE
  5
2F6
100
AcDbEntity
  8
GEN_LAYER
  6
CONTINUOUS
 62
    15
100
AcDbLine
 10
-38.100196
 20
51.332287
 30
0.0
 11
-37.100196
 21
50.332287
 31
0.0
  0
LINE
  5
2F7
100
AcDbEntity
  8
GEN_LAYER
  6
CONTINUOUS
 62
    15
100
AcDbLine
 10
-37.100196
 20
50.332287
 30
0.0
 11
-38.100196
 21
49.332287
 31
0.0
  0
LINE
  5
2F8
100
AcDbEntity
  8
GEN_LAYER
  6
CONTINUOUS
 62
    15
100
AcDbLine
 10
-38.100196
 20
49.332287
 30
0.0
 11
-37.100196
 21
48.332287
 31
0.0
  0
LINE
  5
2F9
100
AcDbEntity
  8
GEN_LAYER
  6
CONTINUOUS
 62
    15
100
AcDbLine
 10
-37.100196
 20
48.332287
 30
0.0
 11
-38.100196
 21
47.332287
 31
0.0
  0
LINE
  5
2FA
100
AcDbEntity
  8
GEN_LAYER
  6
CONTINUOUS
 62
    15
100
AcDbLine
 10
-38.100196
 20
47.332287
 30
0.0
 11
-37.100196
 21
46.332287
 31
0.0
  0
LINE
  5
2FB
100
AcDbEntity
  8
GEN_LAYER
  6
CONTINUOUS
 62
    15
100
AcDbLine
 10
-37.100196
 20
46.332287
 30
0.0
 11
-38.100196
 21
45.332287
 31
0.0
  0
LINE
  5
2FC
100
AcDbEntity
  8
GEN_LAYER
  6
CONTINUOUS
 62
    15
100
AcDbLine
 10
-38.100196
 20
45.332287
 30
0.0
 11
-37.100196
 21
44.332287
 31
0.0
  0
LINE
  5
2FD
100
AcDbEntity
  8
GEN_LAYER
  6
CONTINUOUS
 62
    15
100
AcDbLine
 10
-37.100196
 20
44.332287
 30
0.0
 11
-38.100196
 21
43.332287
 31
0.0
  0
LINE
  5
2FE
100
AcDbEntity
  8
GEN_LAYER
  6
CONTINUOUS
 62
    15
100
AcDbLine
 10
-38.100196
 20
43.332287
 30
0.0
 11
-37.100196
 21
42.332287
 31
0.0
  0
LINE
  5
2FF
100
AcDbEntity
  8
GEN_LAYER
  6
CONTINUOUS
 62
    15
100
AcDbLine
 10
-37.100196
 20
42.332287
 30
0.0
 11
-38.100196
 21
41.332287
 31
0.0
  0
LINE
  5
300
100
AcDbEntity
  8
GEN_LAYER
  6
CONTINUOUS
 62
    15
100
AcDbLine
 10
-38.100196
 20
41.332287
 30
0.0
 11
-37.100196
 21
40.332287
 31
0.0
  0
LINE
  5
301
100
AcDbEntity
  8
GEN_LAYER
  6
CONTINUOUS
 62
    15
100
AcDbLine
 10
-37.100196
 20
40.332287
 30
0.0
 11
-38.100196
 21
39.332287
 31
0.0
  0
LINE
  5
302
100
AcDbEntity
  8
GEN_LAYER
  6
CONTINUOUS
 62
    15
100
AcDbLine
 10
-38.100196
 20
39.332287
 30
0.0
 11
-37.100196
 21
38.332287
 31
0.0
  0
LINE
  5
303
100
AcDbEntity
  8
GEN_LAYER
  6
CONTINUOUS
 62
    15
100
AcDbLine
 10
-37.100196
 20
38.332287
 30
0.0
 11
-38.100196
 21
37.332287
 31
0.0
  0
LINE
  5
304
100
AcDbEntity
  8
GEN_LAYER
  6
CONTINUOUS
 62
    15
100
AcDbLine
 10
-38.100196
 20
37.332287
 30
0.0
 11
-37.100196
 21
36.332287
 31
0.0
  0
LINE
  5
305
100
AcDbEntity
  8
GEN_LAYER
  6
CONTINUOUS
 62
    15
100
AcDbLine
 10
-37.100196
 20
36.332287
 30
0.0
 11
-38.100196
 21
35.332287
 31
0.0
  0
LINE
  5
306
100
AcDbEntity
  8
GEN_LAYER
  6
CONTINUOUS
 62
    15
100
AcDbLine
 10
-38.100196
 20
35.332287
 30
0.0
 11
-37.100196
 21
34.332287
 31
0.0
  0
LINE
  5
307
100
AcDbEntity
  8
GEN_LAYER
  6
CONTINUOUS
 62
    15
100
AcDbLine
 10
-37.100196
 20
34.332287
 30
0.0
 11
-38.100196
 21
33.332287
 31
0.0
  0
LINE
  5
308
100
AcDbEntity
  8
GEN_LAYER
  6
CONTINUOUS
 62
    15
100
AcDbLine
 10
-38.100196
 20
33.332287
 30
0.0
 11
-37.100196
 21
32.332287
 31
0.0
  0
LINE
  5
309
100
AcDbEntity
  8
GEN_LAYER
  6
CONTINUOUS
 62
    15
100
AcDbLine
 10
-37.100196
 20
32.332287
 30
0.0
 11
-38.100196
 21
31.332287
 31
0.0
  0
LINE
  5
30A
100
AcDbEntity
  8
GEN_LAYER
  6
CONTINUOUS
 62
    15
100
AcDbLine
 10
-38.100196
 20
31.332287
 30
0.0
 11
-37.100196
 21
30.332287
 31
0.0
  0
LINE
  5
30B
100
AcDbEntity
  8
GEN_LAYER
  6
CONTINUOUS
 62
    15
100
AcDbLine
 10
-37.100196
 20
30.332287
 30
0.0
 11
-38.100196
 21
29.332287
 31
0.0
  0
LINE
  5
30C
100
AcDbEntity
  8
GEN_LAYER
  6
CONTINUOUS
 62
    15
100
AcDbLine
 10
-38.100196
 20
29.332287
 30
0.0
 11
-37.100196
 21
28.332287
 31
0.0
  0
LINE
  5
30D
100
AcDbEntity
  8
GEN_LAYER
  6
CONTINUOUS
 62
    15
100
AcDbLine
 10
-37.100196
 20
28.332287
 30
0.0
 11
-38.100196
 21
27.332287
 31
0.0
  0
LINE
  5
30E
100
AcDbEntity
  8
GEN_LAYER
  6
CONTINUOUS
 62
    15
100
AcDbLine
 10
-38.100196
 20
27.332287
 30
0.0
 11
-37.100196
 21
26.332287
 31
0.0
  0
LINE
  5
30F
100
AcDbEntity
  8
GEN_LAYER
  6
CONTINUOUS
 62
    15
100
AcDbLine
 10
-37.100196
 20
26.332287
 30
0.0
 11
-38.100196
 21
25.332287
 31
0.0
  0
LINE
  5
310
100
AcDbEntity
  8
GEN_LAYER
  6
CONTINUOUS
 62
    15
100
AcDbLine
 10
-38.100196
 20
25.332287
 30
0.0
 11
-37.100196
 21
24.332287
 31
0.0
  0
LINE
  5
311
100
AcDbEntity
  8
GEN_LAYER
  6
CONTINUOUS
 62
    15
100
AcDbLine
 10
-37.100196
 20
24.332287
 30
0.0
 11
-38.100196
 21
23.332287
 31
0.0
  0
LINE
  5
312
100
AcDbEntity
  8
GEN_LAYER
  6
CONTINUOUS
 62
    15
100
AcDbLine
 10
-38.100196
 20
23.332287
 30
0.0
 11
-37.100196
 21
22.332287
 31
0.0
  0
LINE
  5
313
100
AcDbEntity
  8
GEN_LAYER
  6
CONTINUOUS
 62
    15
100
AcDbLine
 10
-37.100196
 20
22.332287
 30
0.0
 11
-38.100196
 21
21.332287
 31
0.0
  0
LINE
  5
314
100
AcDbEntity
  8
GEN_LAYER
  6
CONTINUOUS
 62
    15
100
AcDbLine
 10
-38.100196
 20
21.332287
 30
0.0
 11
-37.100196
 21
20.332287
 31
0.0
  0
LINE
  5
315
100
AcDbEntity
  8
GEN_LAYER
  6
CONTINUOUS
 62
    15
100
AcDbLine
 10
-37.100196
 20
20.332287
 30
0.0
 11
-38.100196
 21
19.332287
 31
0.0
  0
LINE
  5
316
100
AcDbEntity
  8
GEN_LAYER
  6
CONTINUOUS
 62
    15
100
AcDbLine
 10
-35.600196
 20
18.169424
 30
0.0
 11
-35.600196
 21
74.606356
 31
0.0
  0
ARC
  5
317
100
AcDbEntity
  8
GEN_LAYER
  6
CONTINUOUS
 62
    15
100
AcDbCircle
 10
-34.100196
 20
74.606356
 30
0.0
 40
1.5
100
AcDbArc
 50
117.372274
 51
180.0
  0
ARC
  5
318
100
AcDbEntity
  8
GEN_LAYER
  6
CONTINUOUS
 62
    15
100
AcDbCircle
 10
-38.100196
 20
82.332287
 30
0.0
 40
7.2
100
AcDbArc
 50
-62.627726
 51
-24.663422
  0
ARC
  5
319
100
AcDbEntity
  8
GEN_LAYER
  6
CONTINUOUS
 62
    15
100
AcDbCircle
 10
-38.100196
 20
82.332287
 30
0.0
 40
7.2
100
AcDbArc
 50
-24.663422
 51
-23.208348
  0
ARC
  5
31A
100
AcDbEntity
  8
GEN_LAYER
  6
CONTINUOUS
 62
    15
100
AcDbCircle
 10
-32.034176
 20
79.731341
 30
0.0
 40
0.601266
100
AcDbArc
 50
-23.208348
 51
156.791652
  0
ARC
  5
31B
100
AcDbEntity
  8
GEN_LAYER
  6
CONTINUOUS
 62
    15
100
AcDbCircle
 10
-38.100196
 20
82.332287
 30
0.0
 40
6.0
100
AcDbArc
 50
-70.528779
 51
-23.208348
  0
ARC
  5
31C
100
AcDbEntity
  8
GEN_LAYER
  6
CONTINUOUS
 62
    15
100
AcDbCircle
 10
-35.100196
 20
73.847005
 30
0.0
 40
3.0
100
AcDbArc
 50
109.471221
 51
180.0
  0
LINE
  5
31D
100
AcDbEntity
  8
GEN_LAYER
  6
CONTINUOUS
 62
    15
100
AcDbLine
 10
-38.100196
 20
73.847005
 30
0.0
 11
-38.100196
 21
73.332287
 31
0.0
  0
LINE
  5
31E
100
AcDbEntity
  8
GEN_LAYER
  6
CONTINUOUS
 62
    15
100
AcDbLine
 10
-38.100196
 20
73.332287
 30
0.0
 11
-37.100196
 21
72.332287
 31
0.0
  0
LINE
  5
31F
100
AcDbEntity
  8
GEN_LAYER
  6
CONTINUOUS
 62
    15
100
AcDbLine
 10
-37.100196
 20
72.332287
 30
0.0
 11
-38.100196
 21
71.332287
 31
0.0
  0
LINE
  5
320
100
AcDbEntity
  8
GEN_LAYER
  6
CONTINUOUS
 62
    15
100
AcDbLine
 10
-33.100196
 20
10.332287
 30
0.0
 11
-33.100196
 21
12.050565
 31
0.0
  0
ARC
  5
321
100
AcDbEntity
  8
GEN_LAYER
  6
CONTINUOUS
 62
    15
100
AcDbCircle
 10
-33.100196
 20
17.527791
 30
0.0
 40
5.0
100
AcDbArc
 50
180.0
 51
-95.215909
  0
LINE
  5
322
100
AcDbEntity
  8
GEN_LAYER
  6
CONTINUOUS
 62
    15
100
AcDbLine
 10
-38.100196
 20
17.527791
 30
0.0
 11
-38.100196
 21
19.332287
 31
0.0
  0
ARC
  5
323
100
AcDbEntity
  8
GEN_LAYER
  6
CONTINUOUS
 62
    15
100
AcDbCircle
 10
-33.600196
 20
12.050565
 30
0.0
 40
0.5
100
AcDbArc
 50
0.0
 51
84.784091
  0
ARC
  5
324
100
AcDbEntity
  8
GEN_LAYER
  6
CONTINUOUS
 62
    15
100
AcDbCircle
 10
3.399804
 20
17.032287
 30
0.0
 40
2.5
100
AcDbArc
 50
-90.0
 51
-12.469098
  0
LINE
  5
325
100
AcDbEntity
  8
GEN_LAYER
  6
CONTINUOUS
 62
    15
100
AcDbLine
 10
6.440737
 20
16.871912
 30
0.0
 11
17.111499
 21
14.426363
 31
0.0
  0
LINE
  5
326
100
AcDbEntity
  8
GEN_LAYER
  6
CONTINUOUS
 62
    15
100
AcDbLine
 10
17.499804
 20
13.938998
 30
0.0
 11
17.499804
 21
11.228477
 31
0.0
  0
LINE
  5
327
100
AcDbEntity
  8
GEN_LAYER
  6
CONTINUOUS
 62
    15
100
AcDbLine
 10
4.899804
 20
18.763956
 30
0.0
 11
31.317347
 21
12.709523
 31
0.0
  0
ARC
  5
328
100
AcDbEntity
  8
GEN_LAYER
  6
CONTINUOUS
 62
    15
100
AcDbCircle
 10
31.149804
 20
11.978477
 30
0.0
 40
0.75
100
AcDbArc
 50
-173.437038
 51
77.091742
  0
LINE
  5
329
100
AcDbEntity
  8
GEN_LAYER
  6
CONTINUOUS
 62
    15
100
AcDbLine
 10
30.404719
 20
11.892755
 30
0.0
 11
27.511499
 21
12.55583
 31
0.0
  0
LINE
  5
32A
100
AcDbEntity
  8
GEN_LAYER
  6
CONTINUOUS
 62
    15
100
AcDbLine
 10
25.311499
 20
12.547068
 30
0.0
 11
22.957115
 21
13.086651
 31
0.0
  0
LINE
  5
32B
100
AcDbEntity
  8
GEN_LAYER
  6
CONTINUOUS
 62
    15
100
AcDbLine
 10
-3.100196
 20
16.032287
 30
0.0
 11
3.399804
 21
16.032287
 31
0.0
  0
LINE
  5
32C
100
AcDbEntity
  8
GEN_LAYER
  6
CONTINUOUS
 62
    15
100
AcDbLine
 10
-3.100196
 20
14.532287
 30
0.0
 11
3.399804
 21
14.532287
 31
0.0
  0
LINE
  5
32D
100
AcDbEntity
  8
GEN_LAYER
  6
CONTINUOUS
 62
    15
100
AcDbLine
 10
4.899804
 20
18.763956
 30
0.0
 11
4.899804
 21
20.132287
 31
0.0
  0
ARC
  5
32E
100
AcDbEntity
  8
GEN_LAYER
  6
CONTINUOUS
 62
    15
100
AcDbCircle
 10
4.699804
 20
20.132287
 30
0.0
 40
0.2
100
AcDbArc
 50
0.0
 51
90.0
  0
LINE
  5
32F
100
AcDbEntity
  8
GEN_LAYER
  6
CONTINUOUS
 62
    15
100
AcDbLine
 10
4.699804
 20
20.332287
 30
0.0
 11
4.201109
 21
20.332287
 31
0.0
  0
ARC
  5
330
100
AcDbEntity
  8
GEN_LAYER
  6
CONTINUOUS
 62
    15
100
AcDbCircle
 10
4.201109
 20
20.132287
 30
0.0
 40
0.2
100
AcDbArc
 50
90.0
 51
159.777108
  0
ARC
  5
331
100
AcDbEntity
  8
GEN_LAYER
  6
CONTINUOUS
 62
    15
100
AcDbCircle
 10
4.201109
 20
20.132287
 30
0.0
 40
0.2
100
AcDbArc
 50
90.0
 51
159.777108
  0
LINE
  5
332
100
AcDbEntity
  8
GEN_LAYER
  6
CONTINUOUS
 62
    15
100
AcDbLine
 10
4.013438
 20
20.201421
 30
0.0
 11
3.430626
 21
18.619337
 31
0.0
  0
ARC
  5
333
100
AcDbEntity
  8
GEN_LAYER
  6
CONTINUOUS
 62
    15
100
AcDbCircle
 10
3.899804
 20
18.4465
 30
0.0
 40
0.5
100
AcDbArc
 50
159.777108
 51
-109.471221
  0
ARC
  5
334
100
AcDbEntity
  8
GEN_LAYER
  6
CONTINUOUS
 62
    15
100
AcDbCircle
 10
16.999804
 20
10.832287
 30
0.0
 40
0.5
100
AcDbArc
 50
90.0
 51
-90.0
  0
LINE
  5
335
100
AcDbEntity
  8
GEN_LAYER
  6
CONTINUOUS
 62
    15
100
AcDbLine
 10
1.899804
 20
16.032287
 30
0.0
 11
3.399804
 21
16.032287
 31
0.0
  0
ARC
  5
336
100
AcDbEntity
  8
GEN_LAYER
  6
CONTINUOUS
 62
    15
100
AcDbCircle
 10
3.399804
 20
17.032287
 30
0.0
 40
1.0
100
AcDbArc
 50
-90.0
 51
70.904655
  0
ARC
  5
337
100
AcDbEntity
  8
GEN_LAYER
  6
CONTINUOUS
 62
    15
100
AcDbCircle
 10
3.399804
 20
17.032287
 30
0.0
 40
1.0
100
AcDbArc
 50
-90.0
 51
70.904655
  0
LINE
  5
338
100
AcDbEntity
  8
GEN_LAYER
  6
CONTINUOUS
 62
    15
100
AcDbLine
 10
26.899804
 20
10.332287
 30
0.0
 11
26.899804
 21
12.068466
 31
0.0
  0
ARC
  5
339
100
AcDbEntity
  8
GEN_LAYER
  6
CONTINUOUS
 62
    15
100
AcDbCircle
 10
31.149804
 20
11.978477
 30
0.0
 40
0.75
100
AcDbArc
 50
-110.222892
 51
69.777108
  0
LINE
  5
33A
100
AcDbEntity
  8
GEN_LAYER
  6
CONTINUOUS
 62
    15
100
AcDbLine
 10
25.699804
 20
12.059703
 30
0.0
 11
25.699804
 21
10.332287
 31
0.0
  0
LINE
  5
33B
100
AcDbEntity
  8
GEN_LAYER
  6
CONTINUOUS
 62
    15
100
AcDbLine
 10
25.699804
 20
10.332287
 30
0.0
 11
26.899804
 21
10.332287
 31
0.0
  0
LINE
  5
33C
100
AcDbEntity
  8
GEN_LAYER
  6
CONTINUOUS
 62
    15
100
AcDbLine
 10
17.499804
 20
11.332287
 30
0.0
 11
16.999804
 21
11.332287
 31
0.0
  0
LINE
  5
33D
100
AcDbEntity
  8
GEN_LAYER
  6
CONTINUOUS
 62
    15
100
AcDbLine
 10
16.999804
 20
10.332287
 30
0.0
 11
17.499804
 21
10.332287
 31
0.0
  0
LINE
  5
33E
100
AcDbEntity
  8
GEN_LAYER
  6
CONTINUOUS
 62
    15
100
AcDbLine
 10
18.499804
 20
10.332287
 30
0.0
 11
16.999804
 21
10.332287
 31
0.0
  0
ARC
  5
33F
100
AcDbEntity
  8
GEN_LAYER
  6
CONTINUOUS
 62
    15
100
AcDbCircle
 10
18.499804
 20
10.632287
 30
0.0
 40
0.3
100
AcDbArc
 50
-90.0
 51
90.0
  0
LINE
  5
340
100
AcDbEntity
  8
GEN_LAYER
  6
CONTINUOUS
 62
    15
100
AcDbLine
 10
18.599804
 20
13.332287
 30
0.0
 11
18.199804
 21
10.932287
 31
0.0
  0
LINE
  5
341
100
AcDbEntity
  8
GEN_LAYER
  6
CONTINUOUS
 62
    15
100
AcDbLine
 10
20.999804
 20
13.332287
 30
0.0
 11
18.599804
 21
13.332287
 31
0.0
  0
LINE
  5
342
100
AcDbEntity
  8
GEN_LAYER
  6
CONTINUOUS
 62
    15
100
AcDbLine
 10
21.399804
 20
10.932287
 30
0.0
 11
20.999804
 21
13.332287
 31
0.0
  0
ARC
  5
343
100
AcDbEntity
  8
GEN_LAYER
  6
CONTINUOUS
 62
    15
100
AcDbCircle
 10
21.099804
 20
10.632287
 30
0.0
 40
0.3
100
AcDbArc
 50
90.0
 51
-90.0
  0
LINE
  5
344
100
AcDbEntity
  8
GEN_LAYER
  6
CONTINUOUS
 62
    15
100
AcDbLine
 10
21.099804
 20
10.932287
 30
0.0
 11
21.399804
 21
10.932287
 31
0.0
  0
LINE
  5
345
100
AcDbEntity
  8
GEN_LAYER
  6
CONTINUOUS
 62
    15
100
AcDbLine
 10
18.199804
 20
10.932287
 30
0.0
 11
18.499804
 21
10.932287
 31
0.0
  0
LINE
  5
346
100
AcDbEntity
  8
GEN_LAYER
  6
CONTINUOUS
 62
    15
100
AcDbLine
 10
22.126126
 20
10.332287
 30
0.0
 11
21.099804
 21
10.332287
 31
0.0
  0
ARC
  5
347
100
AcDbEntity
  8
GEN_LAYER
  6
CONTINUOUS
 62
    15
100
AcDbCircle
 10
22.126126
 20
10.832287
 30
0.0
 40
0.5
100
AcDbArc
 50
-90.0
 51
9.462322
  0
LINE
  5
348
100
AcDbEntity
  8
GEN_LAYER
  6
CONTINUOUS
 62
    15
100
AcDbLine
 10
22.619323
 20
10.914486
 30
0.0
 11
22.352223
 21
12.517087
 31
0.0
  0
ARC
  5
349
100
AcDbEntity
  8
GEN_LAYER
  6
CONTINUOUS
 62
    15
100
AcDbCircle
 10
27.399804
 20
12.068466
 30
0.0
 40
0.5
100
AcDbArc
 50
77.091742
 51
180.0
  0
ARC
  5
34A
100
AcDbEntity
  8
GEN_LAYER
  6
CONTINUOUS
 62
    15
100
AcDbCircle
 10
25.199804
 20
12.059703
 30
0.0
 40
0.5
100
AcDbArc
 50
0.0
 51
77.091742
  0
ARC
  5
34B
100
AcDbEntity
  8
GEN_LAYER
  6
CONTINUOUS
 62
    15
100
AcDbCircle
 10
22.84542
 20
12.599287
 30
0.0
 40
0.5
100
AcDbArc
 50
77.091742
 51
-170.537678
  0
ARC
  5
34C
100
AcDbEntity
  8
GEN_LAYER
  6
CONTINUOUS
 62
    15
100
AcDbCircle
 10
16.999804
 20
13.938998
 30
0.0
 40
0.5
100
AcDbArc
 50
0.0
 51
77.091742
  0
ARC
  5
34D
100
AcDbEntity
  8
GEN_LAYER
  6
CONTINUOUS
 62
    15
100
AcDbCircle
 10
6.329042
 20
16.384548
 30
0.0
 40
0.5
100
AcDbArc
 50
77.091742
 51
167.530902
  0
ARC
  5
34E
100
AcDbEntity
  8
GEN_LAYER
  6
CONTINUOUS
 62
    15
100
AcDbCircle
 10
-9.600196
 20
17.032287
 30
0.0
 40
2.5
100
AcDbArc
 50
-167.530902
 51
-90.0
  0
LINE
  5
34F
100
AcDbEntity
  8
GEN_LAYER
  6
CONTINUOUS
 62
    15
100
AcDbLine
 10
-23.700196
 20
13.938998
 30
0.0
 11
-23.700196
 21
11.228477
 31
0.0
  0
LINE
  5
350
100
AcDbEntity
  8
GEN_LAYER
  6
CONTINUOUS
 62
    15
100
AcDbLine
 10
-11.100196
 20
18.763956
 30
0.0
 11
-30.706634
 21
14.270508
 31
0.0
  0
LINE
  5
351
100
AcDbEntity
  8
GEN_LAYER
  6
CONTINUOUS
 62
    15
100
AcDbLine
 10
-31.511891
 20
12.547068
 30
0.0
 11
-29.157507
 21
13.086651
 31
0.0
  0
LINE
  5
352
100
AcDbEntity
  8
GEN_LAYER
  6
CONTINUOUS
 62
    15
100
AcDbLine
 10
-3.100196
 20
16.032287
 30
0.0
 11
-9.600196
 21
16.032287
 31
0.0
  0
LINE
  5
353
100
AcDbEntity
  8
GEN_LAYER
  6
CONTINUOUS
 62
    15
100
AcDbLine
 10
-3.100196
 20
14.532287
 30
0.0
 11
-9.600196
 21
14.532287
 31
0.0
  0
LINE
  5
354
100
AcDbEntity
  8
GEN_LAYER
  6
CONTINUOUS
 62
    15
100
AcDbLine
 10
-11.100196
 20
18.763956
 30
0.0
 11
-11.100196
 21
20.132287
 31
0.0
  0
ARC
  5
355
100
AcDbEntity
  8
GEN_LAYER
  6
CONTINUOUS
 62
    15
100
AcDbCircle
 10
-10.900196
 20
20.132287
 30
0.0
 40
0.2
100
AcDbArc
 50
90.0
 51
180.0
  0
LINE
  5
356
100
AcDbEntity
  8
GEN_LAYER
  6
CONTINUOUS
 62
    15
100
AcDbLine
 10
-10.900196
 20
20.332287
 30
0.0
 11
-10.401501
 21
20.332287
 31
0.0
  0
ARC
  5
357
100
AcDbEntity
  8
GEN_LAYER
  6
CONTINUOUS
 62
    15
100
AcDbCircle
 10
-10.401501
 20
20.132287
 30
0.0
 40
0.2
100
AcDbArc
 50
20.222892
 51
90.0
  0
ARC
  5
358
100
AcDbEntity
  8
GEN_LAYER
  6
CONTINUOUS
 62
    15
100
AcDbCircle
 10
-10.401501
 20
20.132287
 30
0.0
 40
0.2
100
AcDbArc
 50
20.222892
 51
90.0
  0
LINE
  5
359
100
AcDbEntity
  8
GEN_LAYER
  6
CONTINUOUS
 62
    15
100
AcDbLine
 10
-10.21383
 20
20.201421
 30
0.0
 11
-9.631019
 21
18.619337
 31
0.0
  0
ARC
  5
35A
100
AcDbEntity
  8
GEN_LAYER
  6
CONTINUOUS
 62
    15
100
AcDbCircle
 10
-10.100196
 20
18.4465
 30
0.0
 40
0.5
100
AcDbArc
 50
-70.528779
 51
20.222892
  0
ARC
  5
35B
100
AcDbEntity
  8
GEN_LAYER
  6
CONTINUOUS
 62
    15
100
AcDbCircle
 10
-23.200196
 20
10.832287
 30
0.0
 40
0.5
100
AcDbArc
 50
-90.0
 51
90.0
  0
LINE
  5
35C
100
AcDbEntity
  8
GEN_LAYER
  6
CONTINUOUS
 62
    15
100
AcDbLine
 10
-8.100196
 20
16.032287
 30
0.0
 11
-9.600196
 21
16.032287
 31
0.0
  0
ARC
  5
35D
100
AcDbEntity
  8
GEN_LAYER
  6
CONTINUOUS
 62
    15
100
AcDbCircle
 10
-9.600196
 20
17.032287
 30
0.0
 40
1.0
100
AcDbArc
 50
109.095345
 51
-90.0
  0
ARC
  5
35E
100
AcDbEntity
  8
GEN_LAYER
  6
CONTINUOUS
 62
    15
100
AcDbCircle
 10
-9.600196
 20
17.032287
 30
0.0
 40
1.0
100
AcDbArc
 50
109.095345
 51
-90.0
  0
LINE
  5
35F
100
AcDbEntity
  8
GEN_LAYER
  6
CONTINUOUS
 62
    15
100
AcDbLine
 10
-33.100196
 20
10.332287
 30
0.0
 11
-33.100196
 21
12.068466
 31
0.0
  0
LINE
  5
360
100
AcDbEntity
  8
GEN_LAYER
  6
CONTINUOUS
 62
    15
100
AcDbLine
 10
-31.900196
 20
12.059703
 30
0.0
 11
-31.900196
 21
10.332287
 31
0.0
  0
LINE
  5
361
100
AcDbEntity
  8
GEN_LAYER
  6
CONTINUOUS
 62
    15
100
AcDbLine
 10
-31.900196
 20
10.332287
 30
0.0
 11
-33.100196
 21
10.332287
 31
0.0
  0
LINE
  5
362
100
AcDbEntity
  8
GEN_LAYER
  6
CONTINUOUS
 62
    15
100
AcDbLine
 10
-23.700196
 20
11.332287
 30
0.0
 11
-23.200196
 21
11.332287
 31
0.0
  0
LINE
  5
363
100
AcDbEntity
  8
GEN_LAYER
  6
CONTINUOUS
 62
    15
100
AcDbLine
 10
-23.200196
 20
10.332287
 30
0.0
 11
-23.700196
 21
10.332287
 31
0.0
  0
LINE
  5
364
100
AcDbEntity
  8
GEN_LAYER
  6
CONTINUOUS
 62
    15
100
AcDbLine
 10
-24.700196
 20
10.332287
 30
0.0
 11
-23.200196
 21
10.332287
 31
0.0
  0
ARC
  5
365
100
AcDbEntity
  8
GEN_LAYER
  6
CONTINUOUS
 62
    15
100
AcDbCircle
 10
-24.700196
 20
10.632287
 30
0.0
 40
0.3
100
AcDbArc
 50
90.0
 51
-90.0
  0
LINE
  5
366
100
AcDbEntity
  8
GEN_LAYER
  6
CONTINUOUS
 62
    15
100
AcDbLine
 10
-24.800196
 20
13.332287
 30
0.0
 11
-24.400196
 21
10.932287
 31
0.0
  0
LINE
  5
367
100
AcDbEntity
  8
GEN_LAYER
  6
CONTINUOUS
 62
    15
100
AcDbLine
 10
-27.200196
 20
13.332287
 30
0.0
 11
-24.800196
 21
13.332287
 31
0.0
  0
LINE
  5
368
100
AcDbEntity
  8
GEN_LAYER
  6
CONTINUOUS
 62
    15
100
AcDbLine
 10
-27.600196
 20
10.932287
 30
0.0
 11
-27.200196
 21
13.332287
 31
0.0
  0
ARC
  5
369
100
AcDbEntity
  8
GEN_LAYER
  6
CONTINUOUS
 62
    15
100
AcDbCircle
 10
-27.300196
 20
10.632287
 30
0.0
 40
0.3
100
AcDbArc
 50
-90.0
 51
90.0
  0
LINE
  5
36A
100
AcDbEntity
  8
GEN_LAYER
  6
CONTINUOUS
 62
    15
100
AcDbLine
 10
-27.300196
 20
10.932287
 30
0.0
 11
-27.600196
 21
10.932287
 31
0.0
  0
LINE
  5
36B
100
AcDbEntity
  8
GEN_LAYER
  6
CONTINUOUS
 62
    15
100
AcDbLine
 10
-24.400196
 20
10.932287
 30
0.0
 11
-24.700196
 21
10.932287
 31
0.0
  0
LINE
  5
36C
100
AcDbEntity
  8
GEN_LAYER
  6
CONTINUOUS
 62
    15
100
AcDbLine
 10
-28.326518
 20
10.332287
 30
0.0
 11
-27.300196
 21
10.332287
 31
0.0
  0
ARC
  5
36D
100
AcDbEntity
  8
GEN_LAYER
  6
CONTINUOUS
 62
    15
100
AcDbCircle
 10
-28.326518
 20
10.832287
 30
0.0
 40
0.5
100
AcDbArc
 50
170.537678
 51
-90.0
  0
LINE
  5
36E
100
AcDbEntity
  8
GEN_LAYER
  6
CONTINUOUS
 62
    15
100
AcDbLine
 10
-28.819715
 20
10.914486
 30
0.0
 11
-28.552615
 21
12.517087
 31
0.0
  0
ARC
  5
36F
100
AcDbEntity
  8
GEN_LAYER
  6
CONTINUOUS
 62
    15
100
AcDbCircle
 10
-33.600196
 20
12.068466
 30
0.0
 40
0.5
100
AcDbArc
 50
0.0
 51
102.908258
  0
ARC
  5
370
100
AcDbEntity
  8
GEN_LAYER
  6
CONTINUOUS
 62
    15
100
AcDbCircle
 10
-31.400196
 20
12.059703
 30
0.0
 40
0.5
100
AcDbArc
 50
102.908258
 51
180.0
  0
ARC
  5
371
100
AcDbEntity
  8
GEN_LAYER
  6
CONTINUOUS
 62
    15
100
AcDbCircle
 10
-29.045812
 20
12.599287
 30
0.0
 40
0.5
100
AcDbArc
 50
-9.462322
 51
102.908258
  0
ARC
  5
372
100
AcDbEntity
  8
GEN_LAYER
  6
CONTINUOUS
 62
    15
100
AcDbCircle
 10
-23.200196
 20
13.938998
 30
0.0
 40
0.5
100
AcDbArc
 50
102.908258
 51
180.0
  0
ARC
  5
373
100
AcDbEntity
  8
GEN_LAYER
  6
CONTINUOUS
 62
    15
100
AcDbCircle
 10
-12.529434
 20
16.384548
 30
0.0
 40
0.5
100
AcDbArc
 50
12.469098
 51
102.908258
  0
ENDBLK
  5
374
100
AcDbEntity
  8
0
100
AcDbBlockEnd
  0
BLOCK
  5
376
100
AcDbEntity
  8
GEN_LAYER
100
AcDbBlockBegin
  2
GEN_BLOCK00010
 70
     0
 10
0.0
 20
0.0
 30
0.0
  3
GEN_BLOCK00010
  1

  0
LINE
  5
378
100
AcDbEntity
  8
GEN_LAYER
  6
CONTINUOUS
 62
    15
100
AcDbLine
 10
-38.100196
 20
10.332287
 30
0.0
 11
-38.100196
 21
10.332287
 31
0.0
  0
LINE
  5
379
100
AcDbEntity
  8
GEN_LAYER
  6
CONTINUOUS
 62
    15
100
AcDbLine
 10
-38.100196
 20
80.311483
 30
0.0
 11
-38.100196
 21
80.311483
 31
0.0
  0
LINE
  5
37A
100
AcDbEntity
  8
GEN_LAYER
  6
CONTINUOUS
 62
    15
100
AcDbLine
 10
31.903991
 20
10.332287
 30
0.0
 11
31.903991
 21
10.332287
 31
0.0
  0
ENDBLK
  5
37B
100
AcDbEntity
  8
0
100
AcDbBlockEnd
  0
BLOCK
  5
37D
100
AcDbEntity
  8
1
100
AcDbBlockBegin
  2
GEN_BLOCK00011
 70
     0
 10
0.0
 20
0.0
 30
0.0
  3
GEN_BLOCK00011
  1

  0
LINE
  5
37F
100
AcDbEntity
  8
1
  6
CONTINUOUS
 62
    15
100
AcDbLine
 10
-36.682544
 20
8.650405
 30
0.0
 11
-9.88093
 21
8.650405
 31
0.0
  0
LINE
  5
380
100
AcDbEntity
  8
1
  6
CONTINUOUS
 62
    15
100
AcDbLine
 10
-9.88093
 20
8.650405
 30
0.0
 11
-9.88093
 21
-11.349595
 31
0.0
  0
LINE
  5
381
100
AcDbEntity
  8
1
  6
CONTINUOUS
 62
    15
100
AcDbLine
 10
-9.88093
 20
-11.349595
 30
0.0
 11
-36.682544
 21
-11.349595
 31
0.0
  0
LINE
  5
382
100
AcDbEntity
  8
1
  6
CONTINUOUS
 62
    15
100
AcDbLine
 10
72.419022
 20
4.650405
 30
0.0
 11
68.677888
 21
8.650405
 31
0.0
  0
LINE
  5
383
100
AcDbEntity
  8
1
  6
CONTINUOUS
 62
    15
100
AcDbLine
 10
68.677888
 20
8.650405
 30
0.0
 11
3.11907
 21
8.650405
 31
0.0
  0
LINE
  5
384
100
AcDbEntity
  8
1
  6
CONTINUOUS
 62
    15
100
AcDbLine
 10
3.11907
 20
8.650405
 30
0.0
 11
3.11907
 21
-11.349595
 31
0.0
  0
LINE
  5
385
100
AcDbEntity
  8
1
  6
CONTINUOUS
 62
    15
100
AcDbLine
 10
3.11907
 20
-11.349595
 30
0.0
 11
68.677888
 21
-11.349595
 31
0.0
  0
LINE
  5
386
100
AcDbEntity
  8
1
  6
CONTINUOUS
 62
    15
100
AcDbLine
 10
68.677888
 20
-11.349595
 30
0.0
 11
72.419022
 21
-4.949595
 31
0.0
  0
LINE
  5
387
100
AcDbEntity
  8
1
  6
CONTINUOUS
 62
    15
100
AcDbLine
 10
72.419022
 20
-4.949595
 30
0.0
 11
3.11907
 21
-4.949595
 31
0.0
  0
LINE
  5
388
100
AcDbEntity
  8
1
  6
CONTINUOUS
 62
    15
100
AcDbLine
 10
3.11907
 20
-4.949595
 30
0.0
 11
19.717818
 21
-4.949595
 31
0.0
  0
LINE
  5
389
100
AcDbEntity
  8
1
  6
CONTINUOUS
 62
    15
100
AcDbLine
 10
19.717818
 20
-4.949595
 30
0.0
 11
19.717818
 21
4.650405
 31
0.0
  0
LINE
  5
38A
100
AcDbEntity
  8
1
  6
CONTINUOUS
 62
    15
100
AcDbLine
 10
19.717818
 20
4.650405
 30
0.0
 11
3.11907
 21
4.650405
 31
0.0
  0
LINE
  5
38B
100
AcDbEntity
  8
1
  6
CONTINUOUS
 62
    15
100
AcDbLine
 10
3.11907
 20
4.650405
 30
0.0
 11
72.419022
 21
4.650405
 31
0.0
  0
ENDBLK
  5
38C
100
AcDbEntity
  8
0
100
AcDbBlockEnd
  0
BLOCK
  5
38E
100
AcDbEntity
  8
GEN_LAYER
100
AcDbBlockBegin
  2
GEN_BLOCK00012
 70
     0
 10
0.0
 20
0.0
 30
0.0
  3
GEN_BLOCK00012
  1

  0
LINE
  5
390
100
AcDbEntity
  8
GEN_LAYER
  6
CONTINUOUS
 62
    15
100
AcDbLine
 10
-10.76947
 20
-11.349595
 30
0.0
 11
-9.88093
 21
-10.461055
 31
0.0
  0
LINE
  5
391
100
AcDbEntity
  8
GEN_LAYER
  6
CONTINUOUS
 62
    15
100
AcDbLine
 10
-13.597898
 20
-11.349595
 30
0.0
 11
-9.88093
 21
-7.632627
 31
0.0
  0
LINE
  5
392
100
AcDbEntity
  8
GEN_LAYER
  6
CONTINUOUS
 62
    15
100
AcDbLine
 10
-16.426325
 20
-11.349595
 30
0.0
 11
-9.88093
 21
-4.8042
 31
0.0
  0
LINE
  5
393
100
AcDbEntity
  8
GEN_LAYER
  6
CONTINUOUS
 62
    15
100
AcDbLine
 10
-19.254752
 20
-11.349595
 30
0.0
 11
-9.88093
 21
-1.975773
 31
0.0
  0
LINE
  5
394
100
AcDbEntity
  8
GEN_LAYER
  6
CONTINUOUS
 62
    15
100
AcDbLine
 10
-22.083179
 20
-11.349595
 30
0.0
 11
-9.88093
 21
0.852654
 31
0.0
  0
LINE
  5
395
100
AcDbEntity
  8
GEN_LAYER
  6
CONTINUOUS
 62
    15
100
AcDbLine
 10
-24.911606
 20
-11.349595
 30
0.0
 11
-24.723779
 21
-11.161767
 31
0.0
  0
LINE
  5
396
100
AcDbEntity
  8
GEN_LAYER
  6
CONTINUOUS
 62
    15
100
AcDbLine
 10
-24.329449
 20
-10.767437
 30
0.0
 11
-9.88093
 21
3.681081
 31
0.0
  0
LINE
  5
397
100
AcDbEntity
  8
GEN_LAYER
  6
CONTINUOUS
 62
    15
100
AcDbLine
 10
-27.364305
 20
-10.973867
 30
0.0
 11
-9.88093
 21
6.509508
 31
0.0
  0
LINE
  5
398
100
AcDbEntity
  8
GEN_LAYER
  6
CONTINUOUS
 62
    15
100
AcDbLine
 10
-30.115204
 20
-10.896339
 30
0.0
 11
-10.56846
 21
8.650405
 31
0.0
  0
LINE
  5
399
100
AcDbEntity
  8
GEN_LAYER
  6
CONTINUOUS
 62
    15
100
AcDbLine
 10
-33.396887
 20
-11.349595
 30
0.0
 11
-31.939713
 21
-9.89242
 31
0.0
  0
LINE
  5
39A
100
AcDbEntity
  8
GEN_LAYER
  6
CONTINUOUS
 62
    15
100
AcDbLine
 10
-31.138339
 20
-9.091047
 30
0.0
 11
-13.396887
 21
8.650405
 31
0.0
  0
LINE
  5
39B
100
AcDbEntity
  8
GEN_LAYER
  6
CONTINUOUS
 62
    15
100
AcDbLine
 10
-36.225315
 20
-11.349595
 30
0.0
 11
-16.225315
 21
8.650405
 31
0.0
  0
LINE
  5
39C
100
AcDbEntity
  8
GEN_LAYER
  6
CONTINUOUS
 62
    15
100
AcDbLine
 10
-36.682544
 20
-8.978397
 30
0.0
 11
-19.053742
 21
8.650405
 31
0.0
  0
LINE
  5
39D
100
AcDbEntity
  8
GEN_LAYER
  6
CONTINUOUS
 62
    15
100
AcDbLine
 10
-36.682544
 20
-6.149969
 30
0.0
 11
-21.882169
 21
8.650405
 31
0.0
  0
LINE
  5
39E
100
AcDbEntity
  8
GEN_LAYER
  6
CONTINUOUS
 62
    15
100
AcDbLine
 10
-36.682544
 20
-3.321542
 30
0.0
 11
-24.710596
 21
8.650405
 31
0.0
  0
LINE
  5
39F
100
AcDbEntity
  8
GEN_LAYER
  6
CONTINUOUS
 62
    15
100
AcDbLine
 10
-36.682544
 20
-0.493115
 30
0.0
 11
-27.770935
 21
8.418493
 31
0.0
  0
LINE
  5
3A0
100
AcDbEntity
  8
GEN_LAYER
  6
CONTINUOUS
 62
    15
100
AcDbLine
 10
-36.682544
 20
2.335312
 30
0.0
 11
-30.36745
 21
8.650405
 31
0.0
  0
LINE
  5
3A1
100
AcDbEntity
  8
GEN_LAYER
  6
CONTINUOUS
 62
    15
100
AcDbLine
 10
-36.682544
 20
5.163739
 30
0.0
 11
-33.627078
 21
8.219205
 31
0.0
  0
LINE
  5
3A2
100
AcDbEntity
  8
GEN_LAYER
  6
CONTINUOUS
 62
    15
100
AcDbLine
 10
-33.527847
 20
8.318436
 30
0.0
 11
-33.195877
 21
8.650405
 31
0.0
  0
TEXT
  5
3A3
100
AcDbEntity
  8
GEN_LAYER
  6
CONTINUOUS
 62
    15
100
AcDbText
 10
-79.552887
 20
-1.56949
 30
0.0
 40
2.5
  1
INFILL
 41
1.284
 11
-79.552887
 21
-1.56949
 31
0.0
100
AcDbText
 73
     1
  0
TEXT
  5
3A4
100
AcDbEntity
  8
GEN_LAYER
  6
CONTINUOUS
 62
    15
100
AcDbText
 10
-79.552887
 20
-6.56949
 30
0.0
 40
2.5
  1
EQUAL TO
 41
1.284
 11
-79.552887
 21
-6.56949
 31
0.0
100
AcDbText
 73
     1
  0
TEXT
  5
3A5
100
AcDbEntity
  8
GEN_LAYER
  6
CONTINUOUS
 62
    15
100
AcDbText
 10
-79.552887
 20
-11.56949
 30
0.0
 40
2.5
  1
GLAZING
 41
1.284
 11
-79.552887
 21
-11.56949
 31
0.0
100
AcDbText
 73
     1
  0
LINE
  5
3A6
100
AcDbEntity
  8
GEN_LAYER
  6
CONTINUOUS
 62
    15
100
AcDbLine
 10
-67.412289
 20
-15.335497
 30
0.0
 11
-56.869134
 21
-23.003245
 31
0.0
  0
LINE
  5
3A7
100
AcDbEntity
  8
GEN_LAYER
  6
CONTINUOUS
 62
    15
100
AcDbLine
 10
-56.869134
 20
-23.003245
 30
0.0
 11
-40.894658
 21
-8.306728
 31
0.0
  0
LINE
  5
3A8
100
AcDbEntity
  8
GEN_LAYER
  6
CONTINUOUS
 62
    15
100
AcDbLine
 10
-43.610244
 20
-9.785949
 30
0.0
 11
-40.894658
 21
-8.306728
 31
0.0
  0
LINE
  5
3A9
100
AcDbEntity
  8
GEN_LAYER
  6
CONTINUOUS
 62
    15
100
AcDbLine
 10
-40.894658
 20
-8.306728
 30
0.0
 11
-42.594659
 21
-10.889845
 31
0.0
  0
LINE
  5
3AA
100
AcDbEntity
  8
GEN_LAYER
  6
CONTINUOUS
 62
    15
100
AcDbLine
 10
-36.682544
 20
8.650405
 30
0.0
 11
-36.682544
 21
-11.349595
 31
0.0
  0
ENDBLK
  5
3AB
100
AcDbEntity
  8
0
100
AcDbBlockEnd
  0
BLOCK
  5
3AE
100
AcDbEntity
  8
FIXING
100
AcDbBlockBegin
  2
8569S
 70
     0
 10
0.0
 20
0.0
 30
0.0
  3
8569S
  1

  0
TEXT
  5
3B0
100
AcDbEntity
  8
FIXING
  6
CONTINUOUS
 62
    15
100
AcDbText
 10
-13.73805
 20
-90.068085
 30
0.0
 40
2.5
  1
CWF 70                         1:1          PBA
 41
1.284
 11
-13.73805
 21
-90.068085
 31
0.0
100
AcDbText
 73
     1
  0
TEXT
  5
3B1
100
AcDbEntity
  8
FIXING
  6
CONTINUOUS
 62
    15
100
AcDbText
 10
-20.12784
 20
-95.499405
 30
0.0
 40
2.5
  1
      NEW CAPEX 70mm
 41
1.284
 11
-20.12784
 21
-95.499405
 31
0.0
100
AcDbText
 73
     1
  0
TEXT
  5
3B2
100
AcDbEntity
  8
FIXING
  6
CONTINUOUS
 62
    15
100
AcDbText
 10
-20.12784
 20
-100.499405
 30
0.0
 40
2.5
  1
WALL FINISHING
 41
1.284
 11
-20.12784
 21
-100.499405
 31
0.0
100
AcDbText
 73
     1
  0
TEXT
  5
3B3
100
AcDbEntity
  8
FIXING
  6
CONTINUOUS
 62
    15
100
AcDbText
 10
105.75103
 20
-100.611244
 30
0.0
 40
2.5
  1
04/04/05
 41
1.284
 11
105.75103
 21
-100.611244
 31
0.0
100
AcDbText
 73
     1
  0
TEXT
  5
3B4
100
AcDbEntity
  8
FIXING
  6
CONTINUOUS
 62
    15
100
AcDbText
 10
-13.73805
 20
-56.841179
 30
0.0
 40
2.5
  1
RAFTER
 41
1.284
 11
-13.73805
 21
-56.841179
 31
0.0
100
AcDbText
 73
     1
  0
TEXT
  5
3B5
100
AcDbEntity
  8
FIXING
  6
CONTINUOUS
 62
    15
100
AcDbText
 10
79.233406
 20
1.305915
 30
0.0
 40
2.5
  1
DOUBLE
 41
1.284
 11
79.233406
 21
1.305915
 31
0.0
100
AcDbText
 73
     1
  0
TEXT
  5
3B6
100
AcDbEntity
  8
FIXING
  6
CONTINUOUS
 62
    15
100
AcDbText
 10
79.233406
 20
-3.694085
 30
0.0
 40
2.5
  1
GLAZING
 41
1.284
 11
79.233406
 21
-3.694085
 31
0.0
100
AcDbText
 73
     1
  0
TEXT
  5
3B7
100
AcDbEntity
  8
FIXING
  6
CONTINUOUS
 62
    15
100
AcDbText
 10
-90.415527
 20
33.893845
 30
0.0
 40
2.5
  1
NEW CAPEX 
 41
1.284
 11
-90.415527
 21
33.893845
 31
0.0
100
AcDbText
 73
     1
  0
TEXT
  5
3B8
100
AcDbEntity
  8
FIXING
  6
CONTINUOUS
 62
    15
100
AcDbText
 10
-90.415527
 20
28.893845
 30
0.0
 40
2.5
  1
WITH CONCELED
 41
1.284
 11
-90.415527
 21
28.893845
 31
0.0
100
AcDbText
 73
     1
  0
TEXT
  5
3B9
100
AcDbEntity
  8
FIXING
  6
CONTINUOUS
 62
    15
100
AcDbText
 10
-90.415527
 20
23.893845
 30
0.0
 40
2.5
  1
SCREW CHANNEL
 41
1.284
 11
-90.415527
 21
23.893845
 31
0.0
100
AcDbText
 73
     1
  0
LINE
  5
3BA
100
AcDbEntity
  8
FIXING
  6
CONTINUOUS
 62
    15
100
AcDbLine
 10
-1.707237
 20
-33.551916
 30
0.0
 11
-4.051437
 21
-32.698716
 31
0.0
  0
LINE
  5
3BB
100
AcDbEntity
  8
FIXING
  6
CONTINUOUS
 62
    15
100
AcDbLine
 10
-4.051437
 20
-32.698716
 30
0.0
 11
-1.707237
 21
-33.551916
 31
0.0
  0
LINE
  5
3BC
100
AcDbEntity
  8
FIXING
  6
CONTINUOUS
 62
    15
100
AcDbLine
 10
-1.707437
 20
-32.698716
 30
0.0
 11
-1.707437
 21
-33.551716
 31
0.0
  0
LINE
  5
3BD
100
AcDbEntity
  8
FIXING
  6
CONTINUOUS
 62
    15
100
AcDbLine
 10
-1.707437
 20
-33.551716
 30
0.0
 11
-1.707437
 21
-31.848416
 31
0.0
  0
LINE
  5
3BE
100
AcDbEntity
  8
FIXING
  6
CONTINUOUS
 62
    15
100
AcDbLine
 10
-1.707437
 20
-31.848416
 30
0.0
 11
-1.707437
 21
-33.551716
 31
0.0
  0
LINE
  5
3BF
100
AcDbEntity
  8
FIXING
  6
CONTINUOUS
 62
    15
100
AcDbLine
 10
-1.707437
 20
-33.551716
 30
0.0
 11
-1.707437
 21
-32.698716
 31
0.0
  0
LINE
  5
3C0
100
AcDbEntity
  8
FIXING
  6
CONTINUOUS
 62
    15
100
AcDbLine
 10
-1.707437
 20
-31.848416
 30
0.0
 11
-1.707437
 21
-33.551716
 31
0.0
  0
LINE
  5
3C1
100
AcDbEntity
  8
FIXING
  6
CONTINUOUS
 62
    15
100
AcDbLine
 10
-1.707437
 20
-33.551716
 30
0.0
 11
-0.779237
 21
-33.926416
 31
0.0
  0
LINE
  5
3C2
100
AcDbEntity
  8
FIXING
  6
CONTINUOUS
 62
    15
100
AcDbLine
 10
-0.779237
 20
-33.926416
 30
0.0
 11
-4.979337
 21
-33.073216
 31
0.0
  0
LINE
  5
3C3
100
AcDbEntity
  8
FIXING
  6
CONTINUOUS
 62
    15
100
AcDbLine
 10
-4.979337
 20
-33.073216
 30
0.0
 11
-4.051337
 21
-33.437316
 31
0.0
  0
LINE
  5
3C4
100
AcDbEntity
  8
FIXING
  6
CONTINUOUS
 62
    15
100
AcDbLine
 10
-4.051337
 20
-33.437316
 30
0.0
 11
-1.707237
 21
-34.290416
 31
0.0
  0
LINE
  5
3C5
100
AcDbEntity
  8
FIXING
  6
CONTINUOUS
 62
    15
100
AcDbLine
 10
-4.051337
 20
-33.437316
 30
0.0
 11
-1.707237
 21
-34.290416
 31
0.0
  0
LINE
  5
3C6
100
AcDbEntity
  8
FIXING
  6
CONTINUOUS
 62
    15
100
AcDbLine
 10
-1.707237
 20
-34.290416
 30
0.0
 11
-0.779237
 21
-33.926416
 31
0.0
  0
LINE
  5
3C7
100
AcDbEntity
  8
FIXING
  6
CONTINUOUS
 62
    15
100
AcDbLine
 10
-0.779237
 20
-33.926416
 30
0.0
 11
-4.979337
 21
-33.073216
 31
0.0
  0
LINE
  5
3C8
100
AcDbEntity
  8
FIXING
  6
CONTINUOUS
 62
    15
100
AcDbLine
 10
-4.979337
 20
-33.073216
 30
0.0
 11
-4.051537
 21
-32.698716
 31
0.0
  0
LINE
  5
3C9
100
AcDbEntity
  8
FIXING
  6
CONTINUOUS
 62
    15
100
AcDbLine
 10
-4.051537
 20
-32.698716
 30
0.0
 11
-4.979337
 21
-33.073216
 31
0.0
  0
LINE
  5
3CA
100
AcDbEntity
  8
FIXING
  6
CONTINUOUS
 62
    15
100
AcDbLine
 10
-1.707437
 20
-33.551716
 30
0.0
 11
-0.779237
 21
-33.926416
 31
0.0
  0
LINE
  5
3CB
100
AcDbEntity
  8
FIXING
  6
CONTINUOUS
 62
    15
100
AcDbLine
 10
-0.779237
 20
-33.926416
 30
0.0
 11
-1.707237
 21
-34.290416
 31
0.0
  0
LINE
  5
3CC
100
AcDbEntity
  8
FIXING
  6
CONTINUOUS
 62
    15
100
AcDbLine
 10
-1.707237
 20
-34.290416
 30
0.0
 11
-4.051337
 21
-33.437316
 31
0.0
  0
LINE
  5
3CD
100
AcDbEntity
  8
FIXING
  6
CONTINUOUS
 62
    15
100
AcDbLine
 10
-4.051337
 20
-33.437316
 30
0.0
 11
-4.979337
 21
-33.073216
 31
0.0
  0
LINE
  5
3CE
100
AcDbEntity
  8
FIXING
  6
CONTINUOUS
 62
    15
100
AcDbLine
 10
-4.979337
 20
-33.073216
 30
0.0
 11
-0.779237
 21
-33.926416
 31
0.0
  0
LINE
  5
3CF
100
AcDbEntity
  8
FIXING
  6
CONTINUOUS
 62
    15
100
AcDbLine
 10
-0.779237
 20
-33.926416
 30
0.0
 11
-1.707237
 21
-34.290416
 31
0.0
  0
LINE
  5
3D0
100
AcDbEntity
  8
FIXING
  6
CONTINUOUS
 62
    15
100
AcDbLine
 10
-1.707237
 20
-34.290416
 30
0.0
 11
-4.051337
 21
-33.437316
 31
0.0
  0
LINE
  5
3D1
100
AcDbEntity
  8
FIXING
  6
CONTINUOUS
 62
    15
100
AcDbLine
 10
-4.051837
 20
-36.447416
 30
0.0
 11
-4.051837
 21
-35.995016
 31
0.0
  0
LINE
  5
3D2
100
AcDbEntity
  8
FIXING
  6
CONTINUOUS
 62
    15
100
AcDbLine
 10
-4.051837
 20
-35.995016
 30
0.0
 11
-4.979737
 21
-35.631016
 31
0.0
  0
LINE
  5
3D3
100
AcDbEntity
  8
FIXING
  6
CONTINUOUS
 62
    15
100
AcDbLine
 10
-4.979737
 20
-35.631016
 30
0.0
 11
-0.779737
 21
-36.447416
 31
0.0
  0
LINE
  5
3D4
100
AcDbEntity
  8
FIXING
  6
CONTINUOUS
 62
    15
100
AcDbLine
 10
-0.779737
 20
-36.447416
 30
0.0
 11
-1.757937
 21
-36.829916
 31
0.0
  0
LINE
  5
3D5
100
AcDbEntity
  8
FIXING
  6
CONTINUOUS
 62
    15
100
AcDbLine
 10
-1.757937
 20
-36.829916
 30
0.0
 11
-4.051837
 21
-35.995016
 31
0.0
  0
LINE
  5
3D6
100
AcDbEntity
  8
FIXING
  6
CONTINUOUS
 62
    15
100
AcDbLine
 10
-4.051837
 20
-35.995016
 30
0.0
 11
-1.757937
 21
-36.829916
 31
0.0
  0
LINE
  5
3D7
100
AcDbEntity
  8
FIXING
  6
CONTINUOUS
 62
    15
100
AcDbLine
 10
-1.757937
 20
-36.829916
 30
0.0
 11
-1.974037
 21
-38.471116
 31
0.0
  0
LINE
  5
3D8
100
AcDbEntity
  8
FIXING
  6
CONTINUOUS
 62
    15
100
AcDbLine
 10
-1.974037
 20
-38.471116
 30
0.0
 11
-1.341637
 21
-38.701216
 31
0.0
  0
LINE
  5
3D9
100
AcDbEntity
  8
FIXING
  6
CONTINUOUS
 62
    15
100
AcDbLine
 10
-1.341637
 20
-38.701216
 30
0.0
 11
-1.974037
 21
-38.471116
 31
0.0
  0
LINE
  5
3DA
100
AcDbEntity
  8
FIXING
  6
CONTINUOUS
 62
    15
100
AcDbLine
 10
-0.779737
 20
-36.447416
 30
0.0
 11
-4.979737
 21
-35.631016
 31
0.0
  0
LINE
  5
3DB
100
AcDbEntity
  8
FIXING
  6
CONTINUOUS
 62
    15
100
AcDbLine
 10
-4.979737
 20
-35.631016
 30
0.0
 11
-0.779737
 21
-36.447416
 31
0.0
  0
LINE
  5
3DC
100
AcDbEntity
  8
FIXING
  6
CONTINUOUS
 62
    15
100
AcDbLine
 10
-0.779737
 20
-36.447416
 30
0.0
 11
-1.757937
 21
-36.829916
 31
0.0
  0
LINE
  5
3DD
100
AcDbEntity
  8
FIXING
  6
CONTINUOUS
 62
    15
100
AcDbLine
 10
-1.757937
 20
-36.829916
 30
0.0
 11
-1.974037
 21
-38.471116
 31
0.0
  0
LINE
  5
3DE
100
AcDbEntity
  8
FIXING
  6
CONTINUOUS
 62
    15
100
AcDbLine
 10
-1.974037
 20
-38.471116
 30
0.0
 11
-1.341637
 21
-38.701216
 31
0.0
  0
LINE
  5
3DF
100
AcDbEntity
  8
FIXING
  6
CONTINUOUS
 62
    15
100
AcDbLine
 10
-1.341637
 20
-38.701216
 30
0.0
 11
-1.974037
 21
-38.471116
 31
0.0
  0
LINE
  5
3E0
100
AcDbEntity
  8
FIXING
  6
CONTINUOUS
 62
    15
100
AcDbLine
 10
-1.974037
 20
-38.471116
 30
0.0
 11
-3.874937
 21
-37.790516
 31
0.0
  0
LINE
  5
3E1
100
AcDbEntity
  8
FIXING
  6
CONTINUOUS
 62
    15
100
AcDbLine
 10
-3.874937
 20
-37.790516
 30
0.0
 11
-4.051837
 21
-36.447416
 31
0.0
  0
LINE
  5
3E2
100
AcDbEntity
  8
FIXING
  6
CONTINUOUS
 62
    15
100
AcDbLine
 10
-4.051837
 20
-36.447416
 30
0.0
 11
-3.874937
 21
-37.790516
 31
0.0
  0
LINE
  5
3E3
100
AcDbEntity
  8
FIXING
  6
CONTINUOUS
 62
    15
100
AcDbLine
 10
-3.874937
 20
-37.790516
 30
0.0
 11
-4.574437
 21
-38.072816
 31
0.0
  0
LINE
  5
3E4
100
AcDbEntity
  8
FIXING
  6
CONTINUOUS
 62
    15
100
AcDbLine
 10
-1.707637
 20
-36.109616
 30
0.0
 11
-0.779737
 21
-36.447416
 31
0.0
  0
LINE
  5
3E5
100
AcDbEntity
  8
FIXING
  6
CONTINUOUS
 62
    15
100
AcDbLine
 10
-0.779737
 20
-36.447416
 30
0.0
 11
-1.707637
 21
-36.109616
 31
0.0
  0
LINE
  5
3E6
100
AcDbEntity
  8
FIXING
  6
CONTINUOUS
 62
    15
100
AcDbLine
 10
-1.707637
 20
-36.109616
 30
0.0
 11
-4.051837
 21
-35.256416
 31
0.0
  0
LINE
  5
3E7
100
AcDbEntity
  8
FIXING
  6
CONTINUOUS
 62
    15
100
AcDbLine
 10
-4.051837
 20
-35.256416
 30
0.0
 11
-4.979737
 21
-35.631016
 31
0.0
  0
LINE
  5
3E8
100
AcDbEntity
  8
FIXING
  6
CONTINUOUS
 62
    15
100
AcDbLine
 10
-4.979737
 20
-35.631016
 30
0.0
 11
-4.051837
 21
-35.995016
 31
0.0
  0
LINE
  5
3E9
100
AcDbEntity
  8
FIXING
  6
CONTINUOUS
 62
    15
100
AcDbLine
 10
-4.051837
 20
-35.995016
 30
0.0
 11
-4.051837
 21
-36.447416
 31
0.0
  0
LINE
  5
3EA
100
AcDbEntity
  8
FIXING
  6
CONTINUOUS
 62
    15
100
AcDbLine
 10
-4.051837
 20
-36.447416
 30
0.0
 11
-3.874937
 21
-37.790516
 31
0.0
  0
LINE
  5
3EB
100
AcDbEntity
  8
FIXING
  6
CONTINUOUS
 62
    15
100
AcDbLine
 10
-3.874937
 20
-37.790516
 30
0.0
 11
-1.974037
 21
-38.471116
 31
0.0
  0
LINE
  5
3EC
100
AcDbEntity
  8
FIXING
  6
CONTINUOUS
 62
    15
100
AcDbLine
 10
-1.974037
 20
-38.471116
 30
0.0
 11
-1.757937
 21
-36.829916
 31
0.0
  0
LINE
  5
3ED
100
AcDbEntity
  8
FIXING
  6
CONTINUOUS
 62
    15
100
AcDbLine
 10
-2.056937
 20
-40.872116
 30
0.0
 11
-2.378537
 21
-40.755116
 31
0.0
  0
LINE
  5
3EE
100
AcDbEntity
  8
FIXING
  6
CONTINUOUS
 62
    15
100
AcDbLine
 10
-2.378537
 20
-40.755116
 30
0.0
 11
-3.502837
 21
-40.356216
 31
0.0
  0
LINE
  5
3EF
100
AcDbEntity
  8
FIXING
  6
CONTINUOUS
 62
    15
100
AcDbLine
 10
-3.502837
 20
-40.356216
 30
0.0
 11
-3.563137
 21
-40.159016
 31
0.0
  0
LINE
  5
3F0
100
AcDbEntity
  8
FIXING
  6
CONTINUOUS
 62
    15
100
AcDbLine
 10
-3.563137
 20
-40.159016
 30
0.0
 11
-3.797737
 21
-38.377516
 31
0.0
  0
LINE
  5
3F1
100
AcDbEntity
  8
FIXING
  6
CONTINUOUS
 62
    15
100
AcDbLine
 10
-3.797737
 20
-38.377516
 30
0.0
 11
-3.563137
 21
-40.159016
 31
0.0
  0
LINE
  5
3F2
100
AcDbEntity
  8
FIXING
  6
CONTINUOUS
 62
    15
100
AcDbLine
 10
-3.563137
 20
-40.159016
 30
0.0
 11
-3.502837
 21
-40.356216
 31
0.0
  0
LINE
  5
3F3
100
AcDbEntity
  8
FIXING
  6
CONTINUOUS
 62
    15
100
AcDbLine
 10
-3.502837
 20
-40.356216
 30
0.0
 11
-3.895637
 21
-40.514716
 31
0.0
  0
LINE
  5
3F4
100
AcDbEntity
  8
FIXING
  6
CONTINUOUS
 62
    15
100
AcDbLine
 10
-3.895637
 20
-40.514716
 30
0.0
 11
-2.056937
 21
-40.872116
 31
0.0
  0
LINE
  5
3F5
100
AcDbEntity
  8
FIXING
  6
CONTINUOUS
 62
    15
100
AcDbLine
 10
-2.378537
 20
-40.755116
 30
0.0
 11
-2.196237
 21
-40.159016
 31
0.0
  0
LINE
  5
3F6
100
AcDbEntity
  8
FIXING
  6
CONTINUOUS
 62
    15
100
AcDbLine
 10
-2.196237
 20
-40.159016
 30
0.0
 11
-2.040337
 21
-38.974416
 31
0.0
  0
LINE
  5
3F7
100
AcDbEntity
  8
FIXING
  6
CONTINUOUS
 62
    15
100
AcDbLine
 10
-2.040337
 20
-38.974416
 30
0.0
 11
-3.797737
 21
-38.377516
 31
0.0
  0
LINE
  5
3F8
100
AcDbEntity
  8
FIXING
  6
CONTINUOUS
 62
    15
100
AcDbLine
 10
-3.797737
 20
-38.377516
 30
0.0
 11
-4.574437
 21
-38.072816
 31
0.0
  0
LINE
  5
3F9
100
AcDbEntity
  8
FIXING
  6
CONTINUOUS
 62
    15
100
AcDbLine
 10
-4.574437
 20
-38.072816
 30
0.0
 11
-3.874937
 21
-37.790516
 31
0.0
  0
LINE
  5
3FA
100
AcDbEntity
  8
FIXING
  6
CONTINUOUS
 62
    15
100
AcDbLine
 10
-4.051837
 20
-35.995016
 30
0.0
 11
-4.051837
 21
-36.447416
 31
0.0
  0
LINE
  5
3FB
100
AcDbEntity
  8
FIXING
  6
CONTINUOUS
 62
    15
100
AcDbLine
 10
-4.051837
 20
-36.447416
 30
0.0
 11
-3.874937
 21
-37.790516
 31
0.0
  0
LINE
  5
3FC
100
AcDbEntity
  8
FIXING
  6
CONTINUOUS
 62
    15
100
AcDbLine
 10
-3.874937
 20
-37.790516
 30
0.0
 11
-1.974037
 21
-38.471116
 31
0.0
  0
LINE
  5
3FD
100
AcDbEntity
  8
FIXING
  6
CONTINUOUS
 62
    15
100
AcDbLine
 10
-1.974037
 20
-38.471116
 30
0.0
 11
-3.874937
 21
-37.790516
 31
0.0
  0
LINE
  5
3FE
100
AcDbEntity
  8
FIXING
  6
CONTINUOUS
 62
    15
100
AcDbLine
 10
-3.874937
 20
-37.790516
 30
0.0
 11
-4.574437
 21
-38.072816
 31
0.0
  0
LINE
  5
3FF
100
AcDbEntity
  8
FIXING
  6
CONTINUOUS
 62
    15
100
AcDbLine
 10
-4.574437
 20
-38.072816
 30
0.0
 11
-3.797737
 21
-38.377516
 31
0.0
  0
LINE
  5
400
100
AcDbEntity
  8
FIXING
  6
CONTINUOUS
 62
    15
100
AcDbLine
 10
-3.797737
 20
-38.377516
 30
0.0
 11
-2.040337
 21
-38.974416
 31
0.0
  0
LINE
  5
401
100
AcDbEntity
  8
FIXING
  6
CONTINUOUS
 62
    15
100
AcDbLine
 10
-2.040337
 20
-38.974416
 30
0.0
 11
-2.196237
 21
-40.159016
 31
0.0
  0
LINE
  5
402
100
AcDbEntity
  8
FIXING
  6
CONTINUOUS
 62
    15
100
AcDbLine
 10
-2.196237
 20
-40.159016
 30
0.0
 11
-2.378537
 21
-40.755116
 31
0.0
  0
LINE
  5
403
100
AcDbEntity
  8
FIXING
  6
CONTINUOUS
 62
    15
100
AcDbLine
 10
-2.378537
 20
-40.755116
 30
0.0
 11
-3.502837
 21
-40.356216
 31
0.0
  0
LINE
  5
404
100
AcDbEntity
  8
FIXING
  6
CONTINUOUS
 62
    15
100
AcDbLine
 10
-3.502837
 20
-40.356216
 30
0.0
 11
-3.895637
 21
-40.514716
 31
0.0
  0
LINE
  5
405
100
AcDbEntity
  8
FIXING
  6
CONTINUOUS
 62
    15
100
AcDbLine
 10
-3.895637
 20
-40.514716
 30
0.0
 11
-2.056937
 21
-40.872116
 31
0.0
  0
LINE
  5
406
100
AcDbEntity
  8
FIXING
  6
CONTINUOUS
 62
    15
100
AcDbLine
 10
-2.040337
 20
-38.974416
 30
0.0
 11
-1.341637
 21
-38.701216
 31
0.0
  0
LINE
  5
407
100
AcDbEntity
  8
FIXING
  6
CONTINUOUS
 62
    15
100
AcDbLine
 10
-1.341637
 20
-38.701216
 30
0.0
 11
-2.040337
 21
-38.974416
 31
0.0
  0
LINE
  5
408
100
AcDbEntity
  8
FIXING
  6
CONTINUOUS
 62
    15
100
AcDbLine
 10
-2.040337
 20
-38.974416
 30
0.0
 11
-3.797737
 21
-38.377516
 31
0.0
  0
LINE
  5
409
100
AcDbEntity
  8
FIXING
  6
CONTINUOUS
 62
    15
100
AcDbLine
 10
-3.797737
 20
-38.377516
 30
0.0
 11
-3.563137
 21
-40.159016
 31
0.0
  0
LINE
  5
40A
100
AcDbEntity
  8
FIXING
  6
CONTINUOUS
 62
    15
100
AcDbLine
 10
-3.563137
 20
-40.159016
 30
0.0
 11
-3.502837
 21
-40.356216
 31
0.0
  0
LINE
  5
40B
100
AcDbEntity
  8
FIXING
  6
CONTINUOUS
 62
    15
100
AcDbLine
 10
-3.502837
 20
-40.356216
 30
0.0
 11
-3.895637
 21
-40.514716
 31
0.0
  0
LINE
  5
40C
100
AcDbEntity
  8
FIXING
  6
CONTINUOUS
 62
    15
100
AcDbLine
 10
-3.895637
 20
-40.514716
 30
0.0
 11
-3.394237
 21
-40.711416
 31
0.0
  0
LINE
  5
40D
100
AcDbEntity
  8
FIXING
  6
CONTINUOUS
 62
    15
100
AcDbLine
 10
-3.394237
 20
-40.711416
 30
0.0
 11
-2.880137
 21
-43.396316
 31
0.0
  0
LINE
  5
40E
100
AcDbEntity
  8
FIXING
  6
CONTINUOUS
 62
    15
100
AcDbLine
 10
-2.880137
 20
-43.396316
 30
0.0
 11
-2.462737
 21
-41.030816
 31
0.0
  0
LINE
  5
40F
100
AcDbEntity
  8
FIXING
  6
CONTINUOUS
 62
    15
100
AcDbLine
 10
-2.462737
 20
-41.030816
 30
0.0
 11
-3.394237
 21
-40.711416
 31
0.0
  0
LINE
  5
410
100
AcDbEntity
  8
FIXING
  6
CONTINUOUS
 62
    15
100
AcDbLine
 10
-3.394237
 20
-40.711416
 30
0.0
 11
-3.895637
 21
-40.514716
 31
0.0
  0
LINE
  5
411
100
AcDbEntity
  8
FIXING
  6
CONTINUOUS
 62
    15
100
AcDbLine
 10
-3.895637
 20
-40.514716
 30
0.0
 11
-3.502837
 21
-40.356216
 31
0.0
  0
LINE
  5
412
100
AcDbEntity
  8
FIXING
  6
CONTINUOUS
 62
    15
100
AcDbLine
 10
-1.341637
 20
-38.701216
 30
0.0
 11
-2.040337
 21
-38.974416
 31
0.0
  0
LINE
  5
413
100
AcDbEntity
  8
FIXING
  6
CONTINUOUS
 62
    15
100
AcDbLine
 10
-2.040337
 20
-38.974416
 30
0.0
 11
-1.341637
 21
-38.701216
 31
0.0
  0
LINE
  5
414
100
AcDbEntity
  8
FIXING
  6
CONTINUOUS
 62
    15
100
AcDbLine
 10
-1.341637
 20
-38.701216
 30
0.0
 11
-4.574437
 21
-38.072816
 31
0.0
  0
LINE
  5
415
100
AcDbEntity
  8
FIXING
  6
CONTINUOUS
 62
    15
100
AcDbLine
 10
-4.574437
 20
-38.072816
 30
0.0
 11
-1.341637
 21
-38.701216
 31
0.0
  0
LINE
  5
416
100
AcDbEntity
  8
FIXING
  6
CONTINUOUS
 62
    15
100
AcDbLine
 10
-1.341637
 20
-38.701216
 30
0.0
 11
-2.040337
 21
-38.974416
 31
0.0
  0
LINE
  5
417
100
AcDbEntity
  8
FIXING
  6
CONTINUOUS
 62
    15
100
AcDbLine
 10
-2.040337
 20
-38.974416
 30
0.0
 11
-1.341637
 21
-38.701216
 31
0.0
  0
LINE
  5
418
100
AcDbEntity
  8
FIXING
  6
CONTINUOUS
 62
    15
100
AcDbLine
 10
-2.462737
 20
-41.030816
 30
0.0
 11
-2.056937
 21
-40.872116
 31
0.0
  0
LINE
  5
419
100
AcDbEntity
  8
FIXING
  6
CONTINUOUS
 62
    15
100
AcDbLine
 10
-2.056937
 20
-40.872116
 30
0.0
 11
-3.895637
 21
-40.514716
 31
0.0
  0
LINE
  5
41A
100
AcDbEntity
  8
FIXING
  6
CONTINUOUS
 62
    15
100
AcDbLine
 10
-3.895637
 20
-40.514716
 30
0.0
 11
-3.502837
 21
-40.356216
 31
0.0
  0
LINE
  5
41B
100
AcDbEntity
  8
FIXING
  6
CONTINUOUS
 62
    15
100
AcDbLine
 10
-3.502837
 20
-40.356216
 30
0.0
 11
-2.378537
 21
-40.755116
 31
0.0
  0
LINE
  5
41C
100
AcDbEntity
  8
FIXING
  6
CONTINUOUS
 62
    15
100
AcDbLine
 10
-2.378537
 20
-40.755116
 30
0.0
 11
-2.056937
 21
-40.872116
 31
0.0
  0
LINE
  5
41D
100
AcDbEntity
  8
FIXING
  6
CONTINUOUS
 62
    15
100
AcDbLine
 10
-2.056937
 20
-40.872116
 30
0.0
 11
-2.378537
 21
-40.755116
 31
0.0
  0
LINE
  5
41E
100
AcDbEntity
  8
FIXING
  6
CONTINUOUS
 62
    15
100
AcDbLine
 10
-3.394237
 20
-40.711416
 30
0.0
 11
-3.895637
 21
-40.514716
 31
0.0
  0
LINE
  5
41F
100
AcDbEntity
  8
FIXING
  6
CONTINUOUS
 62
    15
100
AcDbLine
 10
-3.895637
 20
-40.514716
 30
0.0
 11
-2.056937
 21
-40.872116
 31
0.0
  0
LINE
  5
420
100
AcDbEntity
  8
FIXING
  6
CONTINUOUS
 62
    15
100
AcDbLine
 10
-2.056937
 20
-40.872116
 30
0.0
 11
-2.462737
 21
-41.030816
 31
0.0
  0
LINE
  5
421
100
AcDbEntity
  8
FIXING
  6
CONTINUOUS
 62
    15
100
AcDbLine
 10
-2.462737
 20
-41.030816
 30
0.0
 11
-3.394237
 21
-40.711416
 31
0.0
  0
LINE
  5
422
100
AcDbEntity
  8
FIXING
  6
CONTINUOUS
 62
    15
100
AcDbLine
 10
-3.394237
 20
-40.711416
 30
0.0
 11
-2.880137
 21
-43.396316
 31
0.0
  0
LINE
  5
423
100
AcDbEntity
  8
FIXING
  6
CONTINUOUS
 62
    15
100
AcDbLine
 10
-2.880137
 20
-43.396316
 30
0.0
 11
-2.462737
 21
-41.030816
 31
0.0
  0
LINE
  5
424
100
AcDbEntity
  8
FIXING
  6
CONTINUOUS
 62
    15
100
AcDbLine
 10
-2.462737
 20
-41.030816
 30
0.0
 11
-2.056937
 21
-40.872116
 31
0.0
  0
LINE
  5
425
100
AcDbEntity
  8
FIXING
  6
CONTINUOUS
 62
    15
100
AcDbLine
 10
-2.056937
 20
-40.872116
 30
0.0
 11
-3.895637
 21
-40.514716
 31
0.0
  0
LINE
  5
426
100
AcDbEntity
  8
FIXING
  6
CONTINUOUS
 62
    15
100
AcDbLine
 10
-4.051837
 20
-35.256416
 30
0.0
 11
-4.051437
 21
-33.437216
 31
0.0
  0
LINE
  5
427
100
AcDbEntity
  8
FIXING
  6
CONTINUOUS
 62
    15
100
AcDbLine
 10
-1.707495
 20
-34.290322
 30
0.0
 11
-1.707637
 21
-36.109616
 31
0.0
  0
LINE
  5
428
100
AcDbEntity
  8
FIXING
  6
CONTINUOUS
 62
    15
100
AcDbLine
 10
-1.708637
 20
-19.638416
 30
0.0
 11
-1.708537
 21
-21.341816
 31
0.0
  0
LINE
  5
429
100
AcDbEntity
  8
FIXING
  6
CONTINUOUS
 62
    15
100
AcDbLine
 10
-1.708537
 20
-21.341816
 30
0.0
 11
-0.780337
 21
-21.716516
 31
0.0
  0
LINE
  5
42A
100
AcDbEntity
  8
FIXING
  6
CONTINUOUS
 62
    15
100
AcDbLine
 10
-1.708437
 20
-22.080416
 30
0.0
 11
-0.780437
 21
-21.716416
 31
0.0
  0
LINE
  5
42B
100
AcDbEntity
  8
FIXING
  6
CONTINUOUS
 62
    15
100
AcDbLine
 10
-0.780437
 20
-21.716416
 30
0.0
 11
-4.980537
 21
-20.863216
 31
0.0
  0
LINE
  5
42C
100
AcDbEntity
  8
FIXING
  6
CONTINUOUS
 62
    15
100
AcDbLine
 10
-4.980537
 20
-20.863216
 30
0.0
 11
-4.052537
 21
-21.227316
 31
0.0
  0
LINE
  5
42D
100
AcDbEntity
  8
FIXING
  6
CONTINUOUS
 62
    15
100
AcDbLine
 10
-4.052537
 20
-21.227316
 30
0.0
 11
-1.708437
 21
-22.080416
 31
0.0
  0
LINE
  5
42E
100
AcDbEntity
  8
FIXING
  6
CONTINUOUS
 62
    15
100
AcDbLine
 10
-1.708337
 20
-21.341916
 30
0.0
 11
-4.052537
 21
-20.488716
 31
0.0
  0
LINE
  5
42F
100
AcDbEntity
  8
FIXING
  6
CONTINUOUS
 62
    15
100
AcDbLine
 10
-4.052537
 20
-22.930516
 30
0.0
 11
-4.052537
 21
-21.227316
 31
0.0
  0
LINE
  5
430
100
AcDbEntity
  8
FIXING
  6
CONTINUOUS
 62
    15
100
AcDbLine
 10
-4.052537
 20
-21.227316
 30
0.0
 11
-4.052537
 21
-22.930516
 31
0.0
  0
LINE
  5
431
100
AcDbEntity
  8
FIXING
  6
CONTINUOUS
 62
    15
100
AcDbLine
 10
-4.052537
 20
-22.930516
 30
0.0
 11
-4.052537
 21
-21.227316
 31
0.0
  0
LINE
  5
432
100
AcDbEntity
  8
FIXING
  6
CONTINUOUS
 62
    15
100
AcDbLine
 10
-4.052537
 20
-21.227316
 30
0.0
 11
-4.980537
 21
-20.863216
 31
0.0
  0
LINE
  5
433
100
AcDbEntity
  8
FIXING
  6
CONTINUOUS
 62
    15
100
AcDbLine
 10
-4.980537
 20
-20.863216
 30
0.0
 11
-4.052837
 21
-20.488716
 31
0.0
  0
LINE
  5
434
100
AcDbEntity
  8
FIXING
  6
CONTINUOUS
 62
    15
100
AcDbLine
 10
-4.051537
 20
-30.995216
 30
0.0
 11
-1.707437
 21
-31.848416
 31
0.0
  0
LINE
  5
435
100
AcDbEntity
  8
FIXING
  6
CONTINUOUS
 62
    15
100
AcDbLine
 10
-1.707437
 20
-31.848416
 30
0.0
 11
-0.779437
 21
-31.484416
 31
0.0
  0
LINE
  5
436
100
AcDbEntity
  8
FIXING
  6
CONTINUOUS
 62
    15
100
AcDbLine
 10
-0.779437
 20
-31.484416
 30
0.0
 11
-4.979537
 21
-30.631216
 31
0.0
  0
LINE
  5
437
100
AcDbEntity
  8
FIXING
  6
CONTINUOUS
 62
    15
100
AcDbLine
 10
-4.979537
 20
-30.631216
 30
0.0
 11
-4.051537
 21
-30.995216
 31
0.0
  0
LINE
  5
438
100
AcDbEntity
  8
FIXING
  6
CONTINUOUS
 62
    15
100
AcDbLine
 10
-4.051537
 20
-30.995216
 30
0.0
 11
-1.707437
 21
-31.848416
 31
0.0
  0
LINE
  5
439
100
AcDbEntity
  8
FIXING
  6
CONTINUOUS
 62
    15
100
AcDbLine
 10
-1.707437
 20
-31.848416
 30
0.0
 11
-0.779437
 21
-31.484416
 31
0.0
  0
LINE
  5
43A
100
AcDbEntity
  8
FIXING
  6
CONTINUOUS
 62
    15
100
AcDbLine
 10
-0.779437
 20
-31.484416
 30
0.0
 11
-1.707637
 21
-31.109716
 31
0.0
  0
LINE
  5
43B
100
AcDbEntity
  8
FIXING
  6
CONTINUOUS
 62
    15
100
AcDbLine
 10
-1.707637
 20
-31.109716
 30
0.0
 11
-1.707637
 21
-29.406416
 31
0.0
  0
LINE
  5
43C
100
AcDbEntity
  8
FIXING
  6
CONTINUOUS
 62
    15
100
AcDbLine
 10
-1.707637
 20
-29.406416
 30
0.0
 11
-1.707637
 21
-31.109716
 31
0.0
  0
LINE
  5
43D
100
AcDbEntity
  8
FIXING
  6
CONTINUOUS
 62
    15
100
AcDbLine
 10
-1.707437
 20
-31.848416
 30
0.0
 11
-4.051537
 21
-30.995216
 31
0.0
  0
LINE
  5
43E
100
AcDbEntity
  8
FIXING
  6
CONTINUOUS
 62
    15
100
AcDbLine
 10
-4.051537
 20
-30.995216
 30
0.0
 11
-4.979537
 21
-30.631216
 31
0.0
  0
LINE
  5
43F
100
AcDbEntity
  8
FIXING
  6
CONTINUOUS
 62
    15
100
AcDbLine
 10
-4.979537
 20
-30.631216
 30
0.0
 11
-0.779437
 21
-31.484416
 31
0.0
  0
LINE
  5
440
100
AcDbEntity
  8
FIXING
  6
CONTINUOUS
 62
    15
100
AcDbLine
 10
-0.779437
 20
-31.484416
 30
0.0
 11
-1.707637
 21
-31.109716
 31
0.0
  0
LINE
  5
441
100
AcDbEntity
  8
FIXING
  6
CONTINUOUS
 62
    15
100
AcDbLine
 10
-1.707637
 20
-31.109716
 30
0.0
 11
-1.707637
 21
-30.256716
 31
0.0
  0
LINE
  5
442
100
AcDbEntity
  8
FIXING
  6
CONTINUOUS
 62
    15
100
AcDbLine
 10
-1.707637
 20
-30.256716
 30
0.0
 11
-1.707637
 21
-31.109716
 31
0.0
  0
LINE
  5
443
100
AcDbEntity
  8
FIXING
  6
CONTINUOUS
 62
    15
100
AcDbLine
 10
-1.707637
 20
-31.109716
 30
0.0
 11
-0.779437
 21
-31.484416
 31
0.0
  0
LINE
  5
444
100
AcDbEntity
  8
FIXING
  6
CONTINUOUS
 62
    15
100
AcDbLine
 10
-0.779437
 20
-31.484416
 30
0.0
 11
-4.979537
 21
-30.631216
 31
0.0
  0
LINE
  5
445
100
AcDbEntity
  8
FIXING
  6
CONTINUOUS
 62
    15
100
AcDbLine
 10
-4.979537
 20
-30.631216
 30
0.0
 11
-4.051537
 21
-30.995216
 31
0.0
  0
LINE
  5
446
100
AcDbEntity
  8
FIXING
  6
CONTINUOUS
 62
    15
100
AcDbLine
 10
-4.051537
 20
-30.995216
 30
0.0
 11
-1.707437
 21
-31.848416
 31
0.0
  0
LINE
  5
447
100
AcDbEntity
  8
FIXING
  6
CONTINUOUS
 62
    15
100
AcDbLine
 10
-1.707437
 20
-31.848416
 30
0.0
 11
-0.779437
 21
-31.484416
 31
0.0
  0
LINE
  5
448
100
AcDbEntity
  8
FIXING
  6
CONTINUOUS
 62
    15
100
AcDbLine
 10
-0.779437
 20
-31.484416
 30
0.0
 11
-1.707637
 21
-31.109716
 31
0.0
  0
LINE
  5
449
100
AcDbEntity
  8
FIXING
  6
CONTINUOUS
 62
    15
100
AcDbLine
 10
-1.707637
 20
-31.109716
 30
0.0
 11
-1.707637
 21
-29.406416
 31
0.0
  0
LINE
  5
44A
100
AcDbEntity
  8
FIXING
  6
CONTINUOUS
 62
    15
100
AcDbLine
 10
-4.052137
 20
-27.814716
 30
0.0
 11
-4.979837
 21
-28.189216
 31
0.0
  0
LINE
  5
44B
100
AcDbEntity
  8
FIXING
  6
CONTINUOUS
 62
    15
100
AcDbLine
 10
-4.979837
 20
-28.189216
 30
0.0
 11
-0.779737
 21
-29.042316
 31
0.0
  0
LINE
  5
44C
100
AcDbEntity
  8
FIXING
  6
CONTINUOUS
 62
    15
100
AcDbLine
 10
-0.779737
 20
-29.042316
 30
0.0
 11
-1.707737
 21
-29.406416
 31
0.0
  0
LINE
  5
44D
100
AcDbEntity
  8
FIXING
  6
CONTINUOUS
 62
    15
100
AcDbLine
 10
-1.707737
 20
-29.406416
 30
0.0
 11
-4.051837
 21
-28.553216
 31
0.0
  0
LINE
  5
44E
100
AcDbEntity
  8
FIXING
  6
CONTINUOUS
 62
    15
100
AcDbLine
 10
-4.051837
 20
-28.553216
 30
0.0
 11
-4.051837
 21
-30.256516
 31
0.0
  0
LINE
  5
44F
100
AcDbEntity
  8
FIXING
  6
CONTINUOUS
 62
    15
100
AcDbLine
 10
-4.051837
 20
-28.553216
 30
0.0
 11
-4.051837
 21
-30.256516
 31
0.0
  0
LINE
  5
450
100
AcDbEntity
  8
FIXING
  6
CONTINUOUS
 62
    15
100
AcDbLine
 10
-4.051837
 20
-30.256516
 30
0.0
 11
-4.051837
 21
-28.553216
 31
0.0
  0
LINE
  5
451
100
AcDbEntity
  8
FIXING
  6
CONTINUOUS
 62
    15
100
AcDbLine
 10
-4.051837
 20
-28.553216
 30
0.0
 11
-4.979837
 21
-28.189216
 31
0.0
  0
LINE
  5
452
100
AcDbEntity
  8
FIXING
  6
CONTINUOUS
 62
    15
100
AcDbLine
 10
-4.051837
 20
-30.256716
 30
0.0
 11
-4.979537
 21
-30.631216
 31
0.0
  0
LINE
  5
453
100
AcDbEntity
  8
FIXING
  6
CONTINUOUS
 62
    15
100
AcDbLine
 10
-4.979537
 20
-30.631216
 30
0.0
 11
-4.051537
 21
-30.995216
 31
0.0
  0
LINE
  5
454
100
AcDbEntity
  8
FIXING
  6
CONTINUOUS
 62
    15
100
AcDbLine
 10
-4.051537
 20
-30.995216
 30
0.0
 11
-4.979537
 21
-30.631216
 31
0.0
  0
LINE
  5
455
100
AcDbEntity
  8
FIXING
  6
CONTINUOUS
 62
    15
100
AcDbLine
 10
-4.979537
 20
-30.631216
 30
0.0
 11
-4.051837
 21
-30.256716
 31
0.0
  0
LINE
  5
456
100
AcDbEntity
  8
FIXING
  6
CONTINUOUS
 62
    15
100
AcDbLine
 10
-4.051537
 20
-32.698516
 30
0.0
 11
-4.051537
 21
-30.995216
 31
0.0
  0
LINE
  5
457
100
AcDbEntity
  8
FIXING
  6
CONTINUOUS
 62
    15
100
AcDbLine
 10
-4.051537
 20
-30.995216
 30
0.0
 11
-4.051537
 21
-32.698516
 31
0.0
  0
LINE
  5
458
100
AcDbEntity
  8
FIXING
  6
CONTINUOUS
 62
    15
100
AcDbLine
 10
-4.051537
 20
-32.698516
 30
0.0
 11
-4.051537
 21
-30.995216
 31
0.0
  0
LINE
  5
459
100
AcDbEntity
  8
FIXING
  6
CONTINUOUS
 62
    15
100
AcDbLine
 10
-4.051537
 20
-30.995216
 30
0.0
 11
-4.979537
 21
-30.631216
 31
0.0
  0
LINE
  5
45A
100
AcDbEntity
  8
FIXING
  6
CONTINUOUS
 62
    15
100
AcDbLine
 10
-4.979537
 20
-30.631216
 30
0.0
 11
-4.051837
 21
-30.256716
 31
0.0
  0
LINE
  5
45B
100
AcDbEntity
  8
FIXING
  6
CONTINUOUS
 62
    15
100
AcDbLine
 10
-4.051837
 20
-30.256716
 30
0.0
 11
-4.979537
 21
-30.631216
 31
0.0
  0
LINE
  5
45C
100
AcDbEntity
  8
FIXING
  6
CONTINUOUS
 62
    15
100
AcDbLine
 10
-4.979537
 20
-30.631216
 30
0.0
 11
-0.779437
 21
-31.484416
 31
0.0
  0
LINE
  5
45D
100
AcDbEntity
  8
FIXING
  6
CONTINUOUS
 62
    15
100
AcDbLine
 10
-0.779437
 20
-31.484416
 30
0.0
 11
-1.707437
 21
-31.848416
 31
0.0
  0
LINE
  5
45E
100
AcDbEntity
  8
FIXING
  6
CONTINUOUS
 62
    15
100
AcDbLine
 10
-1.707437
 20
-31.848416
 30
0.0
 11
-4.051537
 21
-30.995216
 31
0.0
  0
LINE
  5
45F
100
AcDbEntity
  8
FIXING
  6
CONTINUOUS
 62
    15
100
AcDbLine
 10
-4.052337
 20
-23.669216
 30
0.0
 11
-4.052337
 21
-25.372516
 31
0.0
  0
LINE
  5
460
100
AcDbEntity
  8
FIXING
  6
CONTINUOUS
 62
    15
100
AcDbLine
 10
-4.052337
 20
-25.372516
 30
0.0
 11
-4.052337
 21
-23.669216
 31
0.0
  0
LINE
  5
461
100
AcDbEntity
  8
FIXING
  6
CONTINUOUS
 62
    15
100
AcDbLine
 10
-4.052337
 20
-23.669216
 30
0.0
 11
-4.980337
 21
-23.305216
 31
0.0
  0
LINE
  5
462
100
AcDbEntity
  8
FIXING
  6
CONTINUOUS
 62
    15
100
AcDbLine
 10
-4.052337
 20
-25.372716
 30
0.0
 11
-4.980037
 21
-25.747216
 31
0.0
  0
LINE
  5
463
100
AcDbEntity
  8
FIXING
  6
CONTINUOUS
 62
    15
100
AcDbLine
 10
-4.980037
 20
-25.747216
 30
0.0
 11
-4.052037
 21
-26.111216
 31
0.0
  0
LINE
  5
464
100
AcDbEntity
  8
FIXING
  6
CONTINUOUS
 62
    15
100
AcDbLine
 10
-4.052037
 20
-26.111216
 30
0.0
 11
-4.980037
 21
-25.747216
 31
0.0
  0
LINE
  5
465
100
AcDbEntity
  8
FIXING
  6
CONTINUOUS
 62
    15
100
AcDbLine
 10
-4.980037
 20
-25.747216
 30
0.0
 11
-4.052337
 21
-25.372716
 31
0.0
  0
LINE
  5
466
100
AcDbEntity
  8
FIXING
  6
CONTINUOUS
 62
    15
100
AcDbLine
 10
-4.051837
 20
-28.553316
 30
0.0
 11
-1.707737
 21
-29.406416
 31
0.0
  0
LINE
  5
467
100
AcDbEntity
  8
FIXING
  6
CONTINUOUS
 62
    15
100
AcDbLine
 10
-1.707737
 20
-29.406416
 30
0.0
 11
-0.779737
 21
-29.042416
 31
0.0
  0
LINE
  5
468
100
AcDbEntity
  8
FIXING
  6
CONTINUOUS
 62
    15
100
AcDbLine
 10
-0.779737
 20
-29.042416
 30
0.0
 11
-4.979837
 21
-28.189216
 31
0.0
  0
LINE
  5
469
100
AcDbEntity
  8
FIXING
  6
CONTINUOUS
 62
    15
100
AcDbLine
 10
-4.979837
 20
-28.189216
 30
0.0
 11
-4.052037
 21
-27.814716
 31
0.0
  0
LINE
  5
46A
100
AcDbEntity
  8
FIXING
  6
CONTINUOUS
 62
    15
100
AcDbLine
 10
-4.052037
 20
-27.814716
 30
0.0
 11
-4.979837
 21
-28.189216
 31
0.0
  0
LINE
  5
46B
100
AcDbEntity
  8
FIXING
  6
CONTINUOUS
 62
    15
100
AcDbLine
 10
-1.707937
 20
-26.964416
 30
0.0
 11
-1.707937
 21
-28.667716
 31
0.0
  0
LINE
  5
46C
100
AcDbEntity
  8
FIXING
  6
CONTINUOUS
 62
    15
100
AcDbLine
 10
-1.707937
 20
-28.667716
 30
0.0
 11
-0.779737
 21
-29.042416
 31
0.0
  0
LINE
  5
46D
100
AcDbEntity
  8
FIXING
  6
CONTINUOUS
 62
    15
100
AcDbLine
 10
-0.779737
 20
-29.042416
 30
0.0
 11
-4.979837
 21
-28.189216
 31
0.0
  0
LINE
  5
46E
100
AcDbEntity
  8
FIXING
  6
CONTINUOUS
 62
    15
100
AcDbLine
 10
-4.979837
 20
-28.189216
 30
0.0
 11
-4.051837
 21
-28.553316
 31
0.0
  0
LINE
  5
46F
100
AcDbEntity
  8
FIXING
  6
CONTINUOUS
 62
    15
100
AcDbLine
 10
-4.051837
 20
-28.553316
 30
0.0
 11
-1.707737
 21
-29.406416
 31
0.0
  0
LINE
  5
470
100
AcDbEntity
  8
FIXING
  6
CONTINUOUS
 62
    15
100
AcDbLine
 10
-1.707937
 20
-28.667716
 30
0.0
 11
-0.779737
 21
-29.042416
 31
0.0
  0
LINE
  5
471
100
AcDbEntity
  8
FIXING
  6
CONTINUOUS
 62
    15
100
AcDbLine
 10
-0.779737
 20
-29.042416
 30
0.0
 11
-1.707737
 21
-29.406416
 31
0.0
  0
LINE
  5
472
100
AcDbEntity
  8
FIXING
  6
CONTINUOUS
 62
    15
100
AcDbLine
 10
-1.707737
 20
-29.406416
 30
0.0
 11
-4.051837
 21
-28.553316
 31
0.0
  0
LINE
  5
473
100
AcDbEntity
  8
FIXING
  6
CONTINUOUS
 62
    15
100
AcDbLine
 10
-4.051837
 20
-28.553316
 30
0.0
 11
-4.979837
 21
-28.189216
 31
0.0
  0
LINE
  5
474
100
AcDbEntity
  8
FIXING
  6
CONTINUOUS
 62
    15
100
AcDbLine
 10
-4.979837
 20
-28.189216
 30
0.0
 11
-0.779737
 21
-29.042416
 31
0.0
  0
LINE
  5
475
100
AcDbEntity
  8
FIXING
  6
CONTINUOUS
 62
    15
100
AcDbLine
 10
-0.779737
 20
-29.042416
 30
0.0
 11
-1.707737
 21
-29.406416
 31
0.0
  0
LINE
  5
476
100
AcDbEntity
  8
FIXING
  6
CONTINUOUS
 62
    15
100
AcDbLine
 10
-1.707737
 20
-29.406416
 30
0.0
 11
-4.051837
 21
-28.553316
 31
0.0
  0
LINE
  5
477
100
AcDbEntity
  8
FIXING
  6
CONTINUOUS
 62
    15
100
AcDbLine
 10
-4.052637
 20
-22.930716
 30
0.0
 11
-4.980337
 21
-23.305216
 31
0.0
  0
LINE
  5
478
100
AcDbEntity
  8
FIXING
  6
CONTINUOUS
 62
    15
100
AcDbLine
 10
-4.980337
 20
-23.305216
 30
0.0
 11
-0.780237
 21
-24.158316
 31
0.0
  0
LINE
  5
479
100
AcDbEntity
  8
FIXING
  6
CONTINUOUS
 62
    15
100
AcDbLine
 10
-0.780237
 20
-24.158316
 30
0.0
 11
-1.708237
 21
-24.522416
 31
0.0
  0
LINE
  5
47A
100
AcDbEntity
  8
FIXING
  6
CONTINUOUS
 62
    15
100
AcDbLine
 10
-1.708237
 20
-24.522416
 30
0.0
 11
-4.052337
 21
-23.669216
 31
0.0
  0
LINE
  5
47B
100
AcDbEntity
  8
FIXING
  6
CONTINUOUS
 62
    15
100
AcDbLine
 10
-4.052337
 20
-23.669216
 30
0.0
 11
-4.052337
 21
-25.372516
 31
0.0
  0
LINE
  5
47C
100
AcDbEntity
  8
FIXING
  6
CONTINUOUS
 62
    15
100
AcDbLine
 10
-1.707937
 20
-26.964416
 30
0.0
 11
-4.052037
 21
-26.111216
 31
0.0
  0
LINE
  5
47D
100
AcDbEntity
  8
FIXING
  6
CONTINUOUS
 62
    15
100
AcDbLine
 10
-4.052037
 20
-26.111216
 30
0.0
 11
-4.980037
 21
-25.747216
 31
0.0
  0
LINE
  5
47E
100
AcDbEntity
  8
FIXING
  6
CONTINUOUS
 62
    15
100
AcDbLine
 10
-4.980037
 20
-25.747216
 30
0.0
 11
-0.779937
 21
-26.600416
 31
0.0
  0
LINE
  5
47F
100
AcDbEntity
  8
FIXING
  6
CONTINUOUS
 62
    15
100
AcDbLine
 10
-0.779937
 20
-26.600416
 30
0.0
 11
-1.708137
 21
-26.225716
 31
0.0
  0
LINE
  5
480
100
AcDbEntity
  8
FIXING
  6
CONTINUOUS
 62
    15
100
AcDbLine
 10
-1.708137
 20
-26.225716
 30
0.0
 11
-1.708137
 21
-25.372716
 31
0.0
  0
LINE
  5
481
100
AcDbEntity
  8
FIXING
  6
CONTINUOUS
 62
    15
100
AcDbLine
 10
-1.708137
 20
-25.372716
 30
0.0
 11
-1.708137
 21
-26.225716
 31
0.0
  0
LINE
  5
482
100
AcDbEntity
  8
FIXING
  6
CONTINUOUS
 62
    15
100
AcDbLine
 10
-1.708137
 20
-26.225716
 30
0.0
 11
-0.779937
 21
-26.600416
 31
0.0
  0
LINE
  5
483
100
AcDbEntity
  8
FIXING
  6
CONTINUOUS
 62
    15
100
AcDbLine
 10
-0.779937
 20
-26.600416
 30
0.0
 11
-4.980037
 21
-25.747216
 31
0.0
  0
LINE
  5
484
100
AcDbEntity
  8
FIXING
  6
CONTINUOUS
 62
    15
100
AcDbLine
 10
-4.980037
 20
-25.747216
 30
0.0
 11
-4.052037
 21
-26.111216
 31
0.0
  0
LINE
  5
485
100
AcDbEntity
  8
FIXING
  6
CONTINUOUS
 62
    15
100
AcDbLine
 10
-4.052037
 20
-26.111216
 30
0.0
 11
-1.707937
 21
-26.964416
 31
0.0
  0
LINE
  5
486
100
AcDbEntity
  8
FIXING
  6
CONTINUOUS
 62
    15
100
AcDbLine
 10
-1.707937
 20
-26.964416
 30
0.0
 11
-0.779937
 21
-26.600416
 31
0.0
  0
LINE
  5
487
100
AcDbEntity
  8
FIXING
  6
CONTINUOUS
 62
    15
100
AcDbLine
 10
-0.779937
 20
-26.600416
 30
0.0
 11
-1.708137
 21
-26.225716
 31
0.0
  0
LINE
  5
488
100
AcDbEntity
  8
FIXING
  6
CONTINUOUS
 62
    15
100
AcDbLine
 10
-1.708137
 20
-26.225716
 30
0.0
 11
-1.708137
 21
-24.522416
 31
0.0
  0
LINE
  5
489
100
AcDbEntity
  8
FIXING
  6
CONTINUOUS
 62
    15
100
AcDbLine
 10
-4.052037
 20
-26.111216
 30
0.0
 11
-1.707937
 21
-26.964416
 31
0.0
  0
LINE
  5
48A
100
AcDbEntity
  8
FIXING
  6
CONTINUOUS
 62
    15
100
AcDbLine
 10
-1.707937
 20
-26.964416
 30
0.0
 11
-0.779937
 21
-26.600416
 31
0.0
  0
LINE
  5
48B
100
AcDbEntity
  8
FIXING
  6
CONTINUOUS
 62
    15
100
AcDbLine
 10
-0.779937
 20
-26.600416
 30
0.0
 11
-4.980037
 21
-25.747216
 31
0.0
  0
LINE
  5
48C
100
AcDbEntity
  8
FIXING
  6
CONTINUOUS
 62
    15
100
AcDbLine
 10
-4.980037
 20
-25.747216
 30
0.0
 11
-4.052037
 21
-26.111216
 31
0.0
  0
LINE
  5
48D
100
AcDbEntity
  8
FIXING
  6
CONTINUOUS
 62
    15
100
AcDbLine
 10
-4.052037
 20
-26.111216
 30
0.0
 11
-1.707937
 21
-26.964416
 31
0.0
  0
LINE
  5
48E
100
AcDbEntity
  8
FIXING
  6
CONTINUOUS
 62
    15
100
AcDbLine
 10
-1.707937
 20
-26.964416
 30
0.0
 11
-0.779937
 21
-26.600416
 31
0.0
  0
LINE
  5
48F
100
AcDbEntity
  8
FIXING
  6
CONTINUOUS
 62
    15
100
AcDbLine
 10
-0.779937
 20
-26.600416
 30
0.0
 11
-1.708137
 21
-26.225716
 31
0.0
  0
LINE
  5
490
100
AcDbEntity
  8
FIXING
  6
CONTINUOUS
 62
    15
100
AcDbLine
 10
-1.708137
 20
-26.225716
 30
0.0
 11
-1.708137
 21
-24.522416
 31
0.0
  0
LINE
  5
491
100
AcDbEntity
  8
FIXING
  6
CONTINUOUS
 62
    15
100
AcDbLine
 10
-1.708137
 20
-24.522416
 30
0.0
 11
-1.708137
 21
-26.225716
 31
0.0
  0
LINE
  5
492
100
AcDbEntity
  8
FIXING
  6
CONTINUOUS
 62
    15
100
AcDbLine
 10
-4.052037
 20
-27.814516
 30
0.0
 11
-4.052037
 21
-26.111216
 31
0.0
  0
LINE
  5
493
100
AcDbEntity
  8
FIXING
  6
CONTINUOUS
 62
    15
100
AcDbLine
 10
-4.052037
 20
-26.111216
 30
0.0
 11
-4.052037
 21
-27.814516
 31
0.0
  0
LINE
  5
494
100
AcDbEntity
  8
FIXING
  6
CONTINUOUS
 62
    15
100
AcDbLine
 10
-4.052037
 20
-27.814516
 30
0.0
 11
-4.052037
 21
-26.111216
 31
0.0
  0
LINE
  5
495
100
AcDbEntity
  8
FIXING
  6
CONTINUOUS
 62
    15
100
AcDbLine
 10
-4.052037
 20
-26.111216
 30
0.0
 11
-4.980037
 21
-25.747216
 31
0.0
  0
LINE
  5
496
100
AcDbEntity
  8
FIXING
  6
CONTINUOUS
 62
    15
100
AcDbLine
 10
-4.980037
 20
-25.747216
 30
0.0
 11
-4.052337
 21
-25.372716
 31
0.0
  0
LINE
  5
497
100
AcDbEntity
  8
FIXING
  6
CONTINUOUS
 62
    15
100
AcDbLine
 10
-4.052337
 20
-25.372716
 30
0.0
 11
-4.980037
 21
-25.747216
 31
0.0
  0
LINE
  5
498
100
AcDbEntity
  8
FIXING
  6
CONTINUOUS
 62
    15
100
AcDbLine
 10
-4.980037
 20
-25.747216
 30
0.0
 11
-0.779937
 21
-26.600416
 31
0.0
  0
LINE
  5
499
100
AcDbEntity
  8
FIXING
  6
CONTINUOUS
 62
    15
100
AcDbLine
 10
-0.779937
 20
-26.600416
 30
0.0
 11
-1.707937
 21
-26.964416
 31
0.0
  0
LINE
  5
49A
100
AcDbEntity
  8
FIXING
  6
CONTINUOUS
 62
    15
100
AcDbLine
 10
-1.707937
 20
-26.964416
 30
0.0
 11
-4.052037
 21
-26.111216
 31
0.0
  0
LINE
  5
49B
100
AcDbEntity
  8
FIXING
  6
CONTINUOUS
 62
    15
100
AcDbLine
 10
-1.707937
 20
-27.814716
 30
0.0
 11
-1.707937
 21
-28.667716
 31
0.0
  0
LINE
  5
49C
100
AcDbEntity
  8
FIXING
  6
CONTINUOUS
 62
    15
100
AcDbLine
 10
-1.707937
 20
-28.667716
 30
0.0
 11
-1.707937
 21
-26.964416
 31
0.0
  0
LINE
  5
49D
100
AcDbEntity
  8
FIXING
  6
CONTINUOUS
 62
    15
100
AcDbLine
 10
-1.707937
 20
-26.964416
 30
0.0
 11
-1.707937
 21
-28.667716
 31
0.0
  0
LINE
  5
49E
100
AcDbEntity
  8
FIXING
  6
CONTINUOUS
 62
    15
100
AcDbLine
 10
-1.707937
 20
-28.667716
 30
0.0
 11
-1.707937
 21
-27.814716
 31
0.0
  0
LINE
  5
49F
100
AcDbEntity
  8
FIXING
  6
CONTINUOUS
 62
    15
100
AcDbLine
 10
-1.707637
 20
-30.256716
 30
0.0
 11
-1.707637
 21
-31.109716
 31
0.0
  0
LINE
  5
4A0
100
AcDbEntity
  8
FIXING
  6
CONTINUOUS
 62
    15
100
AcDbLine
 10
-1.707637
 20
-31.109716
 30
0.0
 11
-1.707637
 21
-29.406416
 31
0.0
  0
LINE
  5
4A1
100
AcDbEntity
  8
FIXING
  6
CONTINUOUS
 62
    15
100
AcDbLine
 10
-1.707637
 20
-29.406416
 30
0.0
 11
-1.707637
 21
-31.109716
 31
0.0
  0
LINE
  5
4A2
100
AcDbEntity
  8
FIXING
  6
CONTINUOUS
 62
    15
100
AcDbLine
 10
-1.707637
 20
-31.109716
 30
0.0
 11
-1.707637
 21
-30.256716
 31
0.0
  0
LINE
  5
4A3
100
AcDbEntity
  8
FIXING
  6
CONTINUOUS
 62
    15
100
AcDbLine
 10
-1.707437
 20
-31.109916
 30
0.0
 11
-4.051637
 21
-30.256616
 31
0.0
  0
LINE
  5
4A4
100
AcDbEntity
  8
FIXING
  6
CONTINUOUS
 62
    15
100
AcDbLine
 10
-4.051637
 20
-30.256616
 30
0.0
 11
-1.707437
 21
-31.109916
 31
0.0
  0
LINE
  5
4A5
100
AcDbEntity
  8
FIXING
  6
CONTINUOUS
 62
    15
100
AcDbLine
 10
-1.707437
 20
-31.109916
 30
0.0
 11
-4.051637
 21
-30.256616
 31
0.0
  0
LINE
  5
4A6
100
AcDbEntity
  8
FIXING
  6
CONTINUOUS
 62
    15
100
AcDbLine
 10
-1.707737
 20
-28.667916
 30
0.0
 11
-4.051937
 21
-27.814716
 31
0.0
  0
LINE
  5
4A7
100
AcDbEntity
  8
FIXING
  6
CONTINUOUS
 62
    15
100
AcDbLine
 10
-4.051937
 20
-27.814716
 30
0.0
 11
-1.707737
 21
-28.667916
 31
0.0
  0
LINE
  5
4A8
100
AcDbEntity
  8
FIXING
  6
CONTINUOUS
 62
    15
100
AcDbLine
 10
-0.780437
 20
-21.716416
 30
0.0
 11
-1.708637
 21
-21.341716
 31
0.0
  0
LINE
  5
4A9
100
AcDbEntity
  8
FIXING
  6
CONTINUOUS
 62
    15
100
AcDbLine
 10
-0.780237
 20
-24.158316
 30
0.0
 11
-1.708437
 21
-23.783716
 31
0.0
  0
LINE
  5
4AA
100
AcDbEntity
  8
FIXING
  6
CONTINUOUS
 62
    15
100
AcDbLine
 10
-1.708137
 20
-25.372716
 30
0.0
 11
-1.708137
 21
-26.225716
 31
0.0
  0
LINE
  5
4AB
100
AcDbEntity
  8
FIXING
  6
CONTINUOUS
 62
    15
100
AcDbLine
 10
-1.708137
 20
-26.225716
 30
0.0
 11
-1.708137
 21
-24.522416
 31
0.0
  0
LINE
  5
4AC
100
AcDbEntity
  8
FIXING
  6
CONTINUOUS
 62
    15
100
AcDbLine
 10
-1.708137
 20
-24.522416
 30
0.0
 11
-1.708137
 21
-26.225716
 31
0.0
  0
LINE
  5
4AD
100
AcDbEntity
  8
FIXING
  6
CONTINUOUS
 62
    15
100
AcDbLine
 10
-1.708137
 20
-26.225716
 30
0.0
 11
-1.708137
 21
-25.372716
 31
0.0
  0
LINE
  5
4AE
100
AcDbEntity
  8
FIXING
  6
CONTINUOUS
 62
    15
100
AcDbLine
 10
-1.708237
 20
-23.783816
 30
0.0
 11
-4.052437
 21
-22.930616
 31
0.0
  0
LINE
  5
4AF
100
AcDbEntity
  8
FIXING
  6
CONTINUOUS
 62
    15
100
AcDbLine
 10
-1.707937
 20
-26.225916
 30
0.0
 11
-4.052137
 21
-25.372616
 31
0.0
  0
LINE
  5
4B0
100
AcDbEntity
  8
FIXING
  6
CONTINUOUS
 62
    15
100
AcDbLine
 10
-4.052137
 20
-25.372616
 30
0.0
 11
-1.707937
 21
-26.225916
 31
0.0
  0
LINE
  5
4B1
100
AcDbEntity
  8
FIXING
  6
CONTINUOUS
 62
    15
100
AcDbLine
 10
-1.707937
 20
-26.225916
 30
0.0
 11
-4.052137
 21
-25.372616
 31
0.0
  0
LINE
  5
4B2
100
AcDbEntity
  8
FIXING
  6
CONTINUOUS
 62
    15
100
AcDbLine
 10
-1.708437
 20
-22.080416
 30
0.0
 11
-1.708437
 21
-23.783716
 31
0.0
  0
LINE
  5
4B3
100
AcDbEntity
  8
FIXING
  6
CONTINUOUS
 62
    15
100
AcDbLine
 10
-1.708437
 20
-23.783716
 30
0.0
 11
-1.708437
 21
-22.930716
 31
0.0
  0
LINE
  5
4B4
100
AcDbEntity
  8
FIXING
  6
CONTINUOUS
 62
    15
100
AcDbLine
 10
-4.980437
 20
-20.863316
 30
0.0
 11
-4.052737
 21
-20.488816
 31
0.0
  0
LINE
  5
4B5
100
AcDbEntity
  8
FIXING
  6
CONTINUOUS
 62
    15
100
AcDbLine
 10
-4.980637
 20
-18.421316
 30
0.0
 11
-4.052937
 21
-18.046816
 31
0.0
  0
LINE
  5
4B6
100
AcDbEntity
  8
FIXING
  6
CONTINUOUS
 62
    15
100
AcDbLine
 10
-4.052637
 20
-20.488616
 30
0.0
 11
-4.052637
 21
-18.785416
 31
0.0
  0
LINE
  5
4B7
100
AcDbEntity
  8
FIXING
  6
CONTINUOUS
 62
    15
100
AcDbLine
 10
-4.052637
 20
-18.785416
 30
0.0
 11
-4.052637
 21
-20.488616
 31
0.0
  0
LINE
  5
4B8
100
AcDbEntity
  8
FIXING
  6
CONTINUOUS
 62
    15
100
AcDbLine
 10
-4.052637
 20
-20.488616
 30
0.0
 11
-4.052637
 21
-18.785416
 31
0.0
  0
LINE
  5
4B9
100
AcDbEntity
  8
FIXING
  6
CONTINUOUS
 62
    15
100
AcDbLine
 10
-4.052637
 20
-18.785416
 30
0.0
 11
-4.980637
 21
-18.421316
 31
0.0
  0
LINE
  5
4BA
100
AcDbEntity
  8
FIXING
  6
CONTINUOUS
 62
    15
100
AcDbLine
 10
-4.980637
 20
-18.421316
 30
0.0
 11
-4.052937
 21
-18.046816
 31
0.0
  0
LINE
  5
4BB
100
AcDbEntity
  8
FIXING
  6
CONTINUOUS
 62
    15
100
AcDbLine
 10
-1.285237
 20
14.835884
 30
0.0
 11
-0.515137
 21
15.280384
 31
0.0
  0
LINE
  5
4BC
100
AcDbEntity
  8
FIXING
  6
CONTINUOUS
 62
    15
100
AcDbLine
 10
-0.515137
 20
15.280384
 30
0.0
 11
-5.246337
 21
15.280284
 31
0.0
  0
LINE
  5
4BD
100
AcDbEntity
  8
FIXING
  6
CONTINUOUS
 62
    15
100
AcDbLine
 10
-5.246337
 20
15.280284
 30
0.0
 11
-6.201637
 21
16.235684
 31
0.0
  0
LINE
  5
4BE
100
AcDbEntity
  8
FIXING
  6
CONTINUOUS
 62
    15
100
AcDbLine
 10
-6.201637
 20
16.235684
 30
0.0
 11
0.440163
 21
16.235784
 31
0.0
  0
LINE
  5
4BF
100
AcDbEntity
  8
FIXING
  6
CONTINUOUS
 62
    15
100
AcDbLine
 10
-0.515137
 20
16.989684
 30
0.0
 11
-5.246337
 21
16.989584
 31
0.0
  0
LINE
  5
4C0
100
AcDbEntity
  8
FIXING
  6
CONTINUOUS
 62
    15
100
AcDbLine
 10
-5.246337
 20
16.989584
 30
0.0
 11
-6.201637
 21
16.603584
 31
0.0
  0
LINE
  5
4C1
100
AcDbEntity
  8
FIXING
  6
CONTINUOUS
 62
    15
100
AcDbLine
 10
-6.201637
 20
16.603584
 30
0.0
 11
0.440163
 21
16.603684
 31
0.0
  0
LINE
  5
4C2
100
AcDbEntity
  8
FIXING
  6
CONTINUOUS
 62
    15
100
AcDbLine
 10
-5.246337
 20
16.989584
 30
0.0
 11
-0.515137
 21
16.989684
 31
0.0
  0
LINE
  5
4C3
100
AcDbEntity
  8
FIXING
  6
CONTINUOUS
 62
    15
100
AcDbLine
 10
-0.515137
 20
16.989684
 30
0.0
 11
0.440163
 21
16.603684
 31
0.0
  0
LINE
  5
4C4
100
AcDbEntity
  8
FIXING
  6
CONTINUOUS
 62
    15
100
AcDbLine
 10
0.440163
 20
16.603684
 30
0.0
 11
0.440163
 21
16.235784
 31
0.0
  0
LINE
  5
4C5
100
AcDbEntity
  8
FIXING
  6
CONTINUOUS
 62
    15
100
AcDbLine
 10
0.440163
 20
16.235784
 30
0.0
 11
-0.515137
 21
15.280384
 31
0.0
  0
LINE
  5
4C6
100
AcDbEntity
  8
FIXING
  6
CONTINUOUS
 62
    15
100
AcDbLine
 10
-0.515137
 20
15.280384
 30
0.0
 11
-5.246337
 21
15.280284
 31
0.0
  0
LINE
  5
4C7
100
AcDbEntity
  8
FIXING
  6
CONTINUOUS
 62
    15
100
AcDbLine
 10
-5.246337
 20
15.280284
 30
0.0
 11
-4.476437
 21
14.835884
 31
0.0
  0
LINE
  5
4C8
100
AcDbEntity
  8
FIXING
  6
CONTINUOUS
 62
    15
100
AcDbLine
 10
-1.708637
 20
-19.638416
 30
0.0
 11
-0.780637
 21
-19.274416
 31
0.0
  0
LINE
  5
4C9
100
AcDbEntity
  8
FIXING
  6
CONTINUOUS
 62
    15
100
AcDbLine
 10
-0.780637
 20
-19.274416
 30
0.0
 11
-4.980737
 21
-18.421216
 31
0.0
  0
LINE
  5
4CA
100
AcDbEntity
  8
FIXING
  6
CONTINUOUS
 62
    15
100
AcDbLine
 10
-4.980737
 20
-18.421216
 30
0.0
 11
-4.052737
 21
-18.785316
 31
0.0
  0
LINE
  5
4CB
100
AcDbEntity
  8
FIXING
  6
CONTINUOUS
 62
    15
100
AcDbLine
 10
-4.052737
 20
-18.785316
 30
0.0
 11
-1.708637
 21
-19.638416
 31
0.0
  0
ARC
  5
4CC
100
AcDbEntity
  8
FIXING
  6
CONTINUOUS
 62
    15
100
AcDbCircle
 10
-4.671737
 20
14.497484
 30
0.0
 40
0.3907
100
AcDbArc
 50
0.0
 51
59.9996
  0
ARC
  5
4CD
100
AcDbEntity
  8
FIXING
  6
CONTINUOUS
 62
    15
100
AcDbCircle
 10
-1.089837
 20
14.497484
 30
0.0
 40
0.3907
100
AcDbArc
 50
120.0005
 51
180.0
  0
LINE
  5
4CE
100
AcDbEntity
  8
FIXING
  6
CONTINUOUS
 62
    15
100
AcDbLine
 10
-0.780637
 20
-19.274416
 30
0.0
 11
-1.708837
 21
-18.899716
 31
0.0
  0
LINE
  5
4CF
100
AcDbEntity
  8
FIXING
  6
CONTINUOUS
 62
    15
100
AcDbLine
 10
-1.708737
 20
-18.046816
 30
0.0
 11
-1.708737
 21
-18.899816
 31
0.0
  0
LINE
  5
4D0
100
AcDbEntity
  8
FIXING
  6
CONTINUOUS
 62
    15
100
AcDbLine
 10
-1.708737
 20
-18.899816
 30
0.0
 11
-0.780537
 21
-19.274516
 31
0.0
  0
LINE
  5
4D1
100
AcDbEntity
  8
FIXING
  6
CONTINUOUS
 62
    15
100
AcDbLine
 10
-4.281037
 20
14.497484
 30
0.0
 11
-4.281037
 21
14.234684
 31
0.0
  0
LINE
  5
4D2
100
AcDbEntity
  8
FIXING
  6
CONTINUOUS
 62
    15
100
AcDbLine
 10
-4.281037
 20
14.234684
 30
0.0
 11
-3.628437
 21
14.234684
 31
0.0
  0
LINE
  5
4D3
100
AcDbEntity
  8
FIXING
  6
CONTINUOUS
 62
    15
100
AcDbLine
 10
-1.480637
 20
14.497484
 30
0.0
 11
-1.480637
 21
14.234684
 31
0.0
  0
LINE
  5
4D4
100
AcDbEntity
  8
FIXING
  6
CONTINUOUS
 62
    15
100
AcDbLine
 10
-1.480637
 20
14.234684
 30
0.0
 11
-1.556037
 21
13.480384
 31
0.0
  0
LINE
  5
4D5
100
AcDbEntity
  8
FIXING
  6
CONTINUOUS
 62
    15
100
AcDbLine
 10
-4.052937
 20
11.953184
 30
0.0
 11
-1.708737
 21
11.953184
 31
0.0
  0
LINE
  5
4D6
100
AcDbEntity
  8
FIXING
  6
CONTINUOUS
 62
    15
100
AcDbLine
 10
-1.708737
 20
11.953184
 30
0.0
 11
-1.620237
 21
12.837984
 31
0.0
  0
LINE
  5
4D7
100
AcDbEntity
  8
FIXING
  6
CONTINUOUS
 62
    15
100
AcDbLine
 10
-1.620037
 20
14.234684
 30
0.0
 11
-3.339037
 21
14.234684
 31
0.0
  0
LINE
  5
4D8
100
AcDbEntity
  8
FIXING
  6
CONTINUOUS
 62
    15
100
AcDbLine
 10
-1.708737
 20
-18.900016
 30
0.0
 11
-4.052937
 21
-18.046816
 31
0.0
  0
LINE
  5
4D9
100
AcDbEntity
  8
FIXING
  6
CONTINUOUS
 62
    15
100
AcDbLine
 10
-4.052937
 20
11.953184
 30
0.0
 11
-4.236637
 21
13.790284
 31
0.0
  0
LINE
  5
4DA
100
AcDbEntity
  8
FIXING
  6
CONTINUOUS
 62
    15
100
AcDbLine
 10
-1.480637
 20
14.723084
 30
0.0
 11
-4.281037
 21
14.723084
 31
0.0
  0
LINE
  5
4DB
100
AcDbEntity
  8
FIXING
  6
CONTINUOUS
 62
    15
100
AcDbLine
 10
-6.201637
 20
16.603584
 30
0.0
 11
-6.201637
 21
16.235684
 31
0.0
  0
LINE
  5
4DC
100
AcDbEntity
  8
FIXING
  6
CONTINUOUS
 62
    15
100
AcDbLine
 10
-4.052937
 20
-18.046816
 30
0.0
 11
-1.708737
 21
-18.046816
 31
0.0
  0
LINE
  5
4DD
100
AcDbEntity
  8
FIXING
  6
CONTINUOUS
 62
    15
100
AcDbLine
 10
-1.708737
 20
-18.046816
 30
0.0
 11
-1.708737
 21
11.953184
 31
0.0
  0
LINE
  5
4DE
100
AcDbEntity
  8
FIXING
  6
CONTINUOUS
 62
    15
100
AcDbLine
 10
-4.052937
 20
-18.046816
 30
0.0
 11
-4.052937
 21
11.953184
 31
0.0
  0
LINE
  5
4DF
100
AcDbEntity
  8
FIXING
  6
CONTINUOUS
 62
    15
100
AcDbLine
 10
-1.708737
 20
11.953184
 30
0.0
 11
-1.480637
 21
14.234684
 31
0.0
  0
LINE
  5
4E0
100
AcDbEntity
  8
FIXING
  6
CONTINUOUS
 62
    15
100
AcDbLine
 10
-4.052937
 20
11.953184
 30
0.0
 11
-4.281037
 21
14.234684
 31
0.0
  0
LINE
  5
4E1
100
AcDbEntity
  8
FIXING
  6
CONTINUOUS
 62
    15
100
AcDbLine
 10
-4.281037
 20
14.234684
 30
0.0
 11
-1.480637
 21
14.234684
 31
0.0
  0
ENDBLK
  5
4E2
100
AcDbEntity
  8
0
100
AcDbBlockEnd
  0
ENDSEC
  0
SECTION
  2
ENTITIES
  0
INSERT
  5
29
100
AcDbEntity
  8
1
100
AcDbBlockReference
  2
GEN_BLOCK
 10
0.0
 20
0.0
 30
0.0
  0
INSERT
  5
4D
100
AcDbEntity
  8
1
100
AcDbBlockReference
  2
GEN_BLOCK00001
 10
0.0
 20
0.0
 30
0.0
  0
INSERT
  5
77
100
AcDbEntity
  8
0
100
AcDbBlockReference
  2
GEN_BLOCK00002
 10
0.0
 20
0.0
 30
0.0
  0
INSERT
  5
222
100
AcDbEntity
  8
0
100
AcDbBlockReference
  2
GEN_BLOCK00003
 10
0.0
 20
0.0
 30
0.0
  0
INSERT
  5
230
100
AcDbEntity
  8
0
100
AcDbBlockReference
  2
PROTO
 10
0.0
 20
0.0
 30
0.0
  0
INSERT
  5
24D
100
AcDbEntity
  8
1
100
AcDbBlockReference
  2
GEN_BLOCK00005
 10
0.0
 20
0.0
 30
0.0
  0
INSERT
  5
277
100
AcDbEntity
  8
1
100
AcDbBlockReference
  2
GEN_BLOCK00006
 10
0.0
 20
0.0
 30
0.0
  0
INSERT
  5
2B1
100
AcDbEntity
  8
1
100
AcDbBlockReference
  2
GEN_BLOCK00007
 10
0.0
 20
0.0
 30
0.0
  0
INSERT
  5
2D1
100
AcDbEntity
  8
PROFILE
100
AcDbBlockReference
  2
GEN_BLOCK00008
 10
0.0
 20
0.0
 30
0.0
  0
INSERT
  5
2DF
100
AcDbEntity
  8
GEN_LAYER
100
AcDbBlockReference
  2
GEN_BLOCK00009
 10
0.0
 20
0.0
 30
0.0
  0
INSERT
  5
377
100
AcDbEntity
  8
GEN_LAYER
100
AcDbBlockReference
  2
GEN_BLOCK00010
 10
0.0
 20
0.0
 30
0.0
  0
INSERT
  5
37E
100
AcDbEntity
  8
1
100
AcDbBlockReference
  2
GEN_BLOCK00011
 10
0.0
 20
0.0
 30
0.0
  0
INSERT
  5
38F
100
AcDbEntity
  8
GEN_LAYER
100
AcDbBlockReference
  2
GEN_BLOCK00012
 10
0.0
 20
0.0
 30
0.0
  0
INSERT
  5
3AF
100
AcDbEntity
  8
FIXING
100
AcDbBlockReference
  2
8569S
 10
0.0
 20
0.0
 30
0.0
  0
ENDSEC
  0
SECTION
  2
OBJECTS
  0
DICTIONARY
  5
19
100
AcDbDictionary
  3
ACAD_GROUP
350
1A
  3
ACAD_MLINESTYLE
350
1B
  0
DICTIONARY
  5
1A
102
{ACAD_REACTORS
330
19
102
}
100
AcDbDictionary
  0
DICTIONARY
  5
1B
102
{ACAD_REACTORS
330
19
102
}
100
AcDbDictionary
  3
STANDARD
350
1C
  0
MLINESTYLE
  5
1C
102
{ACAD_REACTORS
330
1B
102
}
100
AcDbMlineStyle
  2
STANDARD
 70
     0
  3

 62
     0
 51
90.0
 52
90.0
 71
     2
 49
0.5
 62
   256
  6
BYLAYER
 49
-0.5
 62
   256
  6
BYLAYER
  0
ENDSEC
  0
EOF
