  0
SECTION
  2
HEADER
  9
$ACADVER
  1
AC1024
  9
$ACADMAINTVER
 70
     6
  9
$DWGCODEPAGE
  3
ANSI_1252
  9
$INSBASE
 10
0.0
 20
0.0
 30
0.0
  9
$EXTMIN
 10
-97.93606297498508
 20
-141.7571033549152
 30
0.0
  9
$EXTMAX
 10
98.0839462901311
 20
141.302347929844
 30
0.0
  9
$LIMMIN
 10
0.0
 20
0.0
  9
$LIMMAX
 10
420.0
 20
297.0
  9
$ORTHOMODE
 70
     0
  9
$REGENMODE
 70
     1
  9
$FILLMODE
 70
     1
  9
$QTEXTMODE
 70
     0
  9
$MIRRTEXT
 70
     1
  9
$LTSCALE
 40
1.0
  9
$ATTMODE
 70
     1
  9
$TEXTSIZE
 40
1.0
  9
$TRACEWID
 40
1.0
  9
$TEXTSTYLE
  7
Standard
  9
$CLAYER
  8
0
  9
$CELTYPE
  6
ByLayer
  9
$CECOLOR
 62
   256
  9
$CELTSCALE
 40
1.0
  9
$DISPSILH
 70
     0
  9
$DIMSCALE
 40
1.0
  9
$DIMASZ
 40
2.5
  9
$DIMEXO
 40
0.625
  9
$DIMDLI
 40
3.75
  9
$DIMRND
 40
0.0
  9
$DIMDLE
 40
0.0
  9
$DIMEXE
 40
1.25
  9
$DIMTP
 40
0.0
  9
$DIMTM
 40
0.0
  9
$DIMTXT
 40
2.5
  9
$DIMCEN
 40
2.5
  9
$DIMTSZ
 40
0.0
  9
$DIMTOL
 70
     0
  9
$DIMLIM
 70
     0
  9
$DIMTIH
 70
     0
  9
$DIMTOH
 70
     0
  9
$DIMSE1
 70
     0
  9
$DIMSE2
 70
     0
  9
$DIMTAD
 70
     1
  9
$DIMZIN
 70
     8
  9
$DIMBLK
  1

  9
$DIMASO
 70
     1
  9
$DIMSHO
 70
     1
  9
$DIMPOST
  1

  9
$DIMAPOST
  1

  9
$DIMALT
 70
     0
  9
$DIMALTD
 70
     3
  9
$DIMALTF
 40
0.03937007874016
  9
$DIMLFAC
 40
1.0
  9
$DIMTOFL
 70
     1
  9
$DIMTVP
 40
0.0
  9
$DIMTIX
 70
     0
  9
$DIMSOXD
 70
     0
  9
$DIMSAH
 70
     0
  9
$DIMBLK1
  1

  9
$DIMBLK2
  1

  9
$DIMSTYLE
  2
ISO-25
  9
$DIMCLRD
 70
     0
  9
$DIMCLRE
 70
     0
  9
$DIMCLRT
 70
     0
  9
$DIMTFAC
 40
1.0
  9
$DIMGAP
 40
0.625
  9
$DIMJUST
 70
     0
  9
$DIMSD1
 70
     0
  9
$DIMSD2
 70
     0
  9
$DIMTOLJ
 70
     0
  9
$DIMTZIN
 70
     8
  9
$DIMALTZ
 70
     0
  9
$DIMALTTZ
 70
     0
  9
$DIMUPT
 70
     0
  9
$DIMDEC
 70
     2
  9
$DIMTDEC
 70
     2
  9
$DIMALTU
 70
     2
  9
$DIMALTTD
 70
     3
  9
$DIMTXSTY
  7
Standard
  9
$DIMAUNIT
 70
     0
  9
$DIMADEC
 70
     0
  9
$DIMALTRND
 40
0.0
  9
$DIMAZIN
 70
     0
  9
$DIMDSEP
 70
    44
  9
$DIMATFIT
 70
     3
  9
$DIMFRAC
 70
     0
  9
$DIMLDRBLK
  1

  9
$DIMLUNIT
 70
     2
  9
$DIMLWD
 70
    -2
  9
$DIMLWE
 70
    -2
  9
$DIMTMOVE
 70
     0
  9
$DIMFXL
 40
1.0
  9
$DIMFXLON
 70
     0
  9
$DIMJOGANG
 40
0.7853981633974483
  9
$DIMTFILL
 70
     0
  9
$DIMTFILLCLR
 70
     0
  9
$DIMARCSYM
 70
     0
  9
$DIMLTYPE
  6

  9
$DIMLTEX1
  6

  9
$DIMLTEX2
  6

  9
$DIMTXTDIRECTION
 70
     0
  9
$LUNITS
 70
     2
  9
$LUPREC
 70
     4
  9
$SKETCHINC
 40
1.0
  9
$FILLETRAD
 40
10.0
  9
$AUNITS
 70
     0
  9
$AUPREC
 70
     0
  9
$MENU
  1
.
  9
$ELEVATION
 40
0.0
  9
$PELEVATION
 40
0.0
  9
$THICKNESS
 40
0.0
  9
$LIMCHECK
 70
     0
  9
$CHAMFERA
 40
0.0
  9
$CHAMFERB
 40
0.0
  9
$CHAMFERC
 40
0.0
  9
$CHAMFERD
 40
0.0
  9
$SKPOLY
 70
     0
  9
$TDCREATE
 40
2458736.52918154
  9
$TDUCREATE
 40
2458736.487514873
  9
$TDUPDATE
 40
2458736.529181979
  9
$TDUUPDATE
 40
2458736.487515313
  9
$TDINDWG
 40
0.0000000116
  9
$TDUSRTIMER
 40
0.0000000116
  9
$USRTIMER
 70
     1
  9
$ANGBASE
 50
0.0
  9
$ANGDIR
 70
     0
  9
$PDMODE
 70
     0
  9
$PDSIZE
 40
0.0
  9
$PLINEWID
 40
0.0
  9
$SPLFRAME
 70
     0
  9
$SPLINETYPE
 70
     6
  9
$SPLINESEGS
 70
     8
  9
$HANDSEED
  5
318
  9
$SURFTAB1
 70
     6
  9
$SURFTAB2
 70
     6
  9
$SURFTYPE
 70
     6
  9
$SURFU
 70
     6
  9
$SURFV
 70
     6
  9
$UCSBASE
  2

  9
$UCSNAME
  2

  9
$UCSORG
 10
0.0
 20
0.0
 30
0.0
  9
$UCSXDIR
 10
1.0
 20
0.0
 30
0.0
  9
$UCSYDIR
 10
0.0
 20
1.0
 30
0.0
  9
$UCSORTHOREF
  2

  9
$UCSORTHOVIEW
 70
     0
  9
$UCSORGTOP
 10
0.0
 20
0.0
 30
0.0
  9
$UCSORGBOTTOM
 10
0.0
 20
0.0
 30
0.0
  9
$UCSORGLEFT
 10
0.0
 20
0.0
 30
0.0
  9
$UCSORGRIGHT
 10
0.0
 20
0.0
 30
0.0
  9
$UCSORGFRONT
 10
0.0
 20
0.0
 30
0.0
  9
$UCSORGBACK
 10
0.0
 20
0.0
 30
0.0
  9
$PUCSBASE
  2

  9
$PUCSNAME
  2

  9
$PUCSORG
 10
0.0
 20
0.0
 30
0.0
  9
$PUCSXDIR
 10
1.0
 20
0.0
 30
0.0
  9
$PUCSYDIR
 10
0.0
 20
1.0
 30
0.0
  9
$PUCSORTHOREF
  2

  9
$PUCSORTHOVIEW
 70
     0
  9
$PUCSORGTOP
 10
0.0
 20
0.0
 30
0.0
  9
$PUCSORGBOTTOM
 10
0.0
 20
0.0
 30
0.0
  9
$PUCSORGLEFT
 10
0.0
 20
0.0
 30
0.0
  9
$PUCSORGRIGHT
 10
0.0
 20
0.0
 30
0.0
  9
$PUCSORGFRONT
 10
0.0
 20
0.0
 30
0.0
  9
$PUCSORGBACK
 10
0.0
 20
0.0
 30
0.0
  9
$USERI1
 70
     0
  9
$USERI2
 70
     0
  9
$USERI3
 70
     0
  9
$USERI4
 70
     0
  9
$USERI5
 70
     0
  9
$USERR1
 40
0.0
  9
$USERR2
 40
0.0
  9
$USERR3
 40
0.0
  9
$USERR4
 40
0.0
  9
$USERR5
 40
0.0
  9
$WORLDVIEW
 70
     1
  9
$SHADEDGE
 70
     3
  9
$SHADEDIF
 70
    70
  9
$TILEMODE
 70
     1
  9
$MAXACTVP
 70
    64
  9
$PINSBASE
 10
0.0
 20
0.0
 30
0.0
  9
$PLIMCHECK
 70
     0
  9
$PEXTMIN
 10
1.000000000000000E+20
 20
1.000000000000000E+20
 30
1.000000000000000E+20
  9
$PEXTMAX
 10
-1.000000000000000E+20
 20
-1.000000000000000E+20
 30
-1.000000000000000E+20
  9
$PLIMMIN
 10
0.0
 20
0.0
  9
$PLIMMAX
 10
420.0
 20
297.0
  9
$UNITMODE
 70
     0
  9
$VISRETAIN
 70
     1
  9
$PLINEGEN
 70
     0
  9
$PSLTSCALE
 70
     1
  9
$TREEDEPTH
 70
  3020
  9
$CMLSTYLE
  2
Standard
  9
$CMLJUST
 70
     0
  9
$CMLSCALE
 40
20.0
  9
$PROXYGRAPHICS
 70
     1
  9
$MEASUREMENT
 70
     1
  9
$CELWEIGHT
370
    -1
  9
$ENDCAPS
280
     0
  9
$JOINSTYLE
280
     0
  9
$LWDISPLAY
290
     0
  9
$INSUNITS
 70
     4
  9
$HYPERLINKBASE
  1

  9
$STYLESHEET
  1

  9
$XEDIT
290
     1
  9
$CEPSNTYPE
380
     0
  9
$PSTYLEMODE
290
     1
  9
$FINGERPRINTGUID
  2
{9046FE9A-7662-423D-868D-27DE2647563C}
  9
$VERSIONGUID
  2
{FAEB1C32-E019-11D5-929B-00C0DF256EC4}
  9
$EXTNAMES
290
     1
  9
$PSVPSCALE
 40
0.0
  9
$OLESTARTUP
290
     0
  9
$SORTENTS
280
   127
  9
$INDEXCTL
280
     0
  9
$HIDETEXT
280
     1
  9
$XCLIPFRAME
280
     2
  9
$HALOGAP
280
     0
  9
$OBSCOLOR
 70
   257
  9
$OBSLTYPE
280
     0
  9
$INTERSECTIONDISPLAY
280
     0
  9
$INTERSECTIONCOLOR
 70
   257
  9
$DIMASSOC
280
     2
  9
$PROJECTNAME
  1

  9
$CAMERADISPLAY
290
     0
  9
$LENSLENGTH
 40
50.0
  9
$CAMERAHEIGHT
 40
0.0
  9
$STEPSPERSEC
 40
2.0
  9
$STEPSIZE
 40
6.0
  9
$3DDWFPREC
 40
2.0
  9
$PSOLWIDTH
 40
5.0
  9
$PSOLHEIGHT
 40
80.0
  9
$LOFTANG1
 40
1.570796326794897
  9
$LOFTANG2
 40
1.570796326794897
  9
$LOFTMAG1
 40
0.0
  9
$LOFTMAG2
 40
0.0
  9
$LOFTPARAM
 70
     7
  9
$LOFTNORMALS
280
     1
  9
$LATITUDE
 40
37.795
  9
$LONGITUDE
 40
-122.394
  9
$NORTHDIRECTION
 40
0.0
  9
$TIMEZONE
 70
 -8000
  9
$LIGHTGLYPHDISPLAY
280
     1
  9
$TILEMODELIGHTSYNCH
280
     1
  9
$CMATERIAL
347
44
  9
$SOLIDHIST
280
     1
  9
$SHOWHIST
280
     1
  9
$DWFFRAME
280
     2
  9
$DGNFRAME
280
     2
  9
$REALWORLDSCALE
290
     1
  9
$INTERFERECOLOR
 62
   256
  9
$CSHADOW
280
     0
  9
$SHADOWPLANELOCATION
 40
0.0
  0
ENDSEC
  0
SECTION
  2
CLASSES
  0
CLASS
  1
ACDBDICTIONARYWDFLT
  2
AcDbDictionaryWithDefault
  3
ObjectDBX Classes
 90
        0
 91
        4
280
     0
281
     0
  0
CLASS
  1
VISUALSTYLE
  2
AcDbVisualStyle
  3
ObjectDBX Classes
 90
     4095
 91
        4
280
     0
281
     0
  0
CLASS
  1
MATERIAL
  2
AcDbMaterial
  3
ObjectDBX Classes
 90
     1153
 91
        4
280
     0
281
     0
  0
CLASS
  1
SCALE
  2
AcDbScale
  3
ObjectDBX Classes
 90
     1153
 91
        4
280
     0
281
     0
  0
CLASS
  1
SUN
  2
AcDbSun
  3
SCENEOE
 90
     1153
 91
        4
280
     0
281
     0
  0
CLASS
  1
DICTIONARYVAR
  2
AcDbDictionaryVar
  3
ObjectDBX Classes
 90
        0
 91
        4
280
     0
281
     0
  0
ENDSEC
  0
SECTION
  2
TABLES
  0
TABLE
  2
VPORT
  5
8
330
0
100
AcDbSymbolTable
 70
     1
  0
VPORT
  5
29
330
8
100
AcDbSymbolTableRecord
100
AcDbViewportTableRecord
  2
*Active
 70
     0
 10
0.0
 20
0.0
 11
1.0
 21
1.0
 12
344.1869158878504
 22
148.5
 13
0.0
 23
0.0
 14
10.0
 24
10.0
 15
10.0
 25
10.0
 16
0.0
 26
0.0
 36
1.0
 17
0.0
 27
0.0
 37
0.0
 40
297.0
 41
1.972972972850329
 42
50.0
 43
0.0
 44
0.0
 50
0.0
 51
0.0
 71
     0
 72
   100
 73
     1
 74
     3
 75
     0
 76
     0
 77
     0
 78
     0
281
     0
 65
     1
110
0.0
120
0.0
130
0.0
111
1.0
121
0.0
131
0.0
112
0.0
122
1.0
132
0.0
 79
     0
146
0.0
 60
     3
 61
     5
292
     1
282
     1
141
0.0
142
0.0
 63
   250
361
69
  0
ENDTAB
  0
TABLE
  2
LTYPE
  5
5
330
0
100
AcDbSymbolTable
 70
     9
  0
LTYPE
  5
14
330
5
100
AcDbSymbolTableRecord
100
AcDbLinetypeTableRecord
  2
ByBlock
 70
     0
  3

 72
    65
 73
     0
 40
0.0
  0
LTYPE
  5
15
330
5
100
AcDbSymbolTableRecord
100
AcDbLinetypeTableRecord
  2
ByLayer
 70
     0
  3

 72
    65
 73
     0
 40
0.0
  0
LTYPE
  5
16
330
5
100
AcDbSymbolTableRecord
100
AcDbLinetypeTableRecord
  2
Continuous
 70
     0
  3
Solid line
 72
    65
 73
     0
 40
0.0
  0
LTYPE
  5
6A
330
5
100
AcDbSymbolTableRecord
100
AcDbLinetypeTableRecord
  2
DOT
 70
     0
  3
____    ____    
 72
    65
 73
     4
 40
16.0
 49
4.0
 74
     0
 49
-4.0
 74
     0
 49
4.0
 74
     0
 49
-4.0
 74
     0
  0
LTYPE
  5
6B
330
5
100
AcDbSymbolTableRecord
100
AcDbLinetypeTableRecord
  2
HIDDEN
 70
     0
  3
__  __  __  __  
 72
    65
 73
     8
 40
16.0
 49
2.0
 74
     0
 49
-2.0
 74
     0
 49
2.0
 74
     0
 49
-2.0
 74
     0
 49
2.0
 74
     0
 49
-2.0
 74
     0
 49
2.0
 74
     0
 49
-2.0
 74
     0
  0
LTYPE
  5
6C
330
5
100
AcDbSymbolTableRecord
100
AcDbLinetypeTableRecord
  2
DASHED
 70
     0
  3
________        
 72
    65
 73
     2
 40
16.0
 49
8.0
 74
     0
 49
-8.0
 74
     0
  0
LTYPE
  5
6D
330
5
100
AcDbSymbolTableRecord
100
AcDbLinetypeTableRecord
  2
DASHDOT
 70
     0
  3
____________    
 72
    65
 73
     2
 40
16.0
 49
12.0
 74
     0
 49
-4.0
 74
     0
  0
LTYPE
  5
6E
330
5
100
AcDbSymbolTableRecord
100
AcDbLinetypeTableRecord
  2
BORDER
 70
     0
  3
_____________ _ 
 72
    65
 73
     4
 40
16.0
 49
13.0
 74
     0
 49
-1.0
 74
     0
 49
1.0
 74
     0
 49
-1.0
 74
     0
  0
LTYPE
  5
6F
330
5
100
AcDbSymbolTableRecord
100
AcDbLinetypeTableRecord
  2
CENTER
 70
     0
  3
_________  ___  
 72
    65
 73
     4
 40
16.0
 49
9.0
 74
     0
 49
-2.0
 74
     0
 49
3.0
 74
     0
 49
-2.0
 74
     0
  0
LTYPE
  5
70
330
5
100
AcDbSymbolTableRecord
100
AcDbLinetypeTableRecord
  2
PHANTOM
 70
     0
  3
_______   ___   
 72
    65
 73
     4
 40
16.0
 49
7.0
 74
     0
 49
-3.0
 74
     0
 49
3.0
 74
     0
 49
-3.0
 74
     0
  0
LTYPE
  5
71
330
5
100
AcDbSymbolTableRecord
100
AcDbLinetypeTableRecord
  2
DIVIDE
 70
     0
  3
_______  __ __  
 72
    65
 73
     6
 40
16.0
 49
7.0
 74
     0
 49
-2.0
 74
     0
 49
2.0
 74
     0
 49
-1.0
 74
     0
 49
2.0
 74
     0
 49
-2.0
 74
     0
  0
ENDTAB
  0
TABLE
  2
LAYER
  5
2
330
0
100
AcDbSymbolTable
 70
     4
  0
LAYER
  5
10
330
2
100
AcDbSymbolTableRecord
100
AcDbLayerTableRecord
  2
0
 70
     0
 62
     7
  6
Continuous
370
    -3
390
F
347
46
  0
LAYER
  5
7C
330
2
100
AcDbSymbolTableRecord
100
AcDbLayerTableRecord
  2
FIXING
 70
     0
 62
     7
420
 16777215
  6
Continuous
370
    -3
390
F
347
46
  0
LAYER
  5
1D0
330
2
100
AcDbSymbolTableRecord
100
AcDbLayerTableRecord
  2
1
 70
     0
 62
     7
420
 16777215
  6
Continuous
370
    -3
390
F
347
46
  0
LAYER
  5
204
330
2
100
AcDbSymbolTableRecord
100
AcDbLayerTableRecord
  2
SYSTEM_ASSIGNED_LAYER
 70
     0
 62
     7
420
 16777215
  6
Continuous
370
    -3
390
F
347
46
  0
ENDTAB
  0
TABLE
  2
STYLE
  5
3
330
0
100
AcDbSymbolTable
 70
     2
  0
STYLE
  5
11
330
3
100
AcDbSymbolTableRecord
100
AcDbTextStyleTableRecord
  2
Standard
 70
     0
 40
0.0
 41
1.0
 50
0.0
 71
     0
 42
1.0
  3
txt
  4

  0
STYLE
  5
72
330
3
100
AcDbSymbolTableRecord
100
AcDbTextStyleTableRecord
  2
ARIAL
 70
     0
 40
0.2
 41
1.0
 50
0.0
 71
     0
 42
1.0
  3
ARIAL.TTF
  4

  0
ENDTAB
  0
TABLE
  2
VIEW
  5
6
330
0
100
AcDbSymbolTable
 70
     0
  0
ENDTAB
  0
TABLE
  2
UCS
  5
7
330
0
100
AcDbSymbolTable
 70
     0
  0
ENDTAB
  0
TABLE
  2
APPID
  5
9
330
0
100
AcDbSymbolTable
 70
     1
  0
APPID
  5
12
330
9
100
AcDbSymbolTableRecord
100
AcDbRegAppTableRecord
  2
ACAD
 70
     0
  0
ENDTAB
  0
TABLE
  2
DIMSTYLE
  5
A
330
0
100
AcDbSymbolTable
 70
     1
100
AcDbDimStyleTable
  0
DIMSTYLE
105
27
330
A
100
AcDbSymbolTableRecord
100
AcDbDimStyleTableRecord
  2
ISO-25
 70
     0
 41
2.5
 42
0.625
 43
3.75
 44
1.25
 73
     0
 74
     0
 77
     1
 78
     8
140
2.5
141
2.5
143
0.03937007874016
147
0.625
171
     3
172
     1
178
     0
271
     2
272
     2
274
     3
278
    44
283
     0
284
     8
340
11
  0
ENDTAB
  0
TABLE
  2
BLOCK_RECORD
  5
1
330
0
100
AcDbSymbolTable
 70
    15
  0
BLOCK_RECORD
  5
1F
330
1
100
AcDbSymbolTableRecord
100
AcDbBlockTableRecord
  2
*Model_Space
340
22
 70
     0
280
     1
281
     0
  0
BLOCK_RECORD
  5
1B
330
1
100
AcDbSymbolTableRecord
100
AcDbBlockTableRecord
  2
*Paper_Space
340
1E
 70
     0
280
     1
281
     0
  0
BLOCK_RECORD
  5
23
330
1
100
AcDbSymbolTableRecord
100
AcDbBlockTableRecord
  2
*Paper_Space0
340
26
 70
     0
280
     1
281
     0
  0
BLOCK_RECORD
  5
73
330
1
100
AcDbSymbolTableRecord
100
AcDbBlockTableRecord
  2
GEN_BLOCK
340
0
102
{BLKREFS
331
76
102
}
 70
     0
280
     1
281
     0
  0
BLOCK_RECORD
  5
7D
330
1
100
AcDbSymbolTableRecord
100
AcDbBlockTableRecord
  2
8569S
340
0
102
{BLKREFS
331
81
102
}
 70
     0
280
     1
281
     0
  0
BLOCK_RECORD
  5
1D1
330
1
100
AcDbSymbolTableRecord
100
AcDbBlockTableRecord
  2
_RASTER_[__EXITEX-DC2_ARTWORK_PIERCE_COMMUNICATIONS_LOGO_EXITEXLOGOSMALLVERSION_JPG]
340
0
102
{BLKREFS
331
1D5
102
}
 70
     0
280
     1
281
     0
  0
BLOCK_RECORD
  5
1D8
330
1
100
AcDbSymbolTableRecord
100
AcDbBlockTableRecord
  2
GEN_BLOCK00000
340
0
102
{BLKREFS
331
1DB
102
}
 70
     0
280
     1
281
     0
  0
BLOCK_RECORD
  5
1DE
330
1
100
AcDbSymbolTableRecord
100
AcDbBlockTableRecord
  2
GEN_BLOCK00001
340
0
102
{BLKREFS
331
1E1
102
}
 70
     0
280
     1
281
     0
  0
BLOCK_RECORD
  5
1EE
330
1
100
AcDbSymbolTableRecord
100
AcDbBlockTableRecord
  2
GEN_BLOCK00002
340
0
102
{BLKREFS
331
1F1
102
}
 70
     0
280
     1
281
     0
  0
BLOCK_RECORD
  5
200
330
1
100
AcDbSymbolTableRecord
100
AcDbBlockTableRecord
  2
GEN_BLOCK00003
340
0
102
{BLKREFS
331
203
102
}
 70
     0
280
     1
281
     0
  0
BLOCK_RECORD
  5
205
330
1
100
AcDbSymbolTableRecord
100
AcDbBlockTableRecord
  2
GEN_BLOCK00004
340
0
102
{BLKREFS
331
208
102
}
 70
     0
280
     1
281
     0
  0
BLOCK_RECORD
  5
213
330
1
100
AcDbSymbolTableRecord
100
AcDbBlockTableRecord
  2
GEN_BLOCK00005
340
0
102
{BLKREFS
331
216
102
}
 70
     0
280
     1
281
     0
  0
BLOCK_RECORD
  5
222
330
1
100
AcDbSymbolTableRecord
100
AcDbBlockTableRecord
  2
PROTO
340
0
102
{BLKREFS
331
226
102
}
 70
     0
280
     1
281
     0
  0
BLOCK_RECORD
  5
23F
330
1
100
AcDbSymbolTableRecord
100
AcDbBlockTableRecord
  2
GEN_BLOCK00006
340
0
102
{BLKREFS
331
242
102
}
 70
     0
280
     1
281
     0
  0
BLOCK_RECORD
  5
260
330
1
100
AcDbSymbolTableRecord
100
AcDbBlockTableRecord
  2
GEN_BLOCK00007
340
0
102
{BLKREFS
331
263
102
}
 70
     0
280
     1
281
     0
  0
BLOCK_RECORD
  5
276
330
1
100
AcDbSymbolTableRecord
100
AcDbBlockTableRecord
  2
GEN_BLOCK00008
340
0
102
{BLKREFS
331
279
102
}
 70
     0
280
     1
281
     0
  0
BLOCK_RECORD
  5
2D0
330
1
100
AcDbSymbolTableRecord
100
AcDbBlockTableRecord
  2
GEN_BLOCK00009
340
0
102
{BLKREFS
331
2D3
102
}
 70
     0
280
     1
281
     0
  0
ENDTAB
  0
ENDSEC
  0
SECTION
  2
BLOCKS
  0
BLOCK
  5
20
330
1F
100
AcDbEntity
  8
0
100
AcDbBlockBegin
  2
*Model_Space
 70
     0
 10
0.0
 20
0.0
 30
0.0
  3
*Model_Space
  1
*Model_Space
  0
ENDBLK
  5
21
330
1F
100
AcDbEntity
  8
0
100
AcDbBlockEnd
  0
BLOCK
  5
1C
330
1B
100
AcDbEntity
 67
     1
  8
0
100
AcDbBlockBegin
  2
*Paper_Space
 70
     0
 10
0.0
 20
0.0
 30
0.0
  3
*Paper_Space
  1
*Paper_Space
  0
ENDBLK
  5
1D
330
1B
100
AcDbEntity
 67
     1
  8
0
100
AcDbBlockEnd
  0
BLOCK
  5
24
330
23
100
AcDbEntity
  8
0
100
AcDbBlockBegin
  2
*Paper_Space0
 70
     0
 10
0.0
 20
0.0
 30
0.0
  3
*Paper_Space0
  1
*Paper_Space0
  0
ENDBLK
  5
25
330
23
100
AcDbEntity
  8
0
100
AcDbBlockEnd
  0
BLOCK
  5
74
330
73
100
AcDbEntity
  8
0
100
AcDbBlockBegin
  2
GEN_BLOCK
 70
     0
 10
0.0
 20
0.0
 30
0.0
  3
GEN_BLOCK
  1
GEN_BLOCK
  0
LINE
  5
77
330
73
100
AcDbEntity
  8
0
  6
Continuous
 62
     2
100
AcDbLine
 10
0.0000000621037515
 20
11.99999502457058
 30
0.0
 11
0.0000000621037515
 21
-0.0000049754294196
 31
0.0
  0
LINE
  5
78
330
73
100
AcDbEntity
  8
0
  6
Continuous
 62
     2
100
AcDbLine
 10
84.00000006210375
 20
8.99999502457058
 30
0.0
 11
0.0000000621037515
 21
8.99999502457058
 31
0.0
  0
LINE
  5
79
330
73
100
AcDbEntity
  8
0
  6
Continuous
 62
     2
100
AcDbLine
 10
8.000000062103751
 20
11.99999502457058
 30
0.0
 11
8.000000062103751
 21
-0.0000049754294196
 31
0.0
  0
LINE
  5
7A
330
73
100
AcDbEntity
  8
0
  6
Continuous
 62
     2
100
AcDbLine
 10
16.00000006210375
 20
11.99999502457058
 30
0.0
 11
16.00000006210375
 21
-0.0000049754294196
 31
0.0
  0
LINE
  5
7B
330
73
100
AcDbEntity
  8
0
  6
Continuous
 62
     2
100
AcDbLine
 10
64.00000006210375
 20
11.99999502457058
 30
0.0
 11
64.00000006210375
 21
-0.0000049754294196
 31
0.0
  0
ENDBLK
  5
75
330
73
100
AcDbEntity
  8
0
100
AcDbBlockEnd
  0
BLOCK
  5
7E
330
7D
100
AcDbEntity
  8
0
100
AcDbBlockBegin
  2
8569S
 70
     2
 10
0.0
 20
0.0
 30
0.0
  3
8569S
  1
8569S
  0
ATTDEF
  5
80
330
7D
100
AcDbEntity
  8
FIXING
100
AcDbText
 10
0.0
 20
0.0
 30
0.0
 40
1.0
  1

100
AcDbAttributeDefinition
  3
Enter PAT_NAME
  2
PAT_NAME
 70
     0
280
     0
  0
LINE
  5
84
330
7D
100
AcDbEntity
  8
FIXING
  6
Continuous
 62
     3
100
AcDbLine
 10
18.52896228742484
 20
13.97001456823153
 30
0.0
 11
18.96216941291597
 21
11.51327781668006
 31
0.0
  0
LINE
  5
85
330
7D
100
AcDbEntity
  8
FIXING
  6
Continuous
 62
     3
100
AcDbLine
 10
18.96216941291597
 20
11.51327781668006
 30
0.0
 11
18.52896228742484
 21
13.97001456823153
 31
0.0
  0
LINE
  5
86
330
7D
100
AcDbEntity
  8
FIXING
  6
Continuous
 62
     3
100
AcDbLine
 10
17.79016941291594
 20
13.54324136315082
 30
0.0
 11
18.52888908234405
 21
13.96974136315081
 31
0.0
  0
LINE
  5
87
330
7D
100
AcDbEntity
  8
FIXING
  6
Continuous
 62
     3
100
AcDbLine
 10
18.52888908234405
 20
13.96974136315081
 30
0.0
 11
17.05378801207803
 21
13.11809136315082
 31
0.0
  0
LINE
  5
88
330
7D
100
AcDbEntity
  8
FIXING
  6
Continuous
 62
     3
100
AcDbLine
 10
17.05378801207803
 20
13.11809136315082
 30
0.0
 11
18.52888908234405
 21
13.96974136315081
 31
0.0
  0
LINE
  5
89
330
7D
100
AcDbEntity
  8
FIXING
  6
Continuous
 62
     3
100
AcDbLine
 10
18.52888908234405
 20
13.96974136315081
 30
0.0
 11
17.79016941291594
 21
13.54324136315082
 31
0.0
  0
LINE
  5
8A
330
7D
100
AcDbEntity
  8
FIXING
  6
Continuous
 62
     3
100
AcDbLine
 10
17.05378801207803
 20
13.11809136315082
 30
0.0
 11
18.52888908234405
 21
13.96974136315081
 31
0.0
  0
LINE
  5
8B
330
7D
100
AcDbEntity
  8
FIXING
  6
Continuous
 62
     3
100
AcDbLine
 10
18.52888908234405
 20
13.96974136315081
 30
0.0
 11
18.38928880114218
 21
14.96093614294339
 31
0.0
  0
LINE
  5
8C
330
7D
100
AcDbEntity
  8
FIXING
  6
Continuous
 62
     3
100
AcDbLine
 10
18.38928880114218
 20
14.96093614294339
 30
0.0
 11
19.7504459266333
 21
10.89694284450835
 31
0.0
  0
LINE
  5
8D
330
7D
100
AcDbEntity
  8
FIXING
  6
Continuous
 62
     3
100
AcDbLine
 10
19.7504459266333
 20
10.89694284450835
 30
0.0
 11
19.60176577615128
 21
11.88266441922021
 31
0.0
  0
LINE
  5
8E
330
7D
100
AcDbEntity
  8
FIXING
  6
Continuous
 62
     3
100
AcDbLine
 10
19.60176577615128
 20
11.88266441922021
 30
0.0
 11
19.16852204811966
 21
14.33926456823154
 31
0.0
  0
LINE
  5
8F
330
7D
100
AcDbEntity
  8
FIXING
  6
Continuous
 62
     3
100
AcDbLine
 10
19.60172917361079
 20
11.88252781668006
 30
0.0
 11
19.60176577615128
 21
11.88266441922021
 31
0.0
  0
LINE
  5
90
330
7D
100
AcDbEntity
  8
FIXING
  6
Continuous
 62
     3
100
AcDbLine
 10
19.60176577615128
 20
11.88266441922021
 30
0.0
 11
19.16852204811966
 21
14.33926456823154
 31
0.0
  0
LINE
  5
91
330
7D
100
AcDbEntity
  8
FIXING
  6
Continuous
 62
     3
100
AcDbLine
 10
19.16852204811966
 20
14.33926456823154
 30
0.0
 11
18.38928880114218
 21
14.96093614294339
 31
0.0
  0
LINE
  5
92
330
7D
100
AcDbEntity
  8
FIXING
  6
Continuous
 62
     3
100
AcDbLine
 10
18.38928880114218
 20
14.96093614294339
 30
0.0
 11
19.7504459266333
 21
10.89694284450835
 31
0.0
  0
LINE
  5
93
330
7D
100
AcDbEntity
  8
FIXING
  6
Continuous
 62
     3
100
AcDbLine
 10
19.7504459266333
 20
10.89694284450835
 30
0.0
 11
18.96221941291607
 21
11.5131912141395
 31
0.0
  0
LINE
  5
94
330
7D
100
AcDbEntity
  8
FIXING
  6
Continuous
 62
     3
100
AcDbLine
 10
18.96221941291607
 20
11.5131912141395
 30
0.0
 11
19.7504459266333
 21
10.89694284450835
 31
0.0
  0
LINE
  5
95
330
7D
100
AcDbEntity
  8
FIXING
  6
Continuous
 62
     3
100
AcDbLine
 10
18.52888908234405
 20
13.96974136315081
 30
0.0
 11
18.38928880114218
 21
14.96093614294339
 31
0.0
  0
LINE
  5
96
330
7D
100
AcDbEntity
  8
FIXING
  6
Continuous
 62
     3
100
AcDbLine
 10
18.38928880114218
 20
14.96093614294339
 30
0.0
 11
19.16852204811966
 21
14.33926456823154
 31
0.0
  0
LINE
  5
97
330
7D
100
AcDbEntity
  8
FIXING
  6
Continuous
 62
     3
100
AcDbLine
 10
19.16852204811966
 20
14.33926456823154
 30
0.0
 11
19.60176577615128
 21
11.88266441922021
 31
0.0
  0
LINE
  5
98
330
7D
100
AcDbEntity
  8
FIXING
  6
Continuous
 62
     3
100
AcDbLine
 10
19.60176577615128
 20
11.88266441922021
 30
0.0
 11
19.7504459266333
 21
10.89694284450835
 31
0.0
  0
LINE
  5
99
330
7D
100
AcDbEntity
  8
FIXING
  6
Continuous
 62
     3
100
AcDbLine
 10
19.7504459266333
 20
10.89694284450835
 30
0.0
 11
18.38928880114218
 21
14.96093614294339
 31
0.0
  0
LINE
  5
9A
330
7D
100
AcDbEntity
  8
FIXING
  6
Continuous
 62
     3
100
AcDbLine
 10
18.38928880114218
 20
14.96093614294339
 30
0.0
 11
19.16852204811966
 21
14.33926456823154
 31
0.0
  0
LINE
  5
9B
330
7D
100
AcDbEntity
  8
FIXING
  6
Continuous
 62
     3
100
AcDbLine
 10
19.16852204811966
 20
14.33926456823154
 30
0.0
 11
19.60176577615128
 21
11.88266441922021
 31
0.0
  0
LINE
  5
9C
330
7D
100
AcDbEntity
  8
FIXING
  6
Continuous
 62
     3
100
AcDbLine
 10
19.60176577615128
 20
11.88266441922021
 30
0.0
 11
19.60172917361079
 21
11.88252781668006
 31
0.0
  0
LINE
  5
9D
330
7D
100
AcDbEntity
  8
FIXING
  6
Continuous
 62
     3
100
AcDbLine
 10
22.20883884408266
 20
13.38728140651864
 30
0.0
 11
21.81704895141057
 21
13.16108140651863
 31
0.0
  0
LINE
  5
9E
330
7D
100
AcDbEntity
  8
FIXING
  6
Continuous
 62
     3
100
AcDbLine
 10
21.81704895141057
 20
13.16108140651863
 30
0.0
 11
21.9657657044331
 21
12.17549643434693
 31
0.0
  0
LINE
  5
9F
330
7D
100
AcDbEntity
  8
FIXING
  6
Continuous
 62
     3
100
AcDbLine
 10
21.9657657044331
 20
12.17549643434693
 30
0.0
 11
20.57278884408282
 21
16.22100313024142
 31
0.0
  0
LINE
  5
A0
330
7D
100
AcDbEntity
  8
FIXING
  6
Continuous
 62
     3
100
AcDbLine
 10
20.57278884408282
 20
16.22100313024142
 30
0.0
 11
21.39314356103036
 21
15.56510708025947
 31
0.0
  0
LINE
  5
A1
330
7D
100
AcDbEntity
  8
FIXING
  6
Continuous
 62
     3
100
AcDbLine
 10
21.39314356103036
 20
15.56510708025947
 30
0.0
 11
21.81704895141057
 21
13.16108140651863
 31
0.0
  0
LINE
  5
A2
330
7D
100
AcDbEntity
  8
FIXING
  6
Continuous
 62
     3
100
AcDbLine
 10
21.81704895141057
 20
13.16108140651863
 30
0.0
 11
21.39314356103036
 21
15.56510708025947
 31
0.0
  0
LINE
  5
A3
330
7D
100
AcDbEntity
  8
FIXING
  6
Continuous
 62
     3
100
AcDbLine
 10
21.39314356103036
 20
15.56510708025947
 30
0.0
 11
22.9225144537212
 21
16.19855899050196
 31
0.0
  0
LINE
  5
A4
330
7D
100
AcDbEntity
  8
FIXING
  6
Continuous
 62
     3
100
AcDbLine
 10
22.9225144537212
 20
16.19855899050196
 30
0.0
 11
22.80558689913202
 21
16.8612834558552
 31
0.0
  0
LINE
  5
A5
330
7D
100
AcDbEntity
  8
FIXING
  6
Continuous
 62
     3
100
AcDbLine
 10
22.80558689913202
 20
16.8612834558552
 30
0.0
 11
22.9225144537212
 21
16.19855899050196
 31
0.0
  0
LINE
  5
A6
330
7D
100
AcDbEntity
  8
FIXING
  6
Continuous
 62
     3
100
AcDbLine
 10
20.57278884408282
 20
16.22100313024142
 30
0.0
 11
21.9657657044331
 21
12.17549643434693
 31
0.0
  0
LINE
  5
A7
330
7D
100
AcDbEntity
  8
FIXING
  6
Continuous
 62
     3
100
AcDbLine
 10
21.9657657044331
 20
12.17549643434693
 30
0.0
 11
20.57278884408282
 21
16.22100313024142
 31
0.0
  0
LINE
  5
A8
330
7D
100
AcDbEntity
  8
FIXING
  6
Continuous
 62
     3
100
AcDbLine
 10
20.57278884408282
 20
16.22100313024142
 30
0.0
 11
21.39314356103036
 21
15.56510708025947
 31
0.0
  0
LINE
  5
A9
330
7D
100
AcDbEntity
  8
FIXING
  6
Continuous
 62
     3
100
AcDbLine
 10
21.39314356103036
 20
15.56510708025947
 30
0.0
 11
22.9225144537212
 21
16.19855899050196
 31
0.0
  0
LINE
  5
AA
330
7D
100
AcDbEntity
  8
FIXING
  6
Continuous
 62
     3
100
AcDbLine
 10
22.9225144537212
 20
16.19855899050196
 30
0.0
 11
22.80558689913202
 21
16.8612834558552
 31
0.0
  0
LINE
  5
AB
330
7D
100
AcDbEntity
  8
FIXING
  6
Continuous
 62
     3
100
AcDbLine
 10
22.80558689913202
 20
16.8612834558552
 30
0.0
 11
22.9225144537212
 21
16.19855899050196
 31
0.0
  0
LINE
  5
AC
330
7D
100
AcDbEntity
  8
FIXING
  6
Continuous
 62
     3
100
AcDbLine
 10
22.9225144537212
 20
16.19855899050196
 30
0.0
 11
23.28354756390556
 21
14.21203130044804
 31
0.0
  0
LINE
  5
AD
330
7D
100
AcDbEntity
  8
FIXING
  6
Continuous
 62
     3
100
AcDbLine
 10
23.28354756390556
 20
14.21203130044804
 30
0.0
 11
22.20883884408266
 21
13.38728140651864
 31
0.0
  0
LINE
  5
AE
330
7D
100
AcDbEntity
  8
FIXING
  6
Continuous
 62
     3
100
AcDbLine
 10
22.20883884408266
 20
13.38728140651864
 30
0.0
 11
23.28354756390556
 21
14.21203130044804
 31
0.0
  0
LINE
  5
AF
330
7D
100
AcDbEntity
  8
FIXING
  6
Continuous
 62
     3
100
AcDbLine
 10
23.28354756390556
 20
14.21203130044804
 30
0.0
 11
23.87777653539399
 21
13.74739653050067
 31
0.0
  0
LINE
  5
B0
330
7D
100
AcDbEntity
  8
FIXING
  6
Continuous
 62
     3
100
AcDbLine
 10
20.74419546268426
 20
15.24851815807011
 30
0.0
 11
20.57278884408282
 21
16.22100313024142
 31
0.0
  0
LINE
  5
B1
330
7D
100
AcDbEntity
  8
FIXING
  6
Continuous
 62
     3
100
AcDbLine
 10
20.57278884408282
 20
16.22100313024142
 30
0.0
 11
20.74419546268426
 21
15.24851815807011
 31
0.0
  0
LINE
  5
B2
330
7D
100
AcDbEntity
  8
FIXING
  6
Continuous
 62
     3
100
AcDbLine
 10
20.74419546268426
 20
15.24851815807011
 30
0.0
 11
21.17740258817536
 21
12.79178140651862
 31
0.0
  0
LINE
  5
B3
330
7D
100
AcDbEntity
  8
FIXING
  6
Continuous
 62
     3
100
AcDbLine
 10
21.17740258817536
 20
12.79178140651862
 30
0.0
 11
21.9657657044331
 21
12.17549643434693
 31
0.0
  0
LINE
  5
B4
330
7D
100
AcDbEntity
  8
FIXING
  6
Continuous
 62
     3
100
AcDbLine
 10
21.9657657044331
 20
12.17549643434693
 30
0.0
 11
21.81704895141057
 21
13.16108140651863
 31
0.0
  0
LINE
  5
B5
330
7D
100
AcDbEntity
  8
FIXING
  6
Continuous
 62
     3
100
AcDbLine
 10
21.81704895141057
 20
13.16108140651863
 30
0.0
 11
22.20883884408266
 21
13.38728140651864
 31
0.0
  0
LINE
  5
B6
330
7D
100
AcDbEntity
  8
FIXING
  6
Continuous
 62
     3
100
AcDbLine
 10
22.20883884408266
 20
13.38728140651864
 30
0.0
 11
23.28354756390556
 21
14.21203130044804
 31
0.0
  0
LINE
  5
B7
330
7D
100
AcDbEntity
  8
FIXING
  6
Continuous
 62
     3
100
AcDbLine
 10
23.28354756390556
 20
14.21203130044804
 30
0.0
 11
22.9225144537212
 21
16.19855899050196
 31
0.0
  0
LINE
  5
B8
330
7D
100
AcDbEntity
  8
FIXING
  6
Continuous
 62
     3
100
AcDbLine
 10
22.9225144537212
 20
16.19855899050196
 30
0.0
 11
21.39314356103036
 21
15.56510708025947
 31
0.0
  0
LINE
  5
B9
330
7D
100
AcDbEntity
  8
FIXING
  6
Continuous
 62
     3
100
AcDbLine
 10
25.04329144820779
 20
17.32726548452793
 30
0.0
 11
25.10276647596491
 21
16.99025171467106
 31
0.0
  0
LINE
  5
BA
330
7D
100
AcDbEntity
  8
FIXING
  6
Continuous
 62
     3
100
AcDbLine
 10
25.10276647596491
 20
16.99025171467106
 30
0.0
 11
25.31945894239526
 21
15.81712935319626
 31
0.0
  0
LINE
  5
BB
330
7D
100
AcDbEntity
  8
FIXING
  6
Continuous
 62
     3
100
AcDbLine
 10
25.31945894239526
 20
15.81712935319626
 30
0.0
 11
25.17882873276902
 21
15.66630802134798
 31
0.0
  0
LINE
  5
BC
330
7D
100
AcDbEntity
  8
FIXING
  6
Continuous
 62
     3
100
AcDbLine
 10
25.17882873276902
 20
15.66630802134798
 30
0.0
 11
23.75330447592716
 21
14.57238846161995
 31
0.0
  0
LINE
  5
BD
330
7D
100
AcDbEntity
  8
FIXING
  6
Continuous
 62
     3
100
AcDbLine
 10
23.75330447592716
 20
14.57238846161995
 30
0.0
 11
25.17882873276902
 21
15.66630802134798
 31
0.0
  0
LINE
  5
BE
330
7D
100
AcDbEntity
  8
FIXING
  6
Continuous
 62
     3
100
AcDbLine
 10
25.17882873276902
 20
15.66630802134798
 30
0.0
 11
25.31945894239526
 21
15.81712935319626
 31
0.0
  0
LINE
  5
BF
330
7D
100
AcDbEntity
  8
FIXING
  6
Continuous
 62
     3
100
AcDbLine
 10
25.31945894239526
 20
15.81712935319626
 30
0.0
 11
25.65312396889514
 21
15.55620457458967
 31
0.0
  0
LINE
  5
C0
330
7D
100
AcDbEntity
  8
FIXING
  6
Continuous
 62
     3
100
AcDbLine
 10
25.65312396889514
 20
15.55620457458967
 30
0.0
 11
25.04329144820779
 21
17.32726548452793
 31
0.0
  0
LINE
  5
C1
330
7D
100
AcDbEntity
  8
FIXING
  6
Continuous
 62
     3
100
AcDbLine
 10
25.0512821930738
 20
16.9784251084297
 30
0.0
 11
25.10276647596491
 21
16.99025171467106
 31
0.0
  0
LINE
  5
C2
330
7D
100
AcDbEntity
  8
FIXING
  6
Continuous
 62
     3
100
AcDbLine
 10
25.10276647596491
 20
16.99025171467106
 30
0.0
 11
24.49537873276902
 21
16.85007814578091
 31
0.0
  0
LINE
  5
C3
330
7D
100
AcDbEntity
  8
FIXING
  6
Continuous
 62
     3
100
AcDbLine
 10
24.49537873276902
 20
16.85007814578091
 30
0.0
 11
23.39153503944611
 21
16.39279150623069
 31
0.0
  0
LINE
  5
C4
330
7D
100
AcDbEntity
  8
FIXING
  6
Continuous
 62
     3
100
AcDbLine
 10
23.39153503944611
 20
16.39279150623069
 30
0.0
 11
23.75330447592716
 21
14.57238846161995
 31
0.0
  0
LINE
  5
C5
330
7D
100
AcDbEntity
  8
FIXING
  6
Continuous
 62
     3
100
AcDbLine
 10
23.75330447592716
 20
14.57238846161995
 30
0.0
 11
23.87777653539399
 21
13.74739653050067
 31
0.0
  0
LINE
  5
C6
330
7D
100
AcDbEntity
  8
FIXING
  6
Continuous
 62
     3
100
AcDbLine
 10
23.87777653539399
 20
13.74739653050067
 30
0.0
 11
23.28354756390556
 21
14.21203130044804
 31
0.0
  0
LINE
  5
C7
330
7D
100
AcDbEntity
  8
FIXING
  6
Continuous
 62
     3
100
AcDbLine
 10
21.81704895141057
 20
13.16108140651863
 30
0.0
 11
22.20883884408266
 21
13.38728140651864
 31
0.0
  0
LINE
  5
C8
330
7D
100
AcDbEntity
  8
FIXING
  6
Continuous
 62
     3
100
AcDbLine
 10
22.20883884408266
 20
13.38728140651864
 30
0.0
 11
23.28354756390556
 21
14.21203130044804
 31
0.0
  0
LINE
  5
C9
330
7D
100
AcDbEntity
  8
FIXING
  6
Continuous
 62
     3
100
AcDbLine
 10
23.28354756390556
 20
14.21203130044804
 30
0.0
 11
22.9225144537212
 21
16.19855899050196
 31
0.0
  0
LINE
  5
CA
330
7D
100
AcDbEntity
  8
FIXING
  6
Continuous
 62
     3
100
AcDbLine
 10
22.9225144537212
 20
16.19855899050196
 30
0.0
 11
23.28354756390556
 21
14.21203130044804
 31
0.0
  0
LINE
  5
CB
330
7D
100
AcDbEntity
  8
FIXING
  6
Continuous
 62
     3
100
AcDbLine
 10
23.28354756390556
 20
14.21203130044804
 30
0.0
 11
23.87777653539399
 21
13.74739653050067
 31
0.0
  0
LINE
  5
CC
330
7D
100
AcDbEntity
  8
FIXING
  6
Continuous
 62
     3
100
AcDbLine
 10
23.87777653539399
 20
13.74739653050067
 30
0.0
 11
23.75330447592716
 21
14.57238846161995
 31
0.0
  0
LINE
  5
CD
330
7D
100
AcDbEntity
  8
FIXING
  6
Continuous
 62
     3
100
AcDbLine
 10
23.75330447592716
 20
14.57238846161995
 30
0.0
 11
23.39153503944611
 21
16.39279150623069
 31
0.0
  0
LINE
  5
CE
330
7D
100
AcDbEntity
  8
FIXING
  6
Continuous
 62
     3
100
AcDbLine
 10
23.39153503944611
 20
16.39279150623069
 30
0.0
 11
24.49537873276902
 21
16.85007814578091
 31
0.0
  0
LINE
  5
CF
330
7D
100
AcDbEntity
  8
FIXING
  6
Continuous
 62
     3
100
AcDbLine
 10
24.49537873276902
 20
16.85007814578091
 30
0.0
 11
25.10276647596491
 21
16.99025171467106
 31
0.0
  0
LINE
  5
D0
330
7D
100
AcDbEntity
  8
FIXING
  6
Continuous
 62
     3
100
AcDbLine
 10
25.10276647596491
 20
16.99025171467106
 30
0.0
 11
25.0512821930738
 21
16.9784251084297
 31
0.0
  0
LINE
  5
D1
330
7D
100
AcDbEntity
  8
FIXING
  6
Continuous
 62
     3
100
AcDbLine
 10
25.0512821930738
 20
16.9784251084297
 30
0.0
 11
25.10276647596491
 21
16.99025171467106
 31
0.0
  0
LINE
  5
D2
330
7D
100
AcDbEntity
  8
FIXING
  6
Continuous
 62
     3
100
AcDbLine
 10
25.10276647596491
 20
16.99025171467106
 30
0.0
 11
25.31945894239526
 21
15.81712935319626
 31
0.0
  0
LINE
  5
D3
330
7D
100
AcDbEntity
  8
FIXING
  6
Continuous
 62
     3
100
AcDbLine
 10
25.31945894239526
 20
15.81712935319626
 30
0.0
 11
25.65312396889514
 21
15.55620457458967
 31
0.0
  0
LINE
  5
D4
330
7D
100
AcDbEntity
  8
FIXING
  6
Continuous
 62
     3
100
AcDbLine
 10
25.65312396889514
 20
15.55620457458967
 30
0.0
 11
25.04329144820779
 21
17.32726548452793
 31
0.0
  0
LINE
  5
D5
330
7D
100
AcDbEntity
  8
FIXING
  6
Continuous
 62
     3
100
AcDbLine
 10
23.39153503944611
 20
16.39279150623069
 30
0.0
 11
22.80558689913202
 21
16.8612834558552
 31
0.0
  0
LINE
  5
D6
330
7D
100
AcDbEntity
  8
FIXING
  6
Continuous
 62
     3
100
AcDbLine
 10
22.80558689913202
 20
16.8612834558552
 30
0.0
 11
23.39153503944611
 21
16.39279150623069
 31
0.0
  0
LINE
  5
D7
330
7D
100
AcDbEntity
  8
FIXING
  6
Continuous
 62
     3
100
AcDbLine
 10
23.39153503944611
 20
16.39279150623069
 30
0.0
 11
23.75330447592716
 21
14.57238846161995
 31
0.0
  0
LINE
  5
D8
330
7D
100
AcDbEntity
  8
FIXING
  6
Continuous
 62
     3
100
AcDbLine
 10
23.75330447592716
 20
14.57238846161995
 30
0.0
 11
25.17882873276902
 21
15.66630802134798
 31
0.0
  0
LINE
  5
D9
330
7D
100
AcDbEntity
  8
FIXING
  6
Continuous
 62
     3
100
AcDbLine
 10
25.17882873276902
 20
15.66630802134798
 30
0.0
 11
25.31945894239526
 21
15.81712935319626
 31
0.0
  0
LINE
  5
DA
330
7D
100
AcDbEntity
  8
FIXING
  6
Continuous
 62
     3
100
AcDbLine
 10
25.31945894239526
 20
15.81712935319626
 30
0.0
 11
25.65312396889514
 21
15.55620457458967
 31
0.0
  0
LINE
  5
DB
330
7D
100
AcDbEntity
  8
FIXING
  6
Continuous
 62
     3
100
AcDbLine
 10
25.65312396889514
 20
15.55620457458967
 30
0.0
 11
25.57277116581949
 21
16.08877971204728
 31
0.0
  0
LINE
  5
DC
330
7D
100
AcDbEntity
  8
FIXING
  6
Continuous
 62
     3
100
AcDbLine
 10
25.57277116581949
 20
16.08877971204728
 30
0.0
 11
27.64091277244039
 21
17.87645337213274
 31
0.0
  0
LINE
  5
DD
330
7D
100
AcDbEntity
  8
FIXING
  6
Continuous
 62
     3
100
AcDbLine
 10
27.64091277244039
 20
17.87645337213274
 30
0.0
 11
25.38362967978839
 21
17.05518237567221
 31
0.0
  0
LINE
  5
DE
330
7D
100
AcDbEntity
  8
FIXING
  6
Continuous
 62
     3
100
AcDbLine
 10
25.38362967978839
 20
17.05518237567221
 30
0.0
 11
25.57277116581949
 21
16.08877971204728
 31
0.0
  0
LINE
  5
DF
330
7D
100
AcDbEntity
  8
FIXING
  6
Continuous
 62
     3
100
AcDbLine
 10
25.57277116581949
 20
16.08877971204728
 30
0.0
 11
25.65312396889514
 21
15.55620457458967
 31
0.0
  0
LINE
  5
E0
330
7D
100
AcDbEntity
  8
FIXING
  6
Continuous
 62
     3
100
AcDbLine
 10
25.65312396889514
 20
15.55620457458967
 30
0.0
 11
25.31945894239526
 21
15.81712935319626
 31
0.0
  0
LINE
  5
E1
330
7D
100
AcDbEntity
  8
FIXING
  6
Continuous
 62
     3
100
AcDbLine
 10
22.80558689913202
 20
16.8612834558552
 30
0.0
 11
23.39153503944611
 21
16.39279150623069
 31
0.0
  0
LINE
  5
E2
330
7D
100
AcDbEntity
  8
FIXING
  6
Continuous
 62
     3
100
AcDbLine
 10
23.39153503944611
 20
16.39279150623069
 30
0.0
 11
22.80558689913202
 21
16.8612834558552
 31
0.0
  0
LINE
  5
E3
330
7D
100
AcDbEntity
  8
FIXING
  6
Continuous
 62
     3
100
AcDbLine
 10
22.80558689913202
 20
16.8612834558552
 30
0.0
 11
23.87777653539399
 21
13.74739653050067
 31
0.0
  0
LINE
  5
E4
330
7D
100
AcDbEntity
  8
FIXING
  6
Continuous
 62
     3
100
AcDbLine
 10
23.87777653539399
 20
13.74739653050067
 30
0.0
 11
22.80558689913202
 21
16.8612834558552
 31
0.0
  0
LINE
  5
E5
330
7D
100
AcDbEntity
  8
FIXING
  6
Continuous
 62
     3
100
AcDbLine
 10
22.80558689913202
 20
16.8612834558552
 30
0.0
 11
23.39153503944611
 21
16.39279150623069
 31
0.0
  0
LINE
  5
E6
330
7D
100
AcDbEntity
  8
FIXING
  6
Continuous
 62
     3
100
AcDbLine
 10
23.39153503944611
 20
16.39279150623069
 30
0.0
 11
22.80558689913202
 21
16.8612834558552
 31
0.0
  0
LINE
  5
E7
330
7D
100
AcDbEntity
  8
FIXING
  6
Continuous
 62
     3
100
AcDbLine
 10
25.38362967978839
 20
17.05518237567221
 30
0.0
 11
25.04329144820779
 21
17.32726548452793
 31
0.0
  0
LINE
  5
E8
330
7D
100
AcDbEntity
  8
FIXING
  6
Continuous
 62
     3
100
AcDbLine
 10
25.04329144820779
 20
17.32726548452793
 30
0.0
 11
25.65312396889514
 21
15.55620457458967
 31
0.0
  0
LINE
  5
E9
330
7D
100
AcDbEntity
  8
FIXING
  6
Continuous
 62
     3
100
AcDbLine
 10
25.65312396889514
 20
15.55620457458967
 30
0.0
 11
25.31945894239526
 21
15.81712935319626
 31
0.0
  0
LINE
  5
EA
330
7D
100
AcDbEntity
  8
FIXING
  6
Continuous
 62
     3
100
AcDbLine
 10
25.31945894239526
 20
15.81712935319626
 30
0.0
 11
25.10276647596491
 21
16.99025171467106
 31
0.0
  0
LINE
  5
EB
330
7D
100
AcDbEntity
  8
FIXING
  6
Continuous
 62
     3
100
AcDbLine
 10
25.10276647596491
 20
16.99025171467106
 30
0.0
 11
25.04329144820779
 21
17.32726548452793
 31
0.0
  0
LINE
  5
EC
330
7D
100
AcDbEntity
  8
FIXING
  6
Continuous
 62
     3
100
AcDbLine
 10
25.04329144820779
 20
17.32726548452793
 30
0.0
 11
25.10276647596491
 21
16.99025171467106
 31
0.0
  0
LINE
  5
ED
330
7D
100
AcDbEntity
  8
FIXING
  6
Continuous
 62
     3
100
AcDbLine
 10
25.57277116581949
 20
16.08877971204728
 30
0.0
 11
25.65312396889514
 21
15.55620457458967
 31
0.0
  0
LINE
  5
EE
330
7D
100
AcDbEntity
  8
FIXING
  6
Continuous
 62
     3
100
AcDbLine
 10
25.65312396889514
 20
15.55620457458967
 30
0.0
 11
25.04329144820779
 21
17.32726548452793
 31
0.0
  0
LINE
  5
EF
330
7D
100
AcDbEntity
  8
FIXING
  6
Continuous
 62
     3
100
AcDbLine
 10
25.04329144820779
 20
17.32726548452793
 30
0.0
 11
25.38362967978839
 21
17.05518237567221
 31
0.0
  0
LINE
  5
F0
330
7D
100
AcDbEntity
  8
FIXING
  6
Continuous
 62
     3
100
AcDbLine
 10
25.38362967978839
 20
17.05518237567221
 30
0.0
 11
25.57277116581949
 21
16.08877971204728
 31
0.0
  0
LINE
  5
F1
330
7D
100
AcDbEntity
  8
FIXING
  6
Continuous
 62
     3
100
AcDbLine
 10
25.57277116581949
 20
16.08877971204728
 30
0.0
 11
27.64091277244039
 21
17.87645337213274
 31
0.0
  0
LINE
  5
F2
330
7D
100
AcDbEntity
  8
FIXING
  6
Continuous
 62
     3
100
AcDbLine
 10
27.64091277244039
 20
17.87645337213274
 30
0.0
 11
25.38362967978839
 21
17.05518237567221
 31
0.0
  0
LINE
  5
F3
330
7D
100
AcDbEntity
  8
FIXING
  6
Continuous
 62
     3
100
AcDbLine
 10
25.38362967978839
 20
17.05518237567221
 30
0.0
 11
25.04329144820779
 21
17.32726548452793
 31
0.0
  0
LINE
  5
F4
330
7D
100
AcDbEntity
  8
FIXING
  6
Continuous
 62
     3
100
AcDbLine
 10
25.04329144820779
 20
17.32726548452793
 30
0.0
 11
25.65312396889514
 21
15.55620457458967
 31
0.0
  0
LINE
  5
F5
330
7D
100
AcDbEntity
  8
FIXING
  6
Continuous
 62
     3
100
AcDbLine
 10
21.17740258817536
 20
12.79178140651862
 30
0.0
 11
19.60172917361079
 21
11.88252781668006
 31
0.0
  0
LINE
  5
F6
330
7D
100
AcDbEntity
  8
FIXING
  6
Continuous
 62
     3
100
AcDbLine
 10
19.16856964173171
 20
14.33899413367733
 30
0.0
 11
20.74419546268426
 21
15.24851815807011
 31
0.0
  0
LINE
  5
F7
330
7D
100
AcDbEntity
  8
FIXING
  6
Continuous
 62
     3
100
AcDbLine
 10
18.45810480804106
 20
14.99974332262055
 30
0.0
 11
18.45810480804106
 21
14.99974332262055
 31
0.0
  0
LINE
  5
F8
330
7D
100
AcDbEntity
  8
FIXING
  6
Continuous
 62
     3
100
AcDbLine
 10
18.45810480804106
 20
14.99974332262055
 30
0.0
 11
18.45810480804106
 21
14.99974332262055
 31
0.0
  0
LINE
  5
F9
330
7D
100
AcDbEntity
  8
FIXING
  6
Continuous
 62
     3
100
AcDbLine
 10
6.480217831870103
 20
7.01205213266614
 30
0.0
 11
7.955355504676429
 21
7.863838735206702
 31
0.0
  0
LINE
  5
FA
330
7D
100
AcDbEntity
  8
FIXING
  6
Continuous
 62
     3
100
AcDbLine
 10
7.955355504676429
 20
7.863838735206702
 30
0.0
 11
7.815755223474532
 21
8.855033514999269
 31
0.0
  0
LINE
  5
FB
330
7D
100
AcDbEntity
  8
FIXING
  6
Continuous
 62
     3
100
AcDbLine
 10
8.594951867911735
 20
8.233225337746857
 30
0.0
 11
7.815718620934252
 21
8.854896912458713
 31
0.0
  0
LINE
  5
FC
330
7D
100
AcDbEntity
  8
FIXING
  6
Continuous
 62
     3
100
AcDbLine
 10
7.815718620934252
 20
8.854896912458713
 30
0.0
 11
9.176875746425392
 21
4.790903614023682
 31
0.0
  0
LINE
  5
FD
330
7D
100
AcDbEntity
  8
FIXING
  6
Continuous
 62
     3
100
AcDbLine
 10
9.176875746425392
 20
4.790903614023682
 30
0.0
 11
9.028195595943142
 21
5.776625188735938
 31
0.0
  0
LINE
  5
FE
330
7D
100
AcDbEntity
  8
FIXING
  6
Continuous
 62
     3
100
AcDbLine
 10
9.028195595943142
 20
5.776625188735938
 30
0.0
 11
8.594951867911735
 21
8.233225337746857
 31
0.0
  0
LINE
  5
FF
330
7D
100
AcDbEntity
  8
FIXING
  6
Continuous
 62
     3
100
AcDbLine
 10
7.955342107216836
 20
7.864061940287417
 30
0.0
 11
8.388549232707938
 21
5.407325188735928
 31
0.0
  0
LINE
  5
100
330
7D
100
AcDbEntity
  8
FIXING
  6
Continuous
 62
     3
100
AcDbLine
 10
10.50321006366878
 20
6.628225188735929
 30
0.0
 11
9.028195595943142
 21
5.776625188735938
 31
0.0
  0
LINE
  5
101
330
7D
100
AcDbEntity
  8
FIXING
  6
Continuous
 62
     3
100
AcDbLine
 10
9.028195595943142
 20
5.776625188735938
 30
0.0
 11
10.50321006366878
 21
6.628225188735929
 31
0.0
  0
LINE
  5
102
330
7D
100
AcDbEntity
  8
FIXING
  6
Continuous
 62
     3
100
AcDbLine
 10
10.50321006366878
 20
6.628225188735929
 30
0.0
 11
9.028195595943142
 21
5.776625188735938
 31
0.0
  0
LINE
  5
103
330
7D
100
AcDbEntity
  8
FIXING
  6
Continuous
 62
     3
100
AcDbLine
 10
9.028195595943142
 20
5.776625188735938
 30
0.0
 11
9.176875746425392
 21
4.790903614023682
 31
0.0
  0
LINE
  5
104
330
7D
100
AcDbEntity
  8
FIXING
  6
Continuous
 62
     3
100
AcDbLine
 10
9.176875746425392
 20
4.790903614023682
 30
0.0
 11
8.388699232708014
 21
5.407065381114661
 31
0.0
  0
LINE
  5
105
330
7D
100
AcDbEntity
  8
FIXING
  6
Continuous
 62
     3
100
AcDbLine
 10
17.48694513756929
 20
10.66144121413951
 30
0.0
 11
17.48699513756916
 21
10.66135461159935
 31
0.0
  0
LINE
  5
106
330
7D
100
AcDbEntity
  8
FIXING
  6
Continuous
 62
     3
100
AcDbLine
 10
17.48699513756916
 20
10.66135461159935
 30
0.0
 11
17.48694513756929
 21
10.66144121413951
 31
0.0
  0
LINE
  5
107
330
7D
100
AcDbEntity
  8
FIXING
  6
Continuous
 62
     3
100
AcDbLine
 10
17.48694513756929
 20
10.66144121413951
 30
0.0
 11
17.05378801207803
 21
13.11809136315082
 31
0.0
  0
LINE
  5
108
330
7D
100
AcDbEntity
  8
FIXING
  6
Continuous
 62
     3
100
AcDbLine
 10
17.05378801207803
 20
13.11809136315082
 30
0.0
 11
16.27455476510055
 21
13.73976293786268
 31
0.0
  0
LINE
  5
109
330
7D
100
AcDbEntity
  8
FIXING
  6
Continuous
 62
     3
100
AcDbLine
 10
16.27455476510055
 20
13.73976293786268
 30
0.0
 11
17.63571189059169
 21
9.675769639427646
 31
0.0
  0
LINE
  5
10A
330
7D
100
AcDbEntity
  8
FIXING
  6
Continuous
 62
     3
100
AcDbLine
 10
17.63571189059169
 20
9.675769639427646
 30
0.0
 11
17.48694513756929
 21
10.66144121413951
 31
0.0
  0
LINE
  5
10B
330
7D
100
AcDbEntity
  8
FIXING
  6
Continuous
 62
     3
100
AcDbLine
 10
17.48694513756929
 20
10.66144121413951
 30
0.0
 11
17.05378801207803
 21
13.11809136315082
 31
0.0
  0
LINE
  5
10C
330
7D
100
AcDbEntity
  8
FIXING
  6
Continuous
 62
     3
100
AcDbLine
 10
17.05378801207803
 20
13.11809136315082
 30
0.0
 11
16.27455476510055
 21
13.73976293786268
 31
0.0
  0
LINE
  5
10D
330
7D
100
AcDbEntity
  8
FIXING
  6
Continuous
 62
     3
100
AcDbLine
 10
16.27455476510055
 20
13.73976293786268
 30
0.0
 11
16.41415504630245
 21
12.74856815807011
 31
0.0
  0
LINE
  5
10E
330
7D
100
AcDbEntity
  8
FIXING
  6
Continuous
 62
     3
100
AcDbLine
 10
16.41415504630245
 20
12.74856815807011
 30
0.0
 11
14.93905397603643
 21
11.89691815807012
 31
0.0
  0
LINE
  5
10F
330
7D
100
AcDbEntity
  8
FIXING
  6
Continuous
 62
     3
100
AcDbLine
 10
14.93905397603643
 20
11.89691815807012
 30
0.0
 11
16.41415504630245
 21
12.74856815807011
 31
0.0
  0
LINE
  5
110
330
7D
100
AcDbEntity
  8
FIXING
  6
Continuous
 62
     3
100
AcDbLine
 10
17.05378801207803
 20
13.11809136315082
 30
0.0
 11
17.48694513756929
 21
10.66144121413951
 31
0.0
  0
LINE
  5
111
330
7D
100
AcDbEntity
  8
FIXING
  6
Continuous
 62
     3
100
AcDbLine
 10
17.48694513756929
 20
10.66144121413951
 30
0.0
 11
17.63571189059169
 21
9.675769639427646
 31
0.0
  0
LINE
  5
112
330
7D
100
AcDbEntity
  8
FIXING
  6
Continuous
 62
     3
100
AcDbLine
 10
17.63571189059169
 20
9.675769639427646
 30
0.0
 11
16.27455476510055
 21
13.73976293786268
 31
0.0
  0
LINE
  5
113
330
7D
100
AcDbEntity
  8
FIXING
  6
Continuous
 62
     3
100
AcDbLine
 10
16.27455476510055
 20
13.73976293786268
 30
0.0
 11
16.41415504630245
 21
12.74856815807011
 31
0.0
  0
LINE
  5
114
330
7D
100
AcDbEntity
  8
FIXING
  6
Continuous
 62
     3
100
AcDbLine
 10
16.41415504630245
 20
12.74856815807011
 30
0.0
 11
15.67543537687431
 21
12.32206815807011
 31
0.0
  0
LINE
  5
115
330
7D
100
AcDbEntity
  8
FIXING
  6
Continuous
 62
     3
100
AcDbLine
 10
15.67543537687431
 20
12.32206815807011
 30
0.0
 11
16.41415504630245
 21
12.74856815807011
 31
0.0
  0
LINE
  5
116
330
7D
100
AcDbEntity
  8
FIXING
  6
Continuous
 62
     3
100
AcDbLine
 10
16.41415504630245
 20
12.74856815807011
 30
0.0
 11
16.27455476510055
 21
13.73976293786268
 31
0.0
  0
LINE
  5
117
330
7D
100
AcDbEntity
  8
FIXING
  6
Continuous
 62
     3
100
AcDbLine
 10
16.27455476510055
 20
13.73976293786268
 30
0.0
 11
17.63571189059169
 21
9.675769639427646
 31
0.0
  0
LINE
  5
118
330
7D
100
AcDbEntity
  8
FIXING
  6
Continuous
 62
     3
100
AcDbLine
 10
17.63571189059169
 20
9.675769639427646
 30
0.0
 11
17.48694513756929
 21
10.66144121413951
 31
0.0
  0
LINE
  5
119
330
7D
100
AcDbEntity
  8
FIXING
  6
Continuous
 62
     3
100
AcDbLine
 10
17.48694513756929
 20
10.66144121413951
 30
0.0
 11
17.05378801207803
 21
13.11809136315082
 31
0.0
  0
LINE
  5
11A
330
7D
100
AcDbEntity
  8
FIXING
  6
Continuous
 62
     3
100
AcDbLine
 10
17.05378801207803
 20
13.11809136315082
 30
0.0
 11
16.27455476510055
 21
13.73976293786268
 31
0.0
  0
LINE
  5
11B
330
7D
100
AcDbEntity
  8
FIXING
  6
Continuous
 62
     3
100
AcDbLine
 10
16.27455476510055
 20
13.73976293786268
 30
0.0
 11
16.41415504630245
 21
12.74856815807011
 31
0.0
  0
LINE
  5
11C
330
7D
100
AcDbEntity
  8
FIXING
  6
Continuous
 62
     3
100
AcDbLine
 10
16.41415504630245
 20
12.74856815807011
 30
0.0
 11
14.93905397603643
 21
11.89691815807012
 31
0.0
  0
LINE
  5
11D
330
7D
100
AcDbEntity
  8
FIXING
  6
Continuous
 62
     3
100
AcDbLine
 10
14.73285134083281
 20
9.070671598897366
 30
0.0
 11
15.52102785455016
 21
8.454509831806373
 31
0.0
  0
LINE
  5
11E
330
7D
100
AcDbEntity
  8
FIXING
  6
Continuous
 62
     3
100
AcDbLine
 10
15.52102785455016
 20
8.454509831806373
 30
0.0
 11
14.15978412651866
 21
12.51845313024142
 31
0.0
  0
LINE
  5
11F
330
7D
100
AcDbEntity
  8
FIXING
  6
Continuous
 62
     3
100
AcDbLine
 10
14.15978412651866
 20
12.51845313024142
 30
0.0
 11
14.93910397603653
 21
11.89683155552956
 31
0.0
  0
LINE
  5
120
330
7D
100
AcDbEntity
  8
FIXING
  6
Continuous
 62
     3
100
AcDbLine
 10
14.93910397603653
 20
11.89683155552956
 30
0.0
 11
15.37226110152753
 21
9.440181406518628
 31
0.0
  0
LINE
  5
121
330
7D
100
AcDbEntity
  8
FIXING
  6
Continuous
 62
     3
100
AcDbLine
 10
15.37226110152753
 20
9.440181406518628
 30
0.0
 11
16.84736217179358
 21
10.29183140651864
 31
0.0
  0
LINE
  5
122
330
7D
100
AcDbEntity
  8
FIXING
  6
Continuous
 62
     3
100
AcDbLine
 10
15.37231110152763
 20
9.440094803978074
 30
0.0
 11
15.37226110152753
 21
9.440181406518628
 31
0.0
  0
LINE
  5
123
330
7D
100
AcDbEntity
  8
FIXING
  6
Continuous
 62
     3
100
AcDbLine
 10
15.37226110152753
 20
9.440181406518628
 30
0.0
 11
16.84736217179358
 21
10.29183140651864
 31
0.0
  0
LINE
  5
124
330
7D
100
AcDbEntity
  8
FIXING
  6
Continuous
 62
     3
100
AcDbLine
 10
16.84736217179358
 20
10.29183140651864
 30
0.0
 11
15.37226110152753
 21
9.440181406518628
 31
0.0
  0
LINE
  5
125
330
7D
100
AcDbEntity
  8
FIXING
  6
Continuous
 62
     3
100
AcDbLine
 10
15.37226110152753
 20
9.440181406518628
 30
0.0
 11
15.52102785455016
 21
8.454509831806373
 31
0.0
  0
LINE
  5
126
330
7D
100
AcDbEntity
  8
FIXING
  6
Continuous
 62
     3
100
AcDbLine
 10
16.84753537687431
 20
10.29193140651862
 30
0.0
 11
17.63571189059169
 21
9.675769639427646
 31
0.0
  0
LINE
  5
127
330
7D
100
AcDbEntity
  8
FIXING
  6
Continuous
 62
     3
100
AcDbLine
 10
17.63571189059169
 20
9.675769639427646
 30
0.0
 11
17.48694513756929
 21
10.66144121413951
 31
0.0
  0
LINE
  5
128
330
7D
100
AcDbEntity
  8
FIXING
  6
Continuous
 62
     3
100
AcDbLine
 10
17.48694513756929
 20
10.66144121413951
 30
0.0
 11
17.48699513756916
 21
10.66135461159935
 31
0.0
  0
LINE
  5
129
330
7D
100
AcDbEntity
  8
FIXING
  6
Continuous
 62
     3
100
AcDbLine
 10
17.48699513756916
 20
10.66135461159935
 30
0.0
 11
17.48694513756929
 21
10.66144121413951
 31
0.0
  0
LINE
  5
12A
330
7D
100
AcDbEntity
  8
FIXING
  6
Continuous
 62
     3
100
AcDbLine
 10
17.48694513756929
 20
10.66144121413951
 30
0.0
 11
17.63571189059169
 21
9.675769639427646
 31
0.0
  0
LINE
  5
12B
330
7D
100
AcDbEntity
  8
FIXING
  6
Continuous
 62
     3
100
AcDbLine
 10
17.63571189059169
 20
9.675769639427646
 30
0.0
 11
16.84753537687431
 21
10.29193140651862
 31
0.0
  0
LINE
  5
12C
330
7D
100
AcDbEntity
  8
FIXING
  6
Continuous
 62
     3
100
AcDbLine
 10
18.96204620783531
 20
11.5130912141395
 30
0.0
 11
17.48694513756929
 21
10.66144121413951
 31
0.0
  0
LINE
  5
12D
330
7D
100
AcDbEntity
  8
FIXING
  6
Continuous
 62
     3
100
AcDbLine
 10
17.48694513756929
 20
10.66144121413951
 30
0.0
 11
18.96204620783531
 21
11.5130912141395
 31
0.0
  0
LINE
  5
12E
330
7D
100
AcDbEntity
  8
FIXING
  6
Continuous
 62
     3
100
AcDbLine
 10
18.96204620783531
 20
11.5130912141395
 30
0.0
 11
17.48694513756929
 21
10.66144121413951
 31
0.0
  0
LINE
  5
12F
330
7D
100
AcDbEntity
  8
FIXING
  6
Continuous
 62
     3
100
AcDbLine
 10
17.48694513756929
 20
10.66144121413951
 30
0.0
 11
17.63571189059169
 21
9.675769639427646
 31
0.0
  0
LINE
  5
130
330
7D
100
AcDbEntity
  8
FIXING
  6
Continuous
 62
     3
100
AcDbLine
 10
17.63571189059169
 20
9.675769639427646
 30
0.0
 11
16.84753537687431
 21
10.29193140651862
 31
0.0
  0
LINE
  5
131
330
7D
100
AcDbEntity
  8
FIXING
  6
Continuous
 62
     3
100
AcDbLine
 10
16.84753537687431
 20
10.29193140651862
 30
0.0
 11
17.63571189059169
 21
9.675769639427646
 31
0.0
  0
LINE
  5
132
330
7D
100
AcDbEntity
  8
FIXING
  6
Continuous
 62
     3
100
AcDbLine
 10
17.63571189059169
 20
9.675769639427646
 30
0.0
 11
16.27455476510055
 21
13.73976293786268
 31
0.0
  0
LINE
  5
133
330
7D
100
AcDbEntity
  8
FIXING
  6
Continuous
 62
     3
100
AcDbLine
 10
16.27455476510055
 20
13.73976293786268
 30
0.0
 11
17.05378801207803
 21
13.11809136315082
 31
0.0
  0
LINE
  5
134
330
7D
100
AcDbEntity
  8
FIXING
  6
Continuous
 62
     3
100
AcDbLine
 10
17.05378801207803
 20
13.11809136315082
 30
0.0
 11
17.48694513756929
 21
10.66144121413951
 31
0.0
  0
LINE
  5
135
330
7D
100
AcDbEntity
  8
FIXING
  6
Continuous
 62
     3
100
AcDbLine
 10
17.48694513756929
 20
10.66144121413951
 30
0.0
 11
17.48699513756916
 21
10.66135461159935
 31
0.0
  0
LINE
  5
136
330
7D
100
AcDbEntity
  8
FIXING
  6
Continuous
 62
     3
100
AcDbLine
 10
11.14289302944447
 20
6.997661791276085
 30
0.0
 11
11.14284302944437
 21
6.997748393816639
 31
0.0
  0
LINE
  5
137
330
7D
100
AcDbEntity
  8
FIXING
  6
Continuous
 62
     3
100
AcDbLine
 10
11.14284302944437
 20
6.997748393816639
 30
0.0
 11
12.61794409971041
 21
7.849398393816646
 31
0.0
  0
LINE
  5
138
330
7D
100
AcDbEntity
  8
FIXING
  6
Continuous
 62
     3
100
AcDbLine
 10
12.61794409971041
 20
7.849398393816646
 30
0.0
 11
11.14284302944437
 21
6.997748393816639
 31
0.0
  0
LINE
  5
139
330
7D
100
AcDbEntity
  8
FIXING
  6
Continuous
 62
     3
100
AcDbLine
 10
11.14284302944437
 20
6.997748393816639
 30
0.0
 11
11.29160978246679
 21
6.012076819104793
 31
0.0
  0
LINE
  5
13A
330
7D
100
AcDbEntity
  8
FIXING
  6
Continuous
 62
     3
100
AcDbLine
 10
12.61811730479118
 20
7.849498393816649
 30
0.0
 11
13.40629381850853
 21
7.233336626725656
 31
0.0
  0
LINE
  5
13B
330
7D
100
AcDbEntity
  8
FIXING
  6
Continuous
 62
     3
100
AcDbLine
 10
13.40629381850853
 20
7.233336626725656
 30
0.0
 11
13.2575270654859
 21
8.21900820143791
 31
0.0
  0
LINE
  5
13C
330
7D
100
AcDbEntity
  8
FIXING
  6
Continuous
 62
     3
100
AcDbLine
 10
13.2575270654859
 20
8.21900820143791
 30
0.0
 11
13.257577065486
 21
8.218921598897357
 31
0.0
  0
LINE
  5
13D
330
7D
100
AcDbEntity
  8
FIXING
  6
Continuous
 62
     3
100
AcDbLine
 10
13.257577065486
 20
8.218921598897357
 30
0.0
 11
13.2575270654859
 21
8.21900820143791
 31
0.0
  0
LINE
  5
13E
330
7D
100
AcDbEntity
  8
FIXING
  6
Continuous
 62
     3
100
AcDbLine
 10
13.2575270654859
 20
8.21900820143791
 30
0.0
 11
13.40629381850853
 21
7.233336626725656
 31
0.0
  0
LINE
  5
13F
330
7D
100
AcDbEntity
  8
FIXING
  6
Continuous
 62
     3
100
AcDbLine
 10
13.40629381850853
 20
7.233336626725656
 30
0.0
 11
12.61811730479118
 21
7.849498393816649
 31
0.0
  0
LINE
  5
140
330
7D
100
AcDbEntity
  8
FIXING
  6
Continuous
 62
     3
100
AcDbLine
 10
15.37231110152763
 20
9.440094803978074
 30
0.0
 11
15.37234770406791
 21
9.44023140651863
 31
0.0
  0
LINE
  5
141
330
7D
100
AcDbEntity
  8
FIXING
  6
Continuous
 62
     3
100
AcDbLine
 10
15.37234770406791
 20
9.44023140651863
 30
0.0
 11
14.93910397603653
 21
11.89683155552956
 31
0.0
  0
LINE
  5
142
330
7D
100
AcDbEntity
  8
FIXING
  6
Continuous
 62
     3
100
AcDbLine
 10
14.93910397603653
 20
11.89683155552956
 30
0.0
 11
14.15987072905902
 21
12.51850313024141
 31
0.0
  0
LINE
  5
143
330
7D
100
AcDbEntity
  8
FIXING
  6
Continuous
 62
     3
100
AcDbLine
 10
14.15987072905902
 20
12.51850313024141
 30
0.0
 11
15.52102785455016
 21
8.454509831806373
 31
0.0
  0
LINE
  5
144
330
7D
100
AcDbEntity
  8
FIXING
  6
Continuous
 62
     3
100
AcDbLine
 10
15.52102785455016
 20
8.454509831806373
 30
0.0
 11
14.7328013408327
 21
9.07075820143792
 31
0.0
  0
LINE
  5
145
330
7D
100
AcDbEntity
  8
FIXING
  6
Continuous
 62
     3
100
AcDbLine
 10
14.7328013408327
 20
9.07075820143792
 30
0.0
 11
15.52102785455016
 21
8.454509831806373
 31
0.0
  0
LINE
  5
146
330
7D
100
AcDbEntity
  8
FIXING
  6
Continuous
 62
     3
100
AcDbLine
 10
12.82436993999489
 20
10.67565835044885
 30
0.0
 11
14.29947101026091
 21
11.52730835044884
 31
0.0
  0
LINE
  5
147
330
7D
100
AcDbEntity
  8
FIXING
  6
Continuous
 62
     3
100
AcDbLine
 10
14.29947101026091
 20
11.52730835044884
 30
0.0
 11
14.15987072905902
 21
12.51850313024141
 31
0.0
  0
LINE
  5
148
330
7D
100
AcDbEntity
  8
FIXING
  6
Continuous
 62
     3
100
AcDbLine
 10
14.15987072905902
 20
12.51850313024141
 30
0.0
 11
15.52102785455016
 21
8.454509831806373
 31
0.0
  0
LINE
  5
149
330
7D
100
AcDbEntity
  8
FIXING
  6
Continuous
 62
     3
100
AcDbLine
 10
15.52102785455016
 20
8.454509831806373
 30
0.0
 11
15.37234770406791
 21
9.44023140651863
 31
0.0
  0
LINE
  5
14A
330
7D
100
AcDbEntity
  8
FIXING
  6
Continuous
 62
     3
100
AcDbLine
 10
15.37234770406791
 20
9.44023140651863
 30
0.0
 11
14.93910397603653
 21
11.89683155552956
 31
0.0
  0
LINE
  5
14B
330
7D
100
AcDbEntity
  8
FIXING
  6
Continuous
 62
     3
100
AcDbLine
 10
14.29947101026091
 20
11.52730835044884
 30
0.0
 11
14.15987072905902
 21
12.51850313024141
 31
0.0
  0
LINE
  5
14C
330
7D
100
AcDbEntity
  8
FIXING
  6
Continuous
 62
     3
100
AcDbLine
 10
14.15987072905902
 20
12.51850313024141
 30
0.0
 11
14.93910397603653
 21
11.89683155552956
 31
0.0
  0
LINE
  5
14D
330
7D
100
AcDbEntity
  8
FIXING
  6
Continuous
 62
     3
100
AcDbLine
 10
14.93910397603653
 20
11.89683155552956
 30
0.0
 11
15.37234770406791
 21
9.44023140651863
 31
0.0
  0
LINE
  5
14E
330
7D
100
AcDbEntity
  8
FIXING
  6
Continuous
 62
     3
100
AcDbLine
 10
15.37234770406791
 20
9.44023140651863
 30
0.0
 11
15.52102785455016
 21
8.454509831806373
 31
0.0
  0
LINE
  5
14F
330
7D
100
AcDbEntity
  8
FIXING
  6
Continuous
 62
     3
100
AcDbLine
 10
15.52102785455016
 20
8.454509831806373
 30
0.0
 11
14.15987072905902
 21
12.51850313024141
 31
0.0
  0
LINE
  5
150
330
7D
100
AcDbEntity
  8
FIXING
  6
Continuous
 62
     3
100
AcDbLine
 10
14.15987072905902
 20
12.51850313024141
 30
0.0
 11
14.93910397603653
 21
11.89683155552956
 31
0.0
  0
LINE
  5
151
330
7D
100
AcDbEntity
  8
FIXING
  6
Continuous
 62
     3
100
AcDbLine
 10
14.93910397603653
 20
11.89683155552956
 30
0.0
 11
15.37234770406791
 21
9.44023140651863
 31
0.0
  0
LINE
  5
152
330
7D
100
AcDbEntity
  8
FIXING
  6
Continuous
 62
     3
100
AcDbLine
 10
15.37234770406791
 20
9.44023140651863
 30
0.0
 11
15.37231110152763
 21
9.440094803978074
 31
0.0
  0
LINE
  5
153
330
7D
100
AcDbEntity
  8
FIXING
  6
Continuous
 62
     3
100
AcDbLine
 10
10.50343326874965
 20
6.628238586195378
 30
0.0
 11
11.29160978246679
 21
6.012076819104793
 31
0.0
  0
LINE
  5
154
330
7D
100
AcDbEntity
  8
FIXING
  6
Continuous
 62
     3
100
AcDbLine
 10
11.29160978246679
 20
6.012076819104793
 30
0.0
 11
9.930366054435275
 21
10.07602011753982
 31
0.0
  0
LINE
  5
155
330
7D
100
AcDbEntity
  8
FIXING
  6
Continuous
 62
     3
100
AcDbLine
 10
9.930366054435275
 20
10.07602011753982
 30
0.0
 11
10.70968590395336
 21
9.454398542827574
 31
0.0
  0
LINE
  5
156
330
7D
100
AcDbEntity
  8
FIXING
  6
Continuous
 62
     3
100
AcDbLine
 10
10.70968590395336
 20
9.454398542827574
 30
0.0
 11
11.14284302944437
 21
6.997748393816639
 31
0.0
  0
LINE
  5
157
330
7D
100
AcDbEntity
  8
FIXING
  6
Continuous
 62
     3
100
AcDbLine
 10
11.14284302944437
 20
6.997748393816639
 30
0.0
 11
12.61794409971041
 21
7.849398393816646
 31
0.0
  0
LINE
  5
158
330
7D
100
AcDbEntity
  8
FIXING
  6
Continuous
 62
     3
100
AcDbLine
 10
12.82436993999489
 20
10.67565835044885
 30
0.0
 11
13.2575270654859
 21
8.21900820143791
 31
0.0
  0
LINE
  5
159
330
7D
100
AcDbEntity
  8
FIXING
  6
Continuous
 62
     3
100
AcDbLine
 10
13.2575270654859
 20
8.21900820143791
 30
0.0
 11
13.40629381850853
 21
7.233336626725656
 31
0.0
  0
LINE
  5
15A
330
7D
100
AcDbEntity
  8
FIXING
  6
Continuous
 62
     3
100
AcDbLine
 10
13.40629381850853
 20
7.233336626725656
 30
0.0
 11
12.04513669301741
 21
11.2973299251607
 31
0.0
  0
LINE
  5
15B
330
7D
100
AcDbEntity
  8
FIXING
  6
Continuous
 62
     3
100
AcDbLine
 10
12.04513669301741
 20
11.2973299251607
 30
0.0
 11
12.18473697421931
 21
10.30613514536813
 31
0.0
  0
LINE
  5
15C
330
7D
100
AcDbEntity
  8
FIXING
  6
Continuous
 62
     3
100
AcDbLine
 10
12.18473697421931
 20
10.30613514536813
 30
0.0
 11
11.44601730479117
 21
9.87963514536813
 31
0.0
  0
LINE
  5
15D
330
7D
100
AcDbEntity
  8
FIXING
  6
Continuous
 62
     3
100
AcDbLine
 10
11.44601730479117
 20
9.87963514536813
 30
0.0
 11
12.18473697421931
 21
10.30613514536813
 31
0.0
  0
LINE
  5
15E
330
7D
100
AcDbEntity
  8
FIXING
  6
Continuous
 62
     3
100
AcDbLine
 10
12.18473697421931
 20
10.30613514536813
 30
0.0
 11
12.04513669301741
 21
11.2973299251607
 31
0.0
  0
LINE
  5
15F
330
7D
100
AcDbEntity
  8
FIXING
  6
Continuous
 62
     3
100
AcDbLine
 10
12.04513669301741
 20
11.2973299251607
 30
0.0
 11
13.40629381850853
 21
7.233336626725656
 31
0.0
  0
LINE
  5
160
330
7D
100
AcDbEntity
  8
FIXING
  6
Continuous
 62
     3
100
AcDbLine
 10
13.40629381850853
 20
7.233336626725656
 30
0.0
 11
13.2575270654859
 21
8.21900820143791
 31
0.0
  0
LINE
  5
161
330
7D
100
AcDbEntity
  8
FIXING
  6
Continuous
 62
     3
100
AcDbLine
 10
13.2575270654859
 20
8.21900820143791
 30
0.0
 11
12.82436993999489
 21
10.67565835044885
 31
0.0
  0
LINE
  5
162
330
7D
100
AcDbEntity
  8
FIXING
  6
Continuous
 62
     3
100
AcDbLine
 10
12.82436993999489
 20
10.67565835044885
 30
0.0
 11
12.04513669301741
 21
11.2973299251607
 31
0.0
  0
LINE
  5
163
330
7D
100
AcDbEntity
  8
FIXING
  6
Continuous
 62
     3
100
AcDbLine
 10
12.04513669301741
 20
11.2973299251607
 30
0.0
 11
12.18473697421931
 21
10.30613514536813
 31
0.0
  0
LINE
  5
164
330
7D
100
AcDbEntity
  8
FIXING
  6
Continuous
 62
     3
100
AcDbLine
 10
12.18473697421931
 20
10.30613514536813
 30
0.0
 11
10.70963590395326
 21
9.454485145368128
 31
0.0
  0
LINE
  5
165
330
7D
100
AcDbEntity
  8
FIXING
  6
Continuous
 62
     3
100
AcDbLine
 10
13.2575270654859
 20
8.21900820143791
 30
0.0
 11
13.257577065486
 21
8.218921598897357
 31
0.0
  0
LINE
  5
166
330
7D
100
AcDbEntity
  8
FIXING
  6
Continuous
 62
     3
100
AcDbLine
 10
13.257577065486
 20
8.218921598897357
 30
0.0
 11
13.2575270654859
 21
8.21900820143791
 31
0.0
  0
LINE
  5
167
330
7D
100
AcDbEntity
  8
FIXING
  6
Continuous
 62
     3
100
AcDbLine
 10
13.2575270654859
 20
8.21900820143791
 30
0.0
 11
12.82436993999489
 21
10.67565835044885
 31
0.0
  0
LINE
  5
168
330
7D
100
AcDbEntity
  8
FIXING
  6
Continuous
 62
     3
100
AcDbLine
 10
12.82436993999489
 20
10.67565835044885
 30
0.0
 11
12.04513669301741
 21
11.2973299251607
 31
0.0
  0
LINE
  5
169
330
7D
100
AcDbEntity
  8
FIXING
  6
Continuous
 62
     3
100
AcDbLine
 10
12.04513669301741
 20
11.2973299251607
 30
0.0
 11
13.40629381850853
 21
7.233336626725656
 31
0.0
  0
LINE
  5
16A
330
7D
100
AcDbEntity
  8
FIXING
  6
Continuous
 62
     3
100
AcDbLine
 10
13.40629381850853
 20
7.233336626725656
 30
0.0
 11
13.2575270654859
 21
8.21900820143791
 31
0.0
  0
LINE
  5
16B
330
7D
100
AcDbEntity
  8
FIXING
  6
Continuous
 62
     3
100
AcDbLine
 10
13.2575270654859
 20
8.21900820143791
 30
0.0
 11
12.82436993999489
 21
10.67565835044885
 31
0.0
  0
LINE
  5
16C
330
7D
100
AcDbEntity
  8
FIXING
  6
Continuous
 62
     3
100
AcDbLine
 10
12.82436993999489
 20
10.67565835044885
 30
0.0
 11
12.04513669301741
 21
11.2973299251607
 31
0.0
  0
LINE
  5
16D
330
7D
100
AcDbEntity
  8
FIXING
  6
Continuous
 62
     3
100
AcDbLine
 10
12.04513669301741
 20
11.2973299251607
 30
0.0
 11
12.18473697421931
 21
10.30613514536813
 31
0.0
  0
LINE
  5
16E
330
7D
100
AcDbEntity
  8
FIXING
  6
Continuous
 62
     3
100
AcDbLine
 10
12.18473697421931
 20
10.30613514536813
 30
0.0
 11
10.70963590395326
 21
9.454485145368128
 31
0.0
  0
LINE
  5
16F
330
7D
100
AcDbEntity
  8
FIXING
  6
Continuous
 62
     3
100
AcDbLine
 10
10.70963590395326
 20
9.454485145368128
 30
0.0
 11
12.18473697421931
 21
10.30613514536813
 31
0.0
  0
LINE
  5
170
330
7D
100
AcDbEntity
  8
FIXING
  6
Continuous
 62
     3
100
AcDbLine
 10
14.73262813575194
 20
9.070658201437917
 30
0.0
 11
13.2575270654859
 21
8.21900820143791
 31
0.0
  0
LINE
  5
171
330
7D
100
AcDbEntity
  8
FIXING
  6
Continuous
 62
     3
100
AcDbLine
 10
13.2575270654859
 20
8.21900820143791
 30
0.0
 11
14.73262813575194
 21
9.070658201437917
 31
0.0
  0
LINE
  5
172
330
7D
100
AcDbEntity
  8
FIXING
  6
Continuous
 62
     3
100
AcDbLine
 10
14.73262813575194
 20
9.070658201437917
 30
0.0
 11
13.2575270654859
 21
8.21900820143791
 31
0.0
  0
LINE
  5
173
330
7D
100
AcDbEntity
  8
FIXING
  6
Continuous
 62
     3
100
AcDbLine
 10
13.2575270654859
 20
8.21900820143791
 30
0.0
 11
13.40629381850853
 21
7.233336626725656
 31
0.0
  0
LINE
  5
174
330
7D
100
AcDbEntity
  8
FIXING
  6
Continuous
 62
     3
100
AcDbLine
 10
13.40629381850853
 20
7.233336626725656
 30
0.0
 11
12.61811730479118
 21
7.849498393816649
 31
0.0
  0
LINE
  5
175
330
7D
100
AcDbEntity
  8
FIXING
  6
Continuous
 62
     3
100
AcDbLine
 10
12.61811730479118
 20
7.849498393816649
 30
0.0
 11
13.40629381850853
 21
7.233336626725656
 31
0.0
  0
LINE
  5
176
330
7D
100
AcDbEntity
  8
FIXING
  6
Continuous
 62
     3
100
AcDbLine
 10
13.40629381850853
 20
7.233336626725656
 30
0.0
 11
12.04513669301741
 21
11.2973299251607
 31
0.0
  0
LINE
  5
177
330
7D
100
AcDbEntity
  8
FIXING
  6
Continuous
 62
     3
100
AcDbLine
 10
12.04513669301741
 20
11.2973299251607
 30
0.0
 11
12.82436993999489
 21
10.67565835044885
 31
0.0
  0
LINE
  5
178
330
7D
100
AcDbEntity
  8
FIXING
  6
Continuous
 62
     3
100
AcDbLine
 10
12.82436993999489
 20
10.67565835044885
 30
0.0
 11
13.2575270654859
 21
8.21900820143791
 31
0.0
  0
LINE
  5
179
330
7D
100
AcDbEntity
  8
FIXING
  6
Continuous
 62
     3
100
AcDbLine
 10
13.2575270654859
 20
8.21900820143791
 30
0.0
 11
13.257577065486
 21
8.218921598897357
 31
0.0
  0
LINE
  5
17A
330
7D
100
AcDbEntity
  8
FIXING
  6
Continuous
 62
     3
100
AcDbLine
 10
13.56075134083281
 20
11.10080835044885
 30
0.0
 11
14.29947101026091
 21
11.52730835044884
 31
0.0
  0
LINE
  5
17B
330
7D
100
AcDbEntity
  8
FIXING
  6
Continuous
 62
     3
100
AcDbLine
 10
14.29947101026091
 20
11.52730835044884
 30
0.0
 11
12.82436993999489
 21
10.67565835044885
 31
0.0
  0
LINE
  5
17C
330
7D
100
AcDbEntity
  8
FIXING
  6
Continuous
 62
     3
100
AcDbLine
 10
12.82436993999489
 20
10.67565835044885
 30
0.0
 11
14.29947101026091
 21
11.52730835044884
 31
0.0
  0
LINE
  5
17D
330
7D
100
AcDbEntity
  8
FIXING
  6
Continuous
 62
     3
100
AcDbLine
 10
14.29947101026091
 20
11.52730835044884
 30
0.0
 11
13.56075134083281
 21
11.10080835044885
 31
0.0
  0
LINE
  5
17E
330
7D
100
AcDbEntity
  8
FIXING
  6
Continuous
 62
     3
100
AcDbLine
 10
15.67543537687431
 20
12.32206815807011
 30
0.0
 11
16.41415504630245
 21
12.74856815807011
 31
0.0
  0
LINE
  5
17F
330
7D
100
AcDbEntity
  8
FIXING
  6
Continuous
 62
     3
100
AcDbLine
 10
16.41415504630245
 20
12.74856815807011
 30
0.0
 11
14.93905397603643
 21
11.89691815807012
 31
0.0
  0
LINE
  5
180
330
7D
100
AcDbEntity
  8
FIXING
  6
Continuous
 62
     3
100
AcDbLine
 10
14.93905397603643
 20
11.89691815807012
 30
0.0
 11
16.41415504630245
 21
12.74856815807011
 31
0.0
  0
LINE
  5
181
330
7D
100
AcDbEntity
  8
FIXING
  6
Continuous
 62
     3
100
AcDbLine
 10
16.41415504630245
 20
12.74856815807011
 30
0.0
 11
15.67543537687431
 21
12.32206815807011
 31
0.0
  0
LINE
  5
182
330
7D
100
AcDbEntity
  8
FIXING
  6
Continuous
 62
     3
100
AcDbLine
 10
16.41422825138324
 20
12.74884136315083
 30
0.0
 11
16.84734877433396
 21
10.29205461159934
 31
0.0
  0
LINE
  5
183
330
7D
100
AcDbEntity
  8
FIXING
  6
Continuous
 62
     3
100
AcDbLine
 10
16.84734877433396
 20
10.29205461159934
 30
0.0
 11
16.41422825138324
 21
12.74884136315083
 31
0.0
  0
LINE
  5
184
330
7D
100
AcDbEntity
  8
FIXING
  6
Continuous
 62
     3
100
AcDbLine
 10
16.41422825138324
 20
12.74884136315083
 30
0.0
 11
16.84734877433396
 21
10.29205461159934
 31
0.0
  0
LINE
  5
185
330
7D
100
AcDbEntity
  8
FIXING
  6
Continuous
 62
     3
100
AcDbLine
 10
14.2286867359579
 20
12.55731030991856
 30
0.0
 11
14.2286867359579
 21
12.55731030991856
 31
0.0
  0
LINE
  5
186
330
7D
100
AcDbEntity
  8
FIXING
  6
Continuous
 62
     3
100
AcDbLine
 10
14.2286867359579
 20
12.55731030991856
 30
0.0
 11
14.2286867359579
 21
12.55731030991856
 31
0.0
  0
LINE
  5
187
330
7D
100
AcDbEntity
  8
FIXING
  6
Continuous
 62
     3
100
AcDbLine
 10
14.2995442153417
 20
11.52758155552955
 30
0.0
 11
14.73275134083283
 21
9.07084480397808
 31
0.0
  0
LINE
  5
188
330
7D
100
AcDbEntity
  8
FIXING
  6
Continuous
 62
     3
100
AcDbLine
 10
14.73275134083283
 20
9.07084480397808
 30
0.0
 11
14.2995442153417
 21
11.52758155552955
 31
0.0
  0
LINE
  5
189
330
7D
100
AcDbEntity
  8
FIXING
  6
Continuous
 62
     3
100
AcDbLine
 10
7.815718620934252
 20
8.854896912458713
 30
0.0
 11
7.955318902136149
 21
7.863702132666146
 31
0.0
  0
LINE
  5
18A
330
7D
100
AcDbEntity
  8
FIXING
  6
Continuous
 62
     3
100
AcDbLine
 10
9.930366054435275
 20
10.07602011753982
 30
0.0
 11
10.07005293817778
 21
9.084875337746864
 31
0.0
  0
LINE
  5
18B
330
7D
100
AcDbEntity
  8
FIXING
  6
Continuous
 62
     3
100
AcDbLine
 10
11.44601730479117
 20
9.87963514536813
 30
0.0
 11
12.18473697421931
 21
10.30613514536813
 31
0.0
  0
LINE
  5
18C
330
7D
100
AcDbEntity
  8
FIXING
  6
Continuous
 62
     3
100
AcDbLine
 10
12.18473697421931
 20
10.30613514536813
 30
0.0
 11
10.70963590395326
 21
9.454485145368128
 31
0.0
  0
LINE
  5
18D
330
7D
100
AcDbEntity
  8
FIXING
  6
Continuous
 62
     3
100
AcDbLine
 10
10.70963590395326
 20
9.454485145368128
 30
0.0
 11
12.18473697421931
 21
10.30613514536813
 31
0.0
  0
LINE
  5
18E
330
7D
100
AcDbEntity
  8
FIXING
  6
Continuous
 62
     3
100
AcDbLine
 10
12.18473697421931
 20
10.30613514536813
 30
0.0
 11
11.44601730479117
 21
9.87963514536813
 31
0.0
  0
LINE
  5
18F
330
7D
100
AcDbEntity
  8
FIXING
  6
Continuous
 62
     3
100
AcDbLine
 10
10.07003954071816
 20
9.085098542827565
 30
0.0
 11
10.50324666620929
 21
6.62836179127609
 31
0.0
  0
LINE
  5
190
330
7D
100
AcDbEntity
  8
FIXING
  6
Continuous
 62
     3
100
AcDbLine
 10
12.18481017930007
 20
10.30640835044884
 30
0.0
 11
12.61793070225082
 21
7.849621598897361
 31
0.0
  0
LINE
  5
191
330
7D
100
AcDbEntity
  8
FIXING
  6
Continuous
 62
     3
100
AcDbLine
 10
12.61793070225082
 20
7.849621598897361
 30
0.0
 11
12.18481017930007
 21
10.30640835044884
 31
0.0
  0
LINE
  5
192
330
7D
100
AcDbEntity
  8
FIXING
  6
Continuous
 62
     3
100
AcDbLine
 10
12.18481017930007
 20
10.30640835044884
 30
0.0
 11
12.61793070225082
 21
7.849621598897361
 31
0.0
  0
LINE
  5
193
330
7D
100
AcDbEntity
  8
FIXING
  6
Continuous
 62
     3
100
AcDbLine
 10
8.594951867911735
 20
8.233225337746857
 30
0.0
 11
10.07005293817778
 21
9.084875337746864
 31
0.0
  0
LINE
  5
194
330
7D
100
AcDbEntity
  8
FIXING
  6
Continuous
 62
     3
100
AcDbLine
 10
10.07005293817778
 20
9.084875337746864
 30
0.0
 11
9.331333268749646
 21
8.65837533774686
 31
0.0
  0
LINE
  5
195
330
7D
100
AcDbEntity
  8
FIXING
  6
Continuous
 62
     3
100
AcDbLine
 10
9.176912348965647
 20
4.791040216564223
 30
0.0
 11
8.388735835248294
 21
5.407201983655217
 31
0.0
  0
LINE
  5
196
330
7D
100
AcDbEntity
  8
FIXING
  6
Continuous
 62
     3
100
AcDbLine
 10
7.06217831292404
 20
3.569867011483518
 30
0.0
 11
6.27400179920669
 21
4.186028778574512
 31
0.0
  0
LINE
  5
197
330
7D
100
AcDbEntity
  8
FIXING
  6
Continuous
 62
     3
100
AcDbLine
 10
8.388512630167682
 20
5.407188586195387
 30
0.0
 11
6.913498162441996
 21
4.555588586195366
 31
0.0
  0
LINE
  5
198
330
7D
100
AcDbEntity
  8
FIXING
  6
Continuous
 62
     3
100
AcDbLine
 10
6.913498162441996
 20
4.555588586195366
 30
0.0
 11
8.388512630167682
 21
5.407188586195387
 31
0.0
  0
LINE
  5
199
330
7D
100
AcDbEntity
  8
FIXING
  6
Continuous
 62
     3
100
AcDbLine
 10
8.388512630167682
 20
5.407188586195387
 30
0.0
 11
6.913498162441996
 21
4.555588586195366
 31
0.0
  0
LINE
  5
19A
330
7D
100
AcDbEntity
  8
FIXING
  6
Continuous
 62
     3
100
AcDbLine
 10
6.913498162441996
 20
4.555588586195366
 30
0.0
 11
7.06217831292404
 21
3.569867011483518
 31
0.0
  0
LINE
  5
19B
330
7D
100
AcDbEntity
  8
FIXING
  6
Continuous
 62
     3
100
AcDbLine
 10
7.06217831292404
 20
3.569867011483518
 30
0.0
 11
6.27400179920669
 21
4.186028778574512
 31
0.0
  0
LINE
  5
19C
330
7D
100
AcDbEntity
  8
FIXING
  6
Continuous
 62
     3
100
AcDbLine
 10
2.393660367717349
 20
5.141577288628596
 30
0.0
 11
1.623662075735297
 21
5.586253452082754
 31
0.0
  0
LINE
  5
19D
330
7D
100
AcDbEntity
  8
FIXING
  6
Continuous
 62
     3
100
AcDbLine
 10
1.623662075735297
 20
5.586253452082754
 30
0.0
 11
3.989348678275512
 21
1.488964061698052
 31
0.0
  0
LINE
  5
19E
330
7D
100
AcDbEntity
  8
FIXING
  6
Continuous
 62
     3
100
AcDbLine
 10
3.989348678275512
 20
1.488964061698052
 30
0.0
 11
3.639598007499902
 21
0.1839499934627113
 31
0.0
  0
LINE
  5
19F
330
7D
100
AcDbEntity
  8
FIXING
  6
Continuous
 62
     3
100
AcDbLine
 10
3.639598007499902
 20
0.1839499934627113
 30
0.0
 11
0.3186114049596078
 21
5.9358675203181
 31
0.0
  0
LINE
  5
1A0
330
7D
100
AcDbEntity
  8
FIXING
  6
Continuous
 62
     3
100
AcDbLine
 10
0.1433648530465454
 20
4.731603452082748
 30
0.0
 11
2.509051455586786
 21
0.6343140616980598
 31
0.0
  0
LINE
  5
1A1
330
7D
100
AcDbEntity
  8
FIXING
  6
Continuous
 62
     3
100
AcDbLine
 10
2.509051455586786
 20
0.6343140616980598
 30
0.0
 11
3.320987261447616
 21
-0.0000000065372845
 31
0.0
  0
LINE
  5
1A2
330
7D
100
AcDbEntity
  8
FIXING
  6
Continuous
 62
     3
100
AcDbLine
 10
3.320987261447616
 20
-0.0000000065372845
 30
0.0
 11
0.0000006589072967
 21
5.75191752031809
 31
0.0
  0
LINE
  5
1A3
330
7D
100
AcDbEntity
  8
FIXING
  6
Continuous
 62
     3
100
AcDbLine
 10
2.509051455586786
 20
0.6343140616980598
 30
0.0
 11
0.1433648530465454
 21
4.731603452082748
 31
0.0
  0
LINE
  5
1A4
330
7D
100
AcDbEntity
  8
FIXING
  6
Continuous
 62
     3
100
AcDbLine
 10
0.1433648530465454
 20
4.731603452082748
 30
0.0
 11
0.0000006589072967
 21
5.75191752031809
 31
0.0
  0
LINE
  5
1A5
330
7D
100
AcDbEntity
  8
FIXING
  6
Continuous
 62
     3
100
AcDbLine
 10
0.0000006589072967
 20
5.75191752031809
 30
0.0
 11
0.3186114049596078
 21
5.9358675203181
 31
0.0
  0
LINE
  5
1A6
330
7D
100
AcDbEntity
  8
FIXING
  6
Continuous
 62
     3
100
AcDbLine
 10
0.3186114049596078
 20
5.9358675203181
 30
0.0
 11
1.623662075735297
 21
5.586253452082754
 31
0.0
  0
LINE
  5
1A7
330
7D
100
AcDbEntity
  8
FIXING
  6
Continuous
 62
     3
100
AcDbLine
 10
1.623662075735297
 20
5.586253452082754
 30
0.0
 11
3.989348678275512
 21
1.488964061698052
 31
0.0
  0
LINE
  5
1A8
330
7D
100
AcDbEntity
  8
FIXING
  6
Continuous
 62
     3
100
AcDbLine
 10
3.989348678275512
 20
1.488964061698052
 30
0.0
 11
3.989260367717453
 21
2.377917020071516
 31
0.0
  0
LINE
  5
1A9
330
7D
100
AcDbEntity
  8
FIXING
  6
Continuous
 62
     3
100
AcDbLine
 10
6.480217831870103
 20
7.01205213266614
 30
0.0
 11
5.700984584892648
 21
7.63372370737801
 31
0.0
  0
LINE
  5
1AA
330
7D
100
AcDbEntity
  8
FIXING
  6
Continuous
 62
     3
100
AcDbLine
 10
5.700984584892648
 20
7.63372370737801
 30
0.0
 11
7.062141710383759
 21
3.569730408942963
 31
0.0
  0
LINE
  5
1AB
330
7D
100
AcDbEntity
  8
FIXING
  6
Continuous
 62
     3
100
AcDbLine
 10
7.062141710383759
 20
3.569730408942963
 30
0.0
 11
6.913461559901513
 21
4.555451983655219
 31
0.0
  0
LINE
  5
1AC
330
7D
100
AcDbEntity
  8
FIXING
  6
Continuous
 62
     3
100
AcDbLine
 10
6.913461559901513
 20
4.555451983655219
 30
0.0
 11
6.480217831870103
 21
7.01205213266614
 31
0.0
  0
ARC
  5
1AD
330
7D
100
AcDbEntity
  8
FIXING
  6
Continuous
 62
     3
100
AcDbCircle
 10
4.379973364358019
 20
2.377982258712525
 30
0.0
 40
0.3907
100
AcDbArc
 50
120.0
 51
180.0
  0
ARC
  5
1AE
330
7D
100
AcDbEntity
  8
FIXING
  6
Continuous
 62
     3
100
AcDbCircle
 10
4.379973364358019
 20
2.377982258712525
 30
0.0
 40
0.3907
100
AcDbArc
 50
120.0
 51
180.0
  0
ARC
  5
1AF
330
7D
100
AcDbEntity
  8
FIXING
  6
Continuous
 62
     3
100
AcDbCircle
 10
2.589023364357953
 20
5.479998652528121
 30
0.0
 40
0.3907
100
AcDbArc
 50
240.0004999999992
 51
299.9999999999998
  0
ARC
  5
1B0
330
7D
100
AcDbEntity
  8
FIXING
  6
Continuous
 62
     3
100
AcDbCircle
 10
2.589023364357953
 20
5.479998652528121
 30
0.0
 40
0.3907
100
AcDbArc
 50
240.0004999999992
 51
299.9999999999998
  0
LINE
  5
1B1
330
7D
100
AcDbEntity
  8
FIXING
  6
Continuous
 62
     3
100
AcDbLine
 10
8.092557696120618
 20
6.444597568715569
 30
0.0
 11
8.092557696120618
 21
6.444597568715569
 31
0.0
  0
LINE
  5
1B2
330
7D
100
AcDbEntity
  8
FIXING
  6
Continuous
 62
     3
100
AcDbLine
 10
9.028145595943268
 20
5.776711791276098
 30
0.0
 11
9.028195595943142
 21
5.776625188735938
 31
0.0
  0
LINE
  5
1B3
330
7D
100
AcDbEntity
  8
FIXING
  6
Continuous
 62
     3
100
AcDbLine
 10
9.028195595943142
 20
5.776625188735938
 30
0.0
 11
9.028158993402837
 21
5.776488586195368
 31
0.0
  0
LINE
  5
1B4
330
7D
100
AcDbEntity
  8
FIXING
  6
Continuous
 62
     3
100
AcDbLine
 10
6.913461559901513
 20
4.555451983655219
 30
0.0
 11
6.913424957361233
 21
4.555315381114664
 31
0.0
  0
LINE
  5
1B5
330
7D
100
AcDbEntity
  8
FIXING
  6
Continuous
 62
     3
100
AcDbLine
 10
6.91341155990164
 20
4.555538586195379
 30
0.0
 11
6.913461559901513
 21
4.555451983655219
 31
0.0
  0
LINE
  5
1B6
330
7D
100
AcDbEntity
  8
FIXING
  6
Continuous
 62
     3
100
AcDbLine
 10
5.97782366007899
 20
5.22342436363485
 30
0.0
 11
5.97782366007899
 21
5.22342436363485
 31
0.0
  0
LINE
  5
1B7
330
7D
100
AcDbEntity
  8
FIXING
  6
Continuous
 62
     3
100
AcDbLine
 10
5.700984584892648
 20
7.63372370737801
 30
0.0
 11
5.840584866094517
 21
6.642528927585428
 31
0.0
  0
LINE
  5
1B8
330
7D
100
AcDbEntity
  8
FIXING
  6
Continuous
 62
     3
100
AcDbLine
 10
5.10190179920669
 20
6.216165530125993
 30
0.0
 11
5.840621468634797
 21
6.642665530125983
 31
0.0
  0
LINE
  5
1B9
330
7D
100
AcDbEntity
  8
FIXING
  6
Continuous
 62
     3
100
AcDbLine
 10
5.840621468634797
 20
6.642665530125983
 30
0.0
 11
5.701021187432904
 21
7.63386030991855
 31
0.0
  0
LINE
  5
1BA
330
7D
100
AcDbEntity
  8
FIXING
  6
Continuous
 62
     3
100
AcDbLine
 10
4.184623364358057
 20
2.716338383971038
 30
0.0
 11
4.412214840472608
 21
2.847738383971038
 31
0.0
  0
LINE
  5
1BB
330
7D
100
AcDbEntity
  8
FIXING
  6
Continuous
 62
     3
100
AcDbLine
 10
4.412214840472608
 20
2.847738383971038
 30
0.0
 11
4.085914840472661
 21
3.41290656248067
 31
0.0
  0
LINE
  5
1BC
330
7D
100
AcDbEntity
  8
FIXING
  6
Continuous
 62
     3
100
AcDbLine
 10
4.085914840472661
 20
3.41290656248067
 30
0.0
 11
3.702957802547257
 21
5.584807609283555
 31
0.0
  0
LINE
  5
1BD
330
7D
100
AcDbEntity
  8
FIXING
  6
Continuous
 62
     3
100
AcDbLine
 10
2.784423364358016
 20
5.141555924729051
 30
0.0
 11
3.012014840472567
 21
5.27295592472905
 31
0.0
  0
LINE
  5
1BE
330
7D
100
AcDbEntity
  8
FIXING
  6
Continuous
 62
     3
100
AcDbLine
 10
3.012014840472567
 20
5.27295592472905
 30
0.0
 11
3.702957802547257
 21
5.584807609283555
 31
0.0
  0
LINE
  5
1BF
330
7D
100
AcDbEntity
  8
FIXING
  6
Continuous
 62
     3
100
AcDbLine
 10
3.702957802547257
 20
5.584807609283555
 30
0.0
 11
3.622713071981902
 21
6.154395559662388
 31
0.0
  0
LINE
  5
1C0
330
7D
100
AcDbEntity
  8
FIXING
  6
Continuous
 62
     3
100
AcDbLine
 10
3.622713071981902
 20
6.154395559662388
 30
0.0
 11
3.789596167291169
 21
6.25074555966239
 31
0.0
  0
LINE
  5
1C1
330
7D
100
AcDbEntity
  8
FIXING
  6
Continuous
 62
     3
100
AcDbLine
 10
3.789596167291169
 20
6.25074555966239
 30
0.0
 11
4.813138022090087
 21
2.891919063477417
 31
0.0
  0
LINE
  5
1C2
330
7D
100
AcDbEntity
  8
FIXING
  6
Continuous
 62
     3
100
AcDbLine
 10
4.813138022090087
 20
2.891919063477417
 30
0.0
 11
4.544410339295766
 21
2.736769063477411
 31
0.0
  0
LINE
  5
1C3
330
7D
100
AcDbEntity
  8
FIXING
  6
Continuous
 62
     3
100
AcDbLine
 10
4.544410339295766
 20
2.736769063477411
 30
0.0
 11
4.412214840472608
 21
2.847738383971038
 31
0.0
  0
LINE
  5
1C4
330
7D
100
AcDbEntity
  8
FIXING
  6
Continuous
 62
     3
100
AcDbLine
 10
6.27400179920669
 20
4.186028778574512
 30
0.0
 11
5.10190179920669
 21
6.216165530125993
 31
0.0
  0
LINE
  5
1C5
330
7D
100
AcDbEntity
  8
FIXING
  6
Continuous
 62
     3
100
AcDbLine
 10
5.10190179920669
 20
6.216165530125993
 30
0.0
 11
4.291392521938288
 21
5.850408778360771
 31
0.0
  0
LINE
  5
1C6
330
7D
100
AcDbEntity
  8
FIXING
  6
Continuous
 62
     3
100
AcDbLine
 10
4.291392521938288
 20
5.850408778360771
 30
0.0
 11
3.789596167291169
 21
6.25074555966239
 31
0.0
  0
LINE
  5
1C7
330
7D
100
AcDbEntity
  8
FIXING
  6
Continuous
 62
     3
100
AcDbLine
 10
3.789596167291169
 20
6.25074555966239
 30
0.0
 11
3.622713071981902
 21
6.154395559662388
 31
0.0
  0
LINE
  5
1C8
330
7D
100
AcDbEntity
  8
FIXING
  6
Continuous
 62
     3
100
AcDbLine
 10
3.622713071981902
 20
6.154395559662388
 30
0.0
 11
4.544410339295766
 21
2.736769063477411
 31
0.0
  0
LINE
  5
1C9
330
7D
100
AcDbEntity
  8
FIXING
  6
Continuous
 62
     3
100
AcDbLine
 10
4.544410339295766
 20
2.736769063477411
 30
0.0
 11
4.813138022090087
 21
2.891919063477417
 31
0.0
  0
LINE
  5
1CA
330
7D
100
AcDbEntity
  8
FIXING
  6
Continuous
 62
     3
100
AcDbLine
 10
4.813138022090087
 20
2.891919063477417
 30
0.0
 11
4.291392521938288
 21
5.850408778360771
 31
0.0
  0
LINE
  5
1CB
330
7D
100
AcDbEntity
  8
FIXING
  6
Continuous
 62
     3
100
AcDbLine
 10
3.081714840472578
 20
5.15223198344148
 30
0.0
 11
3.941214840472604
 21
3.663534314335985
 31
0.0
  0
LINE
  5
1CC
330
7D
100
AcDbEntity
  8
FIXING
  6
Continuous
 62
     3
100
AcDbLine
 10
5.84079467371556
 20
6.642765530125986
 30
0.0
 11
6.27400179920669
 21
4.186028778574512
 31
0.0
  0
LINE
  5
1CD
330
7D
100
AcDbEntity
  8
FIXING
  6
Continuous
 62
     3
100
AcDbLine
 10
6.27400179920669
 20
4.186028778574512
 30
0.0
 11
4.774876529914302
 21
3.108389911899263
 31
0.0
  0
LINE
  5
1CE
330
7D
100
AcDbEntity
  8
FIXING
  6
Continuous
 62
     3
100
AcDbLine
 10
2.589048033264259
 20
5.028755924729058
 30
0.0
 11
3.9892480332643
 21
2.603538383971046
 31
0.0
  0
LINE
  5
1CF
330
7D
100
AcDbEntity
  8
FIXING
  6
Continuous
 62
     3
100
AcDbLine
 10
3.320987261447616
 20
-0.0000000065372845
 30
0.0
 11
3.639598007499902
 21
0.1839499934627113
 31
0.0
  0
ENDBLK
  5
7F
330
7D
100
AcDbEntity
  8
0
100
AcDbBlockEnd
  0
BLOCK
  5
1D2
330
1D1
100
AcDbEntity
  8
0
100
AcDbBlockBegin
  2
_RASTER_[__EXITEX-DC2_ARTWORK_PIERCE_COMMUNICATIONS_LOGO_EXITEXLOGOSMALLVERSION_JPG]
 70
     2
 10
0.0
 20
0.0
 30
0.0
  3
_RASTER_[__EXITEX-DC2_ARTWORK_PIERCE_COMMUNICATIONS_LOGO_EXITEXLOGOSMALLVERSION_JPG]
  1
_RASTER_[__EXITEX-DC2_ARTWORK_PIERCE_COMMUNICATIONS_LOGO_EXITEXLOGOSMALLVERSION_JPG]
  0
ATTDEF
  5
1D4
330
1D1
100
AcDbEntity
  8
1
100
AcDbText
 10
0.0
 20
0.0
 30
0.0
 40
1.0
  1

100
AcDbAttributeDefinition
  3
Enter PAT_NAME
  2
PAT_NAME
 70
     0
280
     0
  0
ENDBLK
  5
1D3
330
1D1
100
AcDbEntity
  8
0
100
AcDbBlockEnd
  0
BLOCK
  5
1D9
330
1D8
100
AcDbEntity
  8
0
100
AcDbBlockBegin
  2
GEN_BLOCK00000
 70
     0
 10
0.0
 20
0.0
 30
0.0
  3
GEN_BLOCK00000
  1
GEN_BLOCK00000
  0
CIRCLE
  5
1DC
330
1D8
100
AcDbEntity
  8
1
  6
Continuous
 62
     1
100
AcDbCircle
 10
1.000002114467193
 20
1.000007606696755
 30
0.0
 40
1.0
  0
ARC
  5
1DD
330
1D8
100
AcDbEntity
  8
1
  6
Continuous
 62
     1
100
AcDbCircle
 10
1.000002114467193
 20
1.000007606696755
 30
0.0
 40
1.0
100
AcDbArc
 50
0.0
 51
0.0
  0
ENDBLK
  5
1DA
330
1D8
100
AcDbEntity
  8
0
100
AcDbBlockEnd
  0
BLOCK
  5
1DF
330
1DE
100
AcDbEntity
  8
0
100
AcDbBlockBegin
  2
GEN_BLOCK00001
 70
     0
 10
0.0
 20
0.0
 30
0.0
  3
GEN_BLOCK00001
  1
GEN_BLOCK00001
  0
LINE
  5
1E2
330
1DE
100
AcDbEntity
  8
1
  6
HIDDEN
 62
     1
100
AcDbLine
 10
12.41888636350632
 20
46.86039566993713
 30
0.0
 11
26.15638637542725
 21
46.86039566993713
 31
0.0
  0
LINE
  5
1E3
330
1DE
100
AcDbEntity
  8
1
  6
HIDDEN
 62
     1
100
AcDbLine
 10
26.15638637542725
 20
46.86039566993713
 30
0.0
 11
26.15638637542725
 21
56.54789566993713
 31
0.0
  0
LINE
  5
1E4
330
1DE
100
AcDbEntity
  8
1
  6
HIDDEN
 62
     1
100
AcDbLine
 10
26.15638637542725
 20
56.54789566993713
 30
0.0
 11
12.41888636350632
 21
56.54789566993713
 31
0.0
  0
LINE
  5
1E5
330
1DE
100
AcDbEntity
  8
1
  6
HIDDEN
 62
     1
100
AcDbLine
 10
12.41888636350632
 20
56.54789566993713
 30
0.0
 11
12.41888636350632
 21
46.86039566993713
 31
0.0
  0
TEXT
  5
1E6
330
1DE
100
AcDbEntity
  8
1
  6
Continuous
 62
     4
100
AcDbText
 10
13.79263639450073
 20
52.95414566993713
 30
0.0
 40
2.5
  1
44mm
100
AcDbText
  0
TEXT
  5
1E7
330
1DE
100
AcDbEntity
  8
1
  6
Continuous
 62
     4
100
AcDbText
 10
13.79263639450073
 20
47.95414566993713
 30
0.0
 40
2.5
  1
DOOR
100
AcDbText
  0
LINE
  5
1E8
330
1DE
100
AcDbEntity
  8
1
  6
HIDDEN
 62
     1
100
AcDbLine
 10
-0.0000000200416821
 20
100.0000000009515
 30
0.0
 11
17.18078757269953
 21
95.57525609152651
 31
0.0
  0
LINE
  5
1E9
330
1DE
100
AcDbEntity
  8
1
  6
HIDDEN
 62
     1
100
AcDbLine
 10
17.18078757269953
 20
95.57525609152651
 30
0.0
 11
17.18078757269953
 21
92.00878103879336
 31
0.0
  0
LINE
  5
1EA
330
1DE
100
AcDbEntity
  8
1
  6
HIDDEN
 62
     1
100
AcDbLine
 10
17.18078757269953
 20
92.00878103879336
 30
0.0
 11
43.99999997995832
 21
95.57525609152651
 31
0.0
  0
LINE
  5
1EB
330
1DE
100
AcDbEntity
  8
1
  6
HIDDEN
 62
     1
100
AcDbLine
 10
-0.0000000200416821
 20
100.0000000009515
 30
0.0
 11
-0.0000000200416821
 21
0.0000000009515375
 31
0.0
  0
LINE
  5
1EC
330
1DE
100
AcDbEntity
  8
1
  6
HIDDEN
 62
     1
100
AcDbLine
 10
-0.0000000200416821
 20
0.0000000009515375
 30
0.0
 11
43.99999997995832
 21
0.0000000009515304
 31
0.0
  0
LINE
  5
1ED
330
1DE
100
AcDbEntity
  8
1
  6
HIDDEN
 62
     1
100
AcDbLine
 10
43.99999997995832
 20
0.0000000009515304
 30
0.0
 11
43.99999997995832
 21
95.57525609152651
 31
0.0
  0
ENDBLK
  5
1E0
330
1DE
100
AcDbEntity
  8
0
100
AcDbBlockEnd
  0
BLOCK
  5
1EF
330
1EE
100
AcDbEntity
  8
0
100
AcDbBlockBegin
  2
GEN_BLOCK00002
 70
     0
 10
0.0
 20
0.0
 30
0.0
  3
GEN_BLOCK00002
  1
GEN_BLOCK00002
  0
LINE
  5
1F2
330
1EE
100
AcDbEntity
  8
0
  6
Continuous
 62
     9
100
AcDbLine
 10
0.0000026988430477
 20
18.00000724078798
 30
0.0
 11
196.0200119639592
 21
18.00000724078798
 31
0.0
  0
LINE
  5
1F3
330
1EE
100
AcDbEntity
  8
0
  6
Continuous
 62
     9
100
AcDbLine
 10
114.000002698843
 20
18.00000724078797
 30
0.0
 11
114.000002698843
 21
0.0000072407879657
 31
0.0
  0
LINE
  5
1F4
330
1EE
100
AcDbEntity
  8
0
  6
Continuous
 62
     9
100
AcDbLine
 10
103.7450599639593
 20
28.00000724078797
 30
0.0
 11
103.7450599639593
 21
18.00000724078797
 31
0.0
  0
LINE
  5
1F5
330
1EE
100
AcDbEntity
  8
0
  6
Continuous
 62
     9
100
AcDbLine
 10
135.1700439639593
 20
18.00000724078797
 30
0.0
 11
135.1700439639593
 21
38.00000724078797
 31
0.0
  0
LINE
  5
1F6
330
1EE
100
AcDbEntity
  8
0
  6
Continuous
 62
     9
100
AcDbLine
 10
166.5950279639593
 20
18.00000724078797
 30
0.0
 11
166.5950279639593
 21
38.00000724078797
 31
0.0
  0
LINE
  5
1F7
330
1EE
100
AcDbEntity
  8
0
  6
Continuous
 62
     9
100
AcDbLine
 10
114.000002698843
 20
9.000007240787909
 30
0.0
 11
196.0200119639592
 21
9.000007240787966
 31
0.0
  0
LINE
  5
1F8
330
1EE
100
AcDbEntity
  8
0
  6
Continuous
 62
     9
100
AcDbLine
 10
135.1700439639593
 20
38.00000724078798
 30
0.0
 11
196.0200119639592
 21
38.00000724078797
 31
0.0
  0
LINE
  5
1F9
330
1EE
100
AcDbEntity
  8
0
  6
Continuous
 62
     9
100
AcDbLine
 10
103.7450599639593
 20
28.00000724078797
 30
0.0
 11
196.0200119639592
 21
28.00000724078797
 31
0.0
  0
LINE
  5
1FA
330
1EE
100
AcDbEntity
  8
0
  6
Continuous
 62
     9
100
AcDbLine
 10
0.0000026988430477
 20
0.0000072407879657
 30
0.0
 11
0.0000026988430477
 21
0.0000072407879657
 31
0.0
  0
LINE
  5
1FB
330
1EE
100
AcDbEntity
  8
0
  6
Continuous
 62
     9
100
AcDbLine
 10
196.0200119639592
 20
0.0000072407879657
 30
0.0
 11
196.0200119639592
 21
283.0594585255471
 31
0.0
  0
LINE
  5
1FC
330
1EE
100
AcDbEntity
  8
0
  6
Continuous
 62
     9
100
AcDbLine
 10
0.0000026988430477
 20
0.0000072407879657
 30
0.0
 11
0.0000026988430477
 21
283.0594585255471
 31
0.0
  0
LINE
  5
1FD
330
1EE
100
AcDbEntity
  8
0
  6
Continuous
 62
     9
100
AcDbLine
 10
0.0000026988430477
 20
283.0594585255471
 30
0.0
 11
196.0200119639592
 21
283.0594585255471
 31
0.0
  0
LINE
  5
1FE
330
1EE
100
AcDbEntity
  8
0
  6
Continuous
 62
     9
100
AcDbLine
 10
196.0200119639592
 20
0.0000072407879657
 30
0.0
 11
196.0200119639592
 21
0.0000072407879657
 31
0.0
  0
LINE
  5
1FF
330
1EE
100
AcDbEntity
  8
0
  6
Continuous
 62
     9
100
AcDbLine
 10
196.0200119639592
 20
0.0000072407879657
 30
0.0
 11
0.0000026988430477
 21
0.0000072407879657
 31
0.0
  0
ENDBLK
  5
1F0
330
1EE
100
AcDbEntity
  8
0
100
AcDbBlockEnd
  0
BLOCK
  5
201
330
200
100
AcDbEntity
  8
0
100
AcDbBlockBegin
  2
GEN_BLOCK00003
 70
     0
 10
0.0
 20
0.0
 30
0.0
  3
GEN_BLOCK00003
  1
GEN_BLOCK00003
  0
ENDBLK
  5
202
330
200
100
AcDbEntity
  8
0
100
AcDbBlockEnd
  0
BLOCK
  5
206
330
205
100
AcDbEntity
  8
0
100
AcDbBlockBegin
  2
GEN_BLOCK00004
 70
     0
 10
0.0
 20
0.0
 30
0.0
  3
GEN_BLOCK00004
  1
GEN_BLOCK00004
  0
TEXT
  5
209
330
205
100
AcDbEntity
  8
SYSTEM_ASSIGNED_LAYER
  6
Continuous
 62
     1
100
AcDbText
 10
1.412139892578125
 20
8.53366231918335
 30
0.0
 40
2.5
  1
End cap
100
AcDbText
  0
TEXT
  5
20A
330
205
100
AcDbEntity
  8
SYSTEM_ASSIGNED_LAYER
  6
Continuous
 62
     1
100
AcDbText
 10
15.72666931152344
 20
32.48297262191772
 30
0.0
 40
2.5
  1
Expelex
100
AcDbText
  0
LINE
  5
20B
330
205
100
AcDbEntity
  8
SYSTEM_ASSIGNED_LAYER
  6
Continuous
 62
     1
100
AcDbLine
 10
36.64790602731279
 20
32.90713377836246
 30
0.0
 11
44.90628877038722
 21
20.24428023898162
 31
0.0
  0
LINE
  5
20C
330
205
100
AcDbEntity
  8
SYSTEM_ASSIGNED_LAYER
  6
Continuous
 62
     1
100
AcDbLine
 10
44.90628877038722
 20
20.24428023898162
 30
0.0
 11
62.52417195561273
 21
20.51955966375075
 31
0.0
  0
LINE
  5
20D
330
205
100
AcDbEntity
  8
SYSTEM_ASSIGNED_LAYER
  6
Continuous
 62
     1
100
AcDbLine
 10
60.51269873179294
 20
21.23822194177571
 30
0.0
 11
62.52417195561273
 21
20.51955966375075
 31
0.0
  0
LINE
  5
20E
330
205
100
AcDbEntity
  8
SYSTEM_ASSIGNED_LAYER
  6
Continuous
 62
     1
100
AcDbLine
 10
62.52417195561273
 20
20.51955966375075
 30
0.0
 11
60.53613337129374
 21
19.73840501372367
 31
0.0
  0
LINE
  5
20F
330
205
100
AcDbEntity
  8
SYSTEM_ASSIGNED_LAYER
  6
Continuous
 62
     1
100
AcDbLine
 10
15.45139032008836
 20
7.306147274831659
 30
0.0
 11
33.34455293008301
 21
1.249999929910388
 31
0.0
  0
LINE
  5
210
330
205
100
AcDbEntity
  8
SYSTEM_ASSIGNED_LAYER
  6
Continuous
 62
     1
100
AcDbLine
 10
33.34455293008301
 20
1.249999929910388
 30
0.0
 11
48.48492129238616
 21
5.103911876678467
 31
0.0
  0
LINE
  5
211
330
205
100
AcDbEntity
  8
SYSTEM_ASSIGNED_LAYER
  6
Continuous
 62
     1
100
AcDbLine
 10
46.36171748406408
 20
5.337376195850811
 30
0.0
 11
48.48492129238616
 21
5.103911876678467
 31
0.0
  0
LINE
  5
212
330
205
100
AcDbEntity
  8
SYSTEM_ASSIGNED_LAYER
  6
Continuous
 62
     1
100
AcDbLine
 10
48.48492129238616
 20
5.103911876678467
 30
0.0
 11
46.73173640501647
 21
3.883730434966398
 31
0.0
  0
ENDBLK
  5
207
330
205
100
AcDbEntity
  8
0
100
AcDbBlockEnd
  0
BLOCK
  5
214
330
213
100
AcDbEntity
  8
0
100
AcDbBlockBegin
  2
GEN_BLOCK00005
 70
     0
 10
0.0
 20
0.0
 30
0.0
  3
GEN_BLOCK00005
  1
GEN_BLOCK00005
  0
TEXT
  5
217
330
213
100
AcDbEntity
  8
1
  6
Continuous
 62
     4
100
AcDbText
 10
19.71435546875
 20
8.574108123779297
 30
0.0
 40
2.5
  1
CILL OF WOOD-
100
AcDbText
  0
TEXT
  5
218
330
213
100
AcDbEntity
  8
1
  6
Continuous
 62
     4
100
AcDbText
 10
19.71435546875
 20
3.574108123779297
 30
0.0
 40
2.5
  1
CONCRETE ETC
100
AcDbText
  0
LINE
  5
219
330
213
100
AcDbEntity
  8
1
  6
DOT
 62
     3
100
AcDbLine
 10
-0.0000002370216805
 20
-0.0000017381672066
 30
0.0
 11
-0.0000002370216805
 21
19.6150811123664
 31
0.0
  0
LINE
  5
21A
330
213
100
AcDbEntity
  8
1
  6
DOT
 62
     3
100
AcDbLine
 10
-0.0000002370216805
 20
19.6150811123664
 30
0.0
 11
25.42251896538306
 21
22.96201926032651
 31
0.0
  0
LINE
  5
21B
330
213
100
AcDbEntity
  8
1
  6
DOT
 62
     3
100
AcDbLine
 10
25.42251896538306
 20
22.96201926032651
 30
0.0
 11
83.97742105736936
 21
22.96201926032651
 31
0.0
  0
LINE
  5
21C
330
213
100
AcDbEntity
  8
1
  6
DOT
 62
     3
100
AcDbLine
 10
83.97742105736936
 20
22.96201926032651
 30
0.0
 11
83.97742105736936
 21
-0.0000017381672066
 31
0.0
  0
LINE
  5
21D
330
213
100
AcDbEntity
  8
1
  6
Continuous
 62
     3
100
AcDbLine
 10
25.42251896538306
 20
23.46201926032651
 30
0.0
 11
25.42251896538306
 21
23.46201926032651
 31
0.0
  0
LINE
  5
21E
330
213
100
AcDbEntity
  8
1
  6
Continuous
 62
     3
100
AcDbLine
 10
25.42251896538306
 20
23.46201926032651
 30
0.0
 11
25.42251896538306
 21
23.46201926032651
 31
0.0
  0
LINE
  5
21F
330
213
100
AcDbEntity
  8
1
  6
Continuous
 62
     3
100
AcDbLine
 10
25.42251896538306
 20
23.46201926032651
 30
0.0
 11
25.42251896538306
 21
23.46201926032651
 31
0.0
  0
LINE
  5
220
330
213
100
AcDbEntity
  8
1
  6
Continuous
 62
     3
100
AcDbLine
 10
25.42251896538306
 20
23.46201926032651
 30
0.0
 11
25.42251896538306
 21
23.46201926032651
 31
0.0
  0
LINE
  5
221
330
213
100
AcDbEntity
  8
1
  6
Continuous
 62
     3
100
AcDbLine
 10
69.42251896538306
 20
23.46201926032651
 30
0.0
 11
69.42251896538306
 21
23.46201926032651
 31
0.0
  0
ENDBLK
  5
215
330
213
100
AcDbEntity
  8
0
100
AcDbBlockEnd
  0
BLOCK
  5
223
330
222
100
AcDbEntity
  8
0
100
AcDbBlockBegin
  2
PROTO
 70
     2
 10
0.0
 20
0.0
 30
0.0
  3
PROTO
  1
PROTO
  0
ATTDEF
  5
225
330
222
100
AcDbEntity
  8
0
100
AcDbText
 10
0.0
 20
0.0
 30
0.0
 40
1.0
  1

100
AcDbAttributeDefinition
  3
Enter PAT_NAME
  2
PAT_NAME
 70
     0
280
     0
  0
TEXT
  5
229
330
222
100
AcDbEntity
  8
0
  6
Continuous
 62
    15
100
AcDbText
 10
52.54707170624187
 20
10.48771667480469
 30
0.0
 40
1.759999990463257
  1
Mountpleasant, Dundalk, Ireland
  7
ARIAL
100
AcDbText
  0
TEXT
  5
22A
330
222
100
AcDbEntity
  8
0
  6
Continuous
 62
    15
100
AcDbText
 10
55.23258192875068
 20
7.495716333389282
 30
0.0
 40
1.759999990463257
  1
Telephone (353/42) 9371244
  7
ARIAL
100
AcDbText
  0
TEXT
  5
22B
330
222
100
AcDbEntity
  8
0
  6
Continuous
 62
    15
100
AcDbText
 10
59.49780404685288
 20
4.503715991973877
 30
0.0
 40
1.759999990463257
  1
Fax (353/42) 9371221
  7
ARIAL
100
AcDbText
  0
TEXT
  5
22C
330
222
100
AcDbEntity
  8
0
  6
Continuous
 62
    15
100
AcDbText
 10
112.7604312896729
 20
4.727716684341431
 30
0.0
 40
1.759999990463257
  1
DESCRIPTION
  7
ARIAL
100
AcDbText
  0
TEXT
  5
22D
330
222
100
AcDbEntity
  8
0
  6
Continuous
 62
    15
100
AcDbText
 10
112.7604312896729
 20
13.72772431373596
 30
0.0
 40
1.759999990463257
  1
CODE
  7
ARIAL
100
AcDbText
  0
TEXT
  5
22E
330
222
100
AcDbEntity
  8
0
  6
Continuous
 62
    15
100
AcDbText
 10
102.5054893493652
 20
23.72772431373596
 30
0.0
 40
1.759999990463257
  1
DRAWN
  7
ARIAL
100
AcDbText
  0
TEXT
  5
22F
330
222
100
AcDbEntity
  8
0
  6
Continuous
 62
    15
100
AcDbText
 10
133.9304733276367
 20
23.72772431373596
 30
0.0
 40
1.759999990463257
  1
DRAWING No
  7
ARIAL
100
AcDbText
  0
TEXT
  5
230
330
222
100
AcDbEntity
  8
0
  6
Continuous
 62
    15
100
AcDbText
 10
133.9304733276367
 20
33.72772431373596
 30
0.0
 40
1.759999990463257
  1
SCALE
  7
ARIAL
100
AcDbText
  0
TEXT
  5
231
330
222
100
AcDbEntity
  8
0
  6
Continuous
 62
    15
100
AcDbText
 10
165.3554611206055
 20
33.72772431373596
 30
0.0
 40
1.759999990463257
  1
APPROVED
  7
ARIAL
100
AcDbText
  0
TEXT
  5
232
330
222
100
AcDbEntity
  8
0
  6
Continuous
 62
    15
100
AcDbText
 10
165.3554611206055
 20
23.72772431373596
 30
0.0
 40
1.759999990463257
  1
DATE
  7
ARIAL
100
AcDbText
  0
TEXT
  5
233
330
222
100
AcDbEntity
  8
0
  6
Continuous
 62
    15
100
AcDbText
 10
110.7804412841797
 20
279.5171802043915
 30
0.0
 40
1.059999942779541
  1
DATE
  7
ARIAL
100
AcDbText
  0
TEXT
  5
234
330
222
100
AcDbEntity
  8
0
  6
Continuous
 62
    15
100
AcDbText
 10
118.7804412841797
 20
279.5171802043915
 30
0.0
 40
1.059999942779541
  1
ISSUE
  7
ARIAL
100
AcDbText
  0
TEXT
  5
235
330
222
100
AcDbEntity
  8
0
  6
Continuous
 62
    15
100
AcDbText
 10
144.7804412841797
 20
279.5171802043915
 30
0.0
 40
1.059999942779541
  1
CHANGE
  7
ARIAL
100
AcDbText
  0
TEXT
  5
236
330
222
100
AcDbEntity
  8
0
  6
Continuous
 62
    15
100
AcDbText
 10
177.2804412841797
 20
279.5171802043915
 30
0.0
 40
1.059999942779541
  1
SIGNED
  7
ARIAL
100
AcDbText
  0
TEXT
  5
237
330
222
100
AcDbEntity
  8
0
  6
Continuous
 62
    15
100
AcDbText
 10
0.5756454467773438
 20
279.0171802043915
 30
0.0
 40
1.059999942779541
  1
THIS DRAWING  IS  THE PROPERTY OF  EXITEX  LTD  AND  MUST
  7
ARIAL
100
AcDbText
  0
TEXT
  5
238
330
222
100
AcDbEntity
  8
0
  6
Continuous
 62
    15
100
AcDbText
 10
0.5756454467773438
 20
277.2151800394058
 30
0.0
 40
1.059999942779541
  1
NOT BE REPRODUCED IN WHOLE OR IN PART WITHOUT CONSENT
  7
ARIAL
100
AcDbText
  0
TEXT
  5
239
330
222
100
AcDbEntity
  8
0
  6
Continuous
 62
    15
100
AcDbText
 10
0.5756454467773438
 20
275.4131798744202
 30
0.0
 40
1.059999942779541
  1
C  COPYRIGHT EXITEX.
  7
ARIAL
100
AcDbText
  0
TEXT
  5
23A
330
222
100
AcDbEntity
  8
0
  6
Continuous
 62
    15
100
AcDbText
 10
165.3554611206055
 20
19.24783539772034
 30
0.0
 40
1.759999990463257
  1
16/03/13
  7
ARIAL
100
AcDbText
  0
TEXT
  5
23B
330
222
100
AcDbEntity
  8
0
  6
Continuous
 62
    15
100
AcDbText
 10
165.3554611206055
 20
29.05356049537659
 30
0.0
 40
1.759999990463257
  1
PBA
  7
ARIAL
100
AcDbText
  0
TEXT
  5
23C
330
222
100
AcDbEntity
  8
0
  6
Continuous
 62
    15
100
AcDbText
 10
133.9304733276367
 20
29.05356049537659
 30
0.0
 40
1.759999990463257
  1
1:1
  7
ARIAL
100
AcDbText
  0
TEXT
  5
23D
330
222
100
AcDbEntity
  8
0
  6
Continuous
 62
    15
100
AcDbText
 10
112.7604312896729
 20
10.00892090797424
 30
0.0
 40
1.759999990463257
  1
EXP RSF
  7
ARIAL
100
AcDbText
  0
TEXT
  5
23E
330
222
100
AcDbEntity
  8
0
  6
Continuous
 62
    15
100
AcDbText
 10
112.7604312896729
 20
0.7699987888336182
 30
0.0
 40
1.759999990463257
  1
Expelex radius screw fix
  7
ARIAL
100
AcDbText
  0
ENDBLK
  5
224
330
222
100
AcDbEntity
  8
0
100
AcDbBlockEnd
  0
BLOCK
  5
240
330
23F
100
AcDbEntity
  8
0
100
AcDbBlockBegin
  2
GEN_BLOCK00006
 70
     0
 10
0.0
 20
0.0
 30
0.0
  3
GEN_BLOCK00006
  1
GEN_BLOCK00006
  0
LINE
  5
243
330
23F
100
AcDbEntity
  8
1
  6
Continuous
 62
     3
100
AcDbLine
 10
21.2500000007241
 20
1.749999957965925
 30
0.0
 11
21.25000000072411
 21
37.49999995796593
 31
0.0
  0
ARC
  5
244
330
23F
100
AcDbEntity
  8
1
  6
Continuous
 62
     3
100
AcDbCircle
 10
21.25000000072411
 20
35.24999995796593
 30
0.0
 40
2.25
100
AcDbArc
 50
90.0
 51
171.0331085610005
  0
ARC
  5
245
330
23F
100
AcDbEntity
  8
1
  6
Continuous
 62
     3
100
AcDbCircle
 10
21.25000000072411
 20
35.24999995796593
 30
0.0
 40
2.25
100
AcDbArc
 50
90.0
 51
171.0331085610005
  0
ARC
  5
246
330
23F
100
AcDbEntity
  8
1
  6
Continuous
 62
     3
100
AcDbCircle
 10
-29.12670716494507
 20
43.19904865226992
 30
0.0
 40
48.75
100
AcDbArc
 50
308.1690452837288
 51
351.0331085610005
  0
ARC
  5
247
330
23F
100
AcDbEntity
  8
1
  6
Continuous
 62
     3
100
AcDbCircle
 10
-29.12670716494507
 20
43.19904865226992
 30
0.0
 40
48.75
100
AcDbArc
 50
308.1690452837288
 51
351.0331085610005
  0
LINE
  5
248
330
23F
100
AcDbEntity
  8
1
  6
Continuous
 62
     3
100
AcDbLine
 10
1.000000000724107
 20
4.872243210725266
 30
0.0
 11
0.7844439576017805
 21
4.707265152710296
 31
0.0
  0
LINE
  5
249
330
23F
100
AcDbEntity
  8
1
  6
Continuous
 62
     3
100
AcDbLine
 10
0.0000000007240999
 20
3.119051216860086
 30
0.0
 11
0.0000000007240999
 21
1.849999957965927
 31
0.0
  0
ARC
  5
24A
330
23F
100
AcDbEntity
  8
1
  6
Continuous
 62
     3
100
AcDbCircle
 10
1.850000000724108
 20
1.849999957965927
 30
0.0
 40
1.85
100
AcDbArc
 50
180.0
 51
317.7745649177911
  0
ARC
  5
24B
330
23F
100
AcDbEntity
  8
1
  6
Continuous
 62
     3
100
AcDbCircle
 10
1.850000000724108
 20
1.849999957965927
 30
0.0
 40
1.85
100
AcDbArc
 50
180.0
 51
317.7745649177911
  0
ARC
  5
24C
330
23F
100
AcDbEntity
  8
1
  6
Continuous
 62
     3
100
AcDbCircle
 10
19.4000000007241
 20
1.849999957965926
 30
0.0
 40
1.85
100
AcDbArc
 50
222.2254350822091
 51
0.0
  0
ARC
  5
24D
330
23F
100
AcDbEntity
  8
1
  6
Continuous
 62
     3
100
AcDbCircle
 10
19.4000000007241
 20
1.849999957965926
 30
0.0
 40
1.85
100
AcDbArc
 50
222.2254350822091
 51
0.0
  0
ARC
  5
24E
330
23F
100
AcDbEntity
  8
1
  6
Continuous
 62
     3
100
AcDbCircle
 10
10.62500000072411
 20
-6.11378526013231
 30
0.0
 40
10.0
100
AcDbArc
 50
42.22543508220877
 51
137.7745649177912
  0
ARC
  5
24F
330
23F
100
AcDbEntity
  8
1
  6
Continuous
 62
     3
100
AcDbCircle
 10
10.62500000072411
 20
-6.11378526013231
 30
0.0
 40
10.0
100
AcDbArc
 50
42.22543508220877
 51
137.7745649177912
  0
LINE
  5
250
330
23F
100
AcDbEntity
  8
1
  6
HIDDEN
 62
     1
100
AcDbLine
 10
21.2500000007241
 20
25.14999995796592
 30
0.0
 11
19.22097106258686
 21
25.14999995796592
 31
0.0
  0
LINE
  5
251
330
23F
100
AcDbEntity
  8
1
  6
HIDDEN
 62
     1
100
AcDbLine
 10
18.76252537839154
 20
24.84956837892146
 30
0.0
 11
17.10832723502338
 21
21.04956837892145
 31
0.0
  0
LINE
  5
252
330
23F
100
AcDbEntity
  8
1
  6
HIDDEN
 62
     1
100
AcDbLine
 10
17.5667729192187
 20
20.34999995796591
 30
0.0
 11
21.2500000007241
 21
20.34999995796593
 31
0.0
  0
ARC
  5
253
330
23F
100
AcDbEntity
  8
1
  6
HIDDEN
 62
     1
100
AcDbCircle
 10
17.5667729192187
 20
20.84999995796591
 30
0.0
 40
0.5
100
AcDbArc
 50
156.4757706178607
 51
270.0
  0
ARC
  5
254
330
23F
100
AcDbEntity
  8
1
  6
HIDDEN
 62
     1
100
AcDbCircle
 10
17.5667729192187
 20
20.84999995796591
 30
0.0
 40
0.5
100
AcDbArc
 50
156.4757706178607
 51
270.0
  0
ARC
  5
255
330
23F
100
AcDbEntity
  8
1
  6
HIDDEN
 62
     1
100
AcDbCircle
 10
19.22097106258686
 20
24.64999995796592
 30
0.0
 40
0.5
100
AcDbArc
 50
90.0
 51
156.4757706178607
  0
ARC
  5
256
330
23F
100
AcDbEntity
  8
1
  6
HIDDEN
 62
     1
100
AcDbCircle
 10
19.22097106258686
 20
24.64999995796592
 30
0.0
 40
0.5
100
AcDbArc
 50
90.0
 51
156.4757706178607
  0
CIRCLE
  5
257
330
23F
100
AcDbEntity
  8
1
  6
HIDDEN
 62
     1
100
AcDbCircle
 10
13.28641358649392
 20
11.49999995796593
 30
0.0
 40
1.65
  0
ARC
  5
258
330
23F
100
AcDbEntity
  8
1
  6
HIDDEN
 62
     1
100
AcDbCircle
 10
13.28641358649392
 20
11.49999995796593
 30
0.0
 40
1.65
100
AcDbArc
 50
0.0
 51
0.0
  0
CIRCLE
  5
259
330
23F
100
AcDbEntity
  8
1
  6
HIDDEN
 62
     1
100
AcDbCircle
 10
13.28641358649392
 20
11.49999995796593
 30
0.0
 40
1.15
  0
ARC
  5
25A
330
23F
100
AcDbEntity
  8
1
  6
HIDDEN
 62
     1
100
AcDbCircle
 10
13.28641358649392
 20
11.49999995796593
 30
0.0
 40
1.15
100
AcDbArc
 50
0.0
 51
0.0
  0
ARC
  5
25B
330
23F
100
AcDbEntity
  8
1
  6
Continuous
 62
     3
100
AcDbCircle
 10
2.0000000007241
 20
3.119051216860086
 30
0.0
 40
2.0
100
AcDbArc
 50
127.4290122861181
 51
180.0
  0
ARC
  5
25C
330
23F
100
AcDbEntity
  8
1
  6
Continuous
 62
     3
100
AcDbCircle
 10
2.0000000007241
 20
3.119051216860086
 30
0.0
 40
2.0
100
AcDbArc
 50
127.4290122861181
 51
180.0
  0
LINE
  5
25D
330
23F
100
AcDbEntity
  8
1
  6
HIDDEN
 62
     1
100
AcDbLine
 10
21.2500000007241
 20
23.64999995796592
 30
0.0
 11
19.87629750452249
 21
23.64999995796592
 31
0.0
  0
LINE
  5
25E
330
23F
100
AcDbEntity
  8
1
  6
HIDDEN
 62
     1
100
AcDbLine
 10
19.87629750452249
 20
23.64999995796592
 30
0.0
 11
19.09272996292705
 21
21.84999995796593
 31
0.0
  0
LINE
  5
25F
330
23F
100
AcDbEntity
  8
1
  6
HIDDEN
 62
     1
100
AcDbLine
 10
19.09272996292705
 20
21.84999995796593
 30
0.0
 11
21.2500000007241
 21
21.84999995796593
 31
0.0
  0
ENDBLK
  5
241
330
23F
100
AcDbEntity
  8
0
100
AcDbBlockEnd
  0
BLOCK
  5
261
330
260
100
AcDbEntity
  8
0
100
AcDbBlockBegin
  2
GEN_BLOCK00007
 70
     0
 10
0.0
 20
0.0
 30
0.0
  3
GEN_BLOCK00007
  1
GEN_BLOCK00007
  0
LINE
  5
264
330
260
100
AcDbEntity
  8
SYSTEM_ASSIGNED_LAYER
  6
Continuous
 62
     1
100
AcDbLine
 10
25.73877906799316
 20
2.600000381469727
 30
0.0
 11
35.76224899291992
 21
2.600000381469727
 31
0.0
  0
LINE
  5
265
330
260
100
AcDbEntity
  8
SYSTEM_ASSIGNED_LAYER
  6
Continuous
 62
     1
100
AcDbLine
 10
25.73877906799316
 20
2.600000381469727
 30
0.0
 11
15.71530914306641
 21
2.600000381469727
 31
0.0
  0
LINE
  5
266
330
260
100
AcDbEntity
  8
SYSTEM_ASSIGNED_LAYER
  6
Continuous
 62
     1
100
AcDbLine
 10
32.76224899291992
 20
3.350000381469727
 30
0.0
 11
35.76224899291992
 21
2.600000381469727
 31
0.0
  0
LINE
  5
267
330
260
100
AcDbEntity
  8
SYSTEM_ASSIGNED_LAYER
  6
Continuous
 62
     1
100
AcDbLine
 10
35.76224899291992
 20
2.600000381469727
 30
0.0
 11
32.76224899291992
 21
1.850000381469727
 31
0.0
  0
LINE
  5
268
330
260
100
AcDbEntity
  8
SYSTEM_ASSIGNED_LAYER
  6
Continuous
 62
     1
100
AcDbLine
 10
18.71530914306641
 20
1.850000381469727
 30
0.0
 11
15.71530914306641
 21
2.600000381469727
 31
0.0
  0
LINE
  5
269
330
260
100
AcDbEntity
  8
SYSTEM_ASSIGNED_LAYER
  6
Continuous
 62
     1
100
AcDbLine
 10
15.71530914306641
 20
2.600000381469727
 30
0.0
 11
18.71530914306641
 21
3.350000381469727
 31
0.0
  0
LINE
  5
26A
330
260
100
AcDbEntity
  8
SYSTEM_ASSIGNED_LAYER
  6
Continuous
 62
     1
100
AcDbLine
 10
35.76224899291992
 20
11.1805017516017
 30
0.0
 11
35.76224899291992
 21
0.0000003814697269
 31
0.0
  0
LINE
  5
26B
330
260
100
AcDbEntity
  8
SYSTEM_ASSIGNED_LAYER
  6
Continuous
 62
     1
100
AcDbLine
 10
15.71530914306641
 20
11.27082160674036
 30
0.0
 11
15.71530914306641
 21
0.0000003814697269
 31
0.0
  0
TEXT
  5
26C
330
260
100
AcDbEntity
  8
SYSTEM_ASSIGNED_LAYER
  6
Continuous
 62
     1
100
AcDbText
 10
23.63877906799316
 20
2.850000381469727
 30
0.0
 40
2.5
  1
20
100
AcDbText
  0
LINE
  5
26D
330
260
100
AcDbEntity
  8
SYSTEM_ASSIGNED_LAYER
  6
Continuous
 62
     1
100
AcDbLine
 10
2.74999954720996
 20
30.67082085837474
 30
0.0
 11
2.74999878226064
 21
48.17082070259511
 31
0.0
  0
LINE
  5
26E
330
260
100
AcDbEntity
  8
SYSTEM_ASSIGNED_LAYER
  6
Continuous
 62
     1
100
AcDbLine
 10
2.74999954720996
 20
30.67082085837474
 30
0.0
 11
2.75000031215928
 21
13.17082101415437
 31
0.0
  0
LINE
  5
26F
330
260
100
AcDbEntity
  8
SYSTEM_ASSIGNED_LAYER
  6
Continuous
 62
     1
100
AcDbLine
 10
1.999998913394812
 20
45.17082066981157
 30
0.0
 11
2.74999878226064
 21
48.17082070259511
 31
0.0
  0
LINE
  5
270
330
260
100
AcDbEntity
  8
SYSTEM_ASSIGNED_LAYER
  6
Continuous
 62
     1
100
AcDbLine
 10
2.74999878226064
 20
48.17082070259511
 30
0.0
 11
3.499998913394812
 21
45.17082073537865
 31
0.0
  0
LINE
  5
271
330
260
100
AcDbEntity
  8
SYSTEM_ASSIGNED_LAYER
  6
Continuous
 62
     1
100
AcDbLine
 10
3.500000181025108
 20
16.17082104693791
 30
0.0
 11
2.75000031215928
 21
13.17082101415437
 31
0.0
  0
LINE
  5
272
330
260
100
AcDbEntity
  8
SYSTEM_ASSIGNED_LAYER
  6
Continuous
 62
     1
100
AcDbLine
 10
2.75000031215928
 20
13.17082101415437
 30
0.0
 11
2.000000181025108
 21
16.17082098137082
 31
0.0
  0
LINE
  5
273
330
260
100
AcDbEntity
  8
SYSTEM_ASSIGNED_LAYER
  6
Continuous
 62
     1
100
AcDbLine
 10
33.21531009674072
 20
48.17082203427621
 30
0.0
 11
0.1499987822606457
 21
48.1708205889455
 31
0.0
  0
LINE
  5
274
330
260
100
AcDbEntity
  8
SYSTEM_ASSIGNED_LAYER
  6
Continuous
 62
     1
100
AcDbLine
 10
13.81530952453613
 20
13.17082149783442
 30
0.0
 11
0.1500003121592854
 21
13.17082090050476
 31
0.0
  0
TEXT
  5
275
330
260
100
AcDbEntity
  8
SYSTEM_ASSIGNED_LAYER
  6
Continuous
 62
     1
100
AcDbText
 10
2.499968258349426
 20
28.56454470800471
 30
0.0
 40
2.5
  1
35
 50
89.71352388012032
100
AcDbText
  0
ENDBLK
  5
262
330
260
100
AcDbEntity
  8
0
100
AcDbBlockEnd
  0
BLOCK
  5
277
330
276
100
AcDbEntity
  8
0
100
AcDbBlockBegin
  2
GEN_BLOCK00008
 70
     0
 10
0.0
 20
0.0
 30
0.0
  3
GEN_BLOCK00008
  1
GEN_BLOCK00008
  0
LINE
  5
27A
330
276
100
AcDbEntity
  8
1
  6
Continuous
 62
     3
100
AcDbLine
 10
20.5000012507487
 20
34.99999999971686
 30
0.0
 11
20.0000012507487
 21
34.99999999971686
 31
0.0
  0
ARC
  5
27B
330
276
100
AcDbEntity
  8
1
  6
HIDDEN
 62
     1
100
AcDbCircle
 10
20.0000012507487
 20
33.99999999971686
 30
0.0
 40
1.0
100
AcDbArc
 50
90.0
 51
171.0331085610005
  0
ARC
  5
27C
330
276
100
AcDbEntity
  8
1
  6
HIDDEN
 62
     1
100
AcDbCircle
 10
20.0000012507487
 20
33.99999999971686
 30
0.0
 40
1.0
100
AcDbArc
 50
90.0
 51
171.0331085610005
  0
ARC
  5
27D
330
276
100
AcDbEntity
  8
1
  6
HIDDEN
 62
     1
100
AcDbCircle
 10
-30.37670591492048
 20
41.94904869402085
 30
0.0
 40
50.0
100
AcDbArc
 50
308.2406063134566
 51
350.1368549270441
  0
ARC
  5
27E
330
276
100
AcDbEntity
  8
1
  6
HIDDEN
 62
     1
100
AcDbCircle
 10
-30.37670591492048
 20
41.94904869402085
 30
0.0
 40
50.0
100
AcDbArc
 50
308.2406063134566
 51
350.1368549270441
  0
ARC
  5
27F
330
276
100
AcDbEntity
  8
1
  6
Continuous
 62
     3
100
AcDbCircle
 10
-30.37670591492048
 20
41.94904869402085
 30
0.0
 40
50.0
100
AcDbArc
 50
350.1368549270441
 51
351.0331085610005
  0
ARC
  5
280
330
276
100
AcDbEntity
  8
1
  6
Continuous
 62
     3
100
AcDbCircle
 10
-30.37670591492048
 20
41.94904869402085
 30
0.0
 40
50.0
100
AcDbArc
 50
350.1368549270441
 51
351.0331085610005
  0
ARC
  5
281
330
276
100
AcDbEntity
  8
1
  6
HIDDEN
 62
     1
100
AcDbCircle
 10
1.500001250748699
 20
1.499999999716859
 30
0.0
 40
1.5
100
AcDbArc
 50
128.2406063134567
 51
180.0
  0
ARC
  5
282
330
276
100
AcDbEntity
  8
1
  6
HIDDEN
 62
     1
100
AcDbCircle
 10
1.500001250748699
 20
1.499999999716859
 30
0.0
 40
1.5
100
AcDbArc
 50
128.2406063134567
 51
180.0
  0
LINE
  5
283
330
276
100
AcDbEntity
  8
1
  6
HIDDEN
 62
     1
100
AcDbLine
 10
0.0000012507486957
 20
1.499999999716859
 30
0.0
 11
0.0000012507486957
 21
0.5999999997168585
 31
0.0
  0
ARC
  5
284
330
276
100
AcDbEntity
  8
1
  6
HIDDEN
 62
     1
100
AcDbCircle
 10
0.6000012507486971
 20
0.5999999997168585
 30
0.0
 40
0.6000000000000001
100
AcDbArc
 50
180.0
 51
0.0
  0
ARC
  5
285
330
276
100
AcDbEntity
  8
1
  6
HIDDEN
 62
     1
100
AcDbCircle
 10
0.6000012507486971
 20
0.5999999997168585
 30
0.0
 40
0.6000000000000001
100
AcDbArc
 50
180.0
 51
0.0
  0
LINE
  5
286
330
276
100
AcDbEntity
  8
1
  6
HIDDEN
 62
     1
100
AcDbLine
 10
1.200001250748699
 20
0.5999999997168585
 30
0.0
 11
1.200001250748699
 21
1.499999999716859
 31
0.0
  0
ARC
  5
287
330
276
100
AcDbEntity
  8
1
  6
Continuous
 62
     3
100
AcDbCircle
 10
1.500001250748699
 20
1.499999999716859
 30
0.0
 40
0.3
100
AcDbArc
 50
128.2406063134568
 51
180.0
  0
ARC
  5
288
330
276
100
AcDbEntity
  8
1
  6
Continuous
 62
     3
100
AcDbCircle
 10
1.500001250748699
 20
1.499999999716859
 30
0.0
 40
0.3
100
AcDbArc
 50
128.2406063134568
 51
180.0
  0
ARC
  5
289
330
276
100
AcDbEntity
  8
1
  6
HIDDEN
 62
     1
100
AcDbCircle
 10
-30.37670591492048
 20
41.94904869402085
 30
0.0
 40
51.2
100
AcDbArc
 50
308.2406063134566
 51
316.926815648196
  0
ARC
  5
28A
330
276
100
AcDbEntity
  8
1
  6
HIDDEN
 62
     1
100
AcDbCircle
 10
-30.37670591492048
 20
41.94904869402085
 30
0.0
 40
51.2
100
AcDbArc
 50
308.2406063134566
 51
316.926815648196
  0
ARC
  5
28B
330
276
100
AcDbEntity
  8
1
  6
HIDDEN
 62
     1
100
AcDbCircle
 10
-30.37670591492048
 20
41.94904869402085
 30
0.0
 40
51.2
100
AcDbArc
 50
326.7478779046779
 51
331.7771436329689
  0
ARC
  5
28C
330
276
100
AcDbEntity
  8
1
  6
HIDDEN
 62
     1
100
AcDbCircle
 10
-30.37670591492048
 20
41.94904869402085
 30
0.0
 40
51.2
100
AcDbArc
 50
326.7478779046779
 51
331.7771436329689
  0
ARC
  5
28D
330
276
100
AcDbEntity
  8
1
  6
HIDDEN
 62
     1
100
AcDbCircle
 10
-30.37670591492048
 20
41.94904869402085
 30
0.0
 40
51.2
100
AcDbArc
 50
334.2644825105555
 51
339.0932449703138
  0
ARC
  5
28E
330
276
100
AcDbEntity
  8
1
  6
HIDDEN
 62
     1
100
AcDbCircle
 10
-30.37670591492048
 20
41.94904869402085
 30
0.0
 40
51.2
100
AcDbArc
 50
334.2644825105555
 51
339.0932449703138
  0
ARC
  5
28F
330
276
100
AcDbEntity
  8
1
  6
HIDDEN
 62
     1
100
AcDbCircle
 10
-30.37670591492048
 20
41.94904869402085
 30
0.0
 40
51.2
100
AcDbArc
 50
341.4481075265272
 51
349.7112291902089
  0
ARC
  5
290
330
276
100
AcDbEntity
  8
1
  6
HIDDEN
 62
     1
100
AcDbCircle
 10
-30.37670591492048
 20
41.94904869402085
 30
0.0
 40
51.2
100
AcDbArc
 50
341.4481075265272
 51
349.7112291902089
  0
LINE
  5
291
330
276
100
AcDbEntity
  8
1
  6
Continuous
 62
     3
100
AcDbLine
 10
20.0000012507487
 20
32.80424825090476
 30
0.0
 11
20.0000012507487
 21
34.49999999971686
 31
0.0
  0
LINE
  5
292
330
276
100
AcDbEntity
  8
1
  6
Continuous
 62
     3
100
AcDbLine
 10
20.0000012507487
 20
34.49999999971686
 30
0.0
 11
20.5000012507487
 21
34.99999999971686
 31
0.0
  0
LINE
  5
293
330
276
100
AcDbEntity
  8
1
  6
HIDDEN
 62
     1
100
AcDbLine
 10
18.63674935046983
 20
24.99999999971686
 30
0.0
 11
19.5000012507487
 21
24.99999999971686
 31
0.0
  0
LINE
  5
294
330
276
100
AcDbEntity
  8
1
  6
Continuous
 62
     3
100
AcDbLine
 10
20.0000012507487
 20
24.49999999971686
 30
0.0
 11
20.0000012507487
 21
24.49999999971686
 31
0.0
  0
LINE
  5
295
330
276
100
AcDbEntity
  8
1
  6
HIDDEN
 62
     1
100
AcDbLine
 10
19.5000012507487
 20
23.99999999971686
 30
0.0
 11
17.91949064624986
 21
23.99999999971686
 31
0.0
  0
ARC
  5
296
330
276
100
AcDbEntity
  8
1
  6
Continuous
 62
     3
100
AcDbCircle
 10
18.63674935046983
 20
25.49999999971686
 30
0.0
 40
0.5
100
AcDbArc
 50
161.4481075265274
 51
270.0
  0
ARC
  5
297
330
276
100
AcDbEntity
  8
1
  6
Continuous
 62
     3
100
AcDbCircle
 10
18.63674935046983
 20
25.49999999971686
 30
0.0
 40
0.5
100
AcDbArc
 50
161.4481075265274
 51
270.0
  0
ARC
  5
298
330
276
100
AcDbEntity
  8
1
  6
Continuous
 62
     3
100
AcDbCircle
 10
17.91949064624986
 20
23.49999999971686
 30
0.0
 40
0.5
100
AcDbArc
 50
90.0
 51
159.0932449703137
  0
ARC
  5
299
330
276
100
AcDbEntity
  8
1
  6
Continuous
 62
     3
100
AcDbCircle
 10
17.91949064624986
 20
23.49999999971686
 30
0.0
 40
0.5
100
AcDbArc
 50
90.0
 51
159.0932449703137
  0
ARC
  5
29A
330
276
100
AcDbEntity
  8
1
  6
Continuous
 62
     3
100
AcDbCircle
 10
19.5000012507487
 20
24.49999999971686
 30
0.0
 40
0.5
100
AcDbArc
 50
0.0
 51
90.0
  0
ARC
  5
29B
330
276
100
AcDbEntity
  8
1
  6
Continuous
 62
     3
100
AcDbCircle
 10
19.5000012507487
 20
24.49999999971686
 30
0.0
 40
0.5
100
AcDbArc
 50
0.0
 51
90.0
  0
ARC
  5
29C
330
276
100
AcDbEntity
  8
1
  6
HIDDEN
 62
     1
100
AcDbCircle
 10
19.5000012507487
 20
24.49999999971686
 30
0.0
 40
0.5
100
AcDbArc
 50
270.0
 51
0.0
  0
ARC
  5
29D
330
276
100
AcDbEntity
  8
1
  6
HIDDEN
 62
     1
100
AcDbCircle
 10
19.5000012507487
 20
24.49999999971686
 30
0.0
 40
0.5
100
AcDbArc
 50
270.0
 51
0.0
  0
LINE
  5
29E
330
276
100
AcDbEntity
  8
1
  6
HIDDEN
 62
     1
100
AcDbLine
 10
16.19506893552697
 20
18.99999999971686
 30
0.0
 11
18.5000012507487
 21
18.99999999971686
 31
0.0
  0
LINE
  5
29F
330
276
100
AcDbEntity
  8
1
  6
Continuous
 62
     3
100
AcDbLine
 10
19.0000012507487
 20
18.49999999971686
 30
0.0
 11
19.0000012507487
 21
18.49999999971686
 31
0.0
  0
LINE
  5
2A0
330
276
100
AcDbEntity
  8
1
  6
HIDDEN
 62
     1
100
AcDbLine
 10
18.5000012507487
 20
17.99999999971686
 30
0.0
 11
15.17693299508926
 21
17.99999999971686
 31
0.0
  0
ARC
  5
2A1
330
276
100
AcDbEntity
  8
1
  6
Continuous
 62
     3
100
AcDbCircle
 10
16.19506893552697
 20
19.49999999971686
 30
0.0
 40
0.5
100
AcDbArc
 50
154.2644825105553
 51
270.0
  0
ARC
  5
2A2
330
276
100
AcDbEntity
  8
1
  6
Continuous
 62
     3
100
AcDbCircle
 10
16.19506893552697
 20
19.49999999971686
 30
0.0
 40
0.5
100
AcDbArc
 50
154.2644825105553
 51
270.0
  0
ARC
  5
2A3
330
276
100
AcDbEntity
  8
1
  6
Continuous
 62
     3
100
AcDbCircle
 10
15.17693299508926
 20
17.49999999971686
 30
0.0
 40
0.5
100
AcDbArc
 50
90.0
 51
151.7771436329691
  0
ARC
  5
2A4
330
276
100
AcDbEntity
  8
1
  6
Continuous
 62
     3
100
AcDbCircle
 10
15.17693299508926
 20
17.49999999971686
 30
0.0
 40
0.5
100
AcDbArc
 50
90.0
 51
151.7771436329691
  0
ARC
  5
2A5
330
276
100
AcDbEntity
  8
1
  6
Continuous
 62
     3
100
AcDbCircle
 10
18.5000012507487
 20
18.49999999971686
 30
0.0
 40
0.5
100
AcDbArc
 50
0.0
 51
90.0
  0
ARC
  5
2A6
330
276
100
AcDbEntity
  8
1
  6
Continuous
 62
     3
100
AcDbCircle
 10
18.5000012507487
 20
18.49999999971686
 30
0.0
 40
0.5
100
AcDbArc
 50
0.0
 51
90.0
  0
ARC
  5
2A7
330
276
100
AcDbEntity
  8
1
  6
HIDDEN
 62
     1
100
AcDbCircle
 10
18.5000012507487
 20
18.49999999971686
 30
0.0
 40
0.5
100
AcDbArc
 50
270.0
 51
0.0
  0
ARC
  5
2A8
330
276
100
AcDbEntity
  8
1
  6
HIDDEN
 62
     1
100
AcDbCircle
 10
18.5000012507487
 20
18.49999999971686
 30
0.0
 40
0.5
100
AcDbArc
 50
270.0
 51
0.0
  0
LINE
  5
2A9
330
276
100
AcDbEntity
  8
1
  6
Continuous
 62
     3
100
AcDbLine
 10
18.03114463061294
 20
3.658493648770751
 30
0.0
 11
18.7000012507487
 21
2.499999999716856
 31
0.0
  0
LINE
  5
2AA
330
276
100
AcDbEntity
  8
1
  6
HIDDEN
 62
     1
100
AcDbLine
 10
18.7000012507487
 20
2.499999999716856
 30
0.0
 11
18.7000012507487
 21
0.9999999997168559
 31
0.0
  0
LINE
  5
2AB
330
276
100
AcDbEntity
  8
1
  6
Continuous
 62
     3
100
AcDbLine
 10
19.7000012507487
 20
-0.0000000002831442
 30
0.0
 11
20.0000012507487
 21
-0.0000000002831442
 31
0.0
  0
LINE
  5
2AC
330
276
100
AcDbEntity
  8
1
  6
Continuous
 62
     3
100
AcDbLine
 10
20.0000012507487
 20
0.4999999997168558
 30
0.0
 11
20.0000012507487
 21
2.848333949877327
 31
0.0
  0
LINE
  5
2AD
330
276
100
AcDbEntity
  8
1
  6
HIDDEN
 62
     1
100
AcDbLine
 10
20.0000012507487
 20
2.848333949877327
 30
0.0
 11
17.57416822582887
 21
7.049999999716858
 31
0.0
  0
LINE
  5
2AE
330
276
100
AcDbEntity
  8
1
  6
Continuous
 62
     3
100
AcDbLine
 10
17.78114463061294
 20
4.091506350662961
 30
0.0
 11
18.12265098155905
 21
3.999999999716858
 31
0.0
  0
LINE
  5
2AF
330
276
100
AcDbEntity
  8
1
  6
Continuous
 62
     3
100
AcDbLine
 10
18.12265098155905
 20
3.999999999716858
 30
0.0
 11
18.03114463061294
 21
3.658493648770754
 31
0.0
  0
LINE
  5
2B0
330
276
100
AcDbEntity
  8
1
  6
Continuous
 62
     3
100
AcDbLine
 10
20.0000012507487
 20
-0.0000000002831442
 30
0.0
 11
20.5000012507487
 21
0.4999999997168558
 31
0.0
  0
LINE
  5
2B1
330
276
100
AcDbEntity
  8
1
  6
Continuous
 62
     3
100
AcDbLine
 10
20.5000012507487
 20
0.4999999997168558
 30
0.0
 11
20.0000012507487
 21
0.4999999997168629
 31
0.0
  0
ARC
  5
2B2
330
276
100
AcDbEntity
  8
1
  6
HIDDEN
 62
     1
100
AcDbCircle
 10
19.7000012507487
 20
0.9999999997168558
 30
0.0
 40
1.0
100
AcDbArc
 50
180.0
 51
270.0
  0
ARC
  5
2B3
330
276
100
AcDbEntity
  8
1
  6
HIDDEN
 62
     1
100
AcDbCircle
 10
19.7000012507487
 20
0.9999999997168558
 30
0.0
 40
1.0
100
AcDbArc
 50
180.0
 51
270.0
  0
LINE
  5
2B4
330
276
100
AcDbEntity
  8
1
  6
Continuous
 62
     3
100
AcDbLine
 10
17.78114463061294
 20
4.091506350662961
 30
0.0
 11
16.21739509323325
 21
6.79999999971686
 31
0.0
  0
LINE
  5
2B5
330
276
100
AcDbEntity
  8
1
  6
HIDDEN
 62
     1
100
AcDbLine
 10
15.35136968944881
 20
7.299999999716853
 30
0.0
 11
12.03641483651852
 21
7.299999999716859
 31
0.0
  0
LINE
  5
2B6
330
276
100
AcDbEntity
  8
1
  6
HIDDEN
 62
     1
100
AcDbLine
 10
17.57416822582887
 20
7.049999999716858
 30
0.0
 11
17.02568547009871
 21
7.999999999716865
 31
0.0
  0
LINE
  5
2B7
330
276
100
AcDbEntity
  8
1
  6
HIDDEN
 62
     1
100
AcDbLine
 10
16.15966006631428
 20
8.499999999716856
 30
0.0
 11
15.25200187468122
 21
8.499999999716858
 31
0.0
  0
ARC
  5
2B8
330
276
100
AcDbEntity
  8
1
  6
Continuous
 62
     3
100
AcDbCircle
 10
15.35136968944881
 20
6.299999999716853
 30
0.0
 40
1.0
100
AcDbArc
 50
30.00000000000049
 51
90.0
  0
ARC
  5
2B9
330
276
100
AcDbEntity
  8
1
  6
Continuous
 62
     3
100
AcDbCircle
 10
15.35136968944881
 20
6.299999999716853
 30
0.0
 40
1.0
100
AcDbArc
 50
30.00000000000049
 51
90.0
  0
ARC
  5
2BA
330
276
100
AcDbEntity
  8
1
  6
HIDDEN
 62
     1
100
AcDbCircle
 10
16.15966006631428
 20
7.499999999716856
 30
0.0
 40
1.0
100
AcDbArc
 50
30.00000000000058
 51
90.0
  0
ARC
  5
2BB
330
276
100
AcDbEntity
  8
1
  6
HIDDEN
 62
     1
100
AcDbCircle
 10
16.15966006631428
 20
7.499999999716856
 30
0.0
 40
1.0
100
AcDbArc
 50
30.00000000000058
 51
90.0
  0
ARC
  5
2BC
330
276
100
AcDbEntity
  8
1
  6
HIDDEN
 62
     1
100
AcDbCircle
 10
12.03641483651852
 20
10.24999999971686
 30
0.0
 40
2.95
100
AcDbArc
 50
68.53132244406378
 51
76.2190985391689
  0
ARC
  5
2BD
330
276
100
AcDbEntity
  8
1
  6
HIDDEN
 62
     1
100
AcDbCircle
 10
12.03641483651852
 20
10.24999999971686
 30
0.0
 40
2.95
100
AcDbArc
 50
68.53132244406378
 51
76.2190985391689
  0
ARC
  5
2BE
330
276
100
AcDbEntity
  8
1
  6
HIDDEN
 62
     1
100
AcDbCircle
 10
12.89659533856948
 20
12.43720112257594
 30
0.0
 40
0.6010484572350691
100
AcDbArc
 50
248.531322444064
 51
68.53132244406379
  0
ARC
  5
2BF
330
276
100
AcDbEntity
  8
1
  6
HIDDEN
 62
     1
100
AcDbCircle
 10
12.89659533856948
 20
12.43720112257594
 30
0.0
 40
0.6010484572350691
100
AcDbArc
 50
248.531322444064
 51
68.53132244406379
  0
ARC
  5
2C0
330
276
100
AcDbEntity
  8
1
  6
HIDDEN
 62
     1
100
AcDbCircle
 10
12.03641483651852
 20
10.24999999971686
 30
0.0
 40
1.75
100
AcDbArc
 50
68.53132244406373
 51
342.707081970273
  0
ARC
  5
2C1
330
276
100
AcDbEntity
  8
1
  6
HIDDEN
 62
     1
100
AcDbCircle
 10
12.03641483651852
 20
10.24999999971686
 30
0.0
 40
1.75
100
AcDbArc
 50
68.53132244406373
 51
342.707081970273
  0
ARC
  5
2C2
330
276
100
AcDbEntity
  8
1
  6
HIDDEN
 62
     1
100
AcDbCircle
 10
14.28018991957772
 20
9.551446116555404
 30
0.0
 40
0.6000034591877447
100
AcDbArc
 50
342.707081970273
 51
162.707081970273
  0
ARC
  5
2C3
330
276
100
AcDbEntity
  8
1
  6
HIDDEN
 62
     1
100
AcDbCircle
 10
14.28018991957772
 20
9.551446116555404
 30
0.0
 40
0.6000034591877447
100
AcDbArc
 50
342.707081970273
 51
162.707081970273
  0
ARC
  5
2C4
330
276
100
AcDbEntity
  8
1
  6
HIDDEN
 62
     1
100
AcDbCircle
 10
12.03641483651852
 20
10.24999999971686
 30
0.0
 40
2.95
100
AcDbArc
 50
210.2329221307154
 51
270.0
  0
ARC
  5
2C5
330
276
100
AcDbEntity
  8
1
  6
HIDDEN
 62
     1
100
AcDbCircle
 10
12.03641483651852
 20
10.24999999971686
 30
0.0
 40
2.95
100
AcDbArc
 50
210.2329221307154
 51
270.0
  0
ARC
  5
2C6
330
276
100
AcDbEntity
  8
1
  6
HIDDEN
 62
     1
100
AcDbCircle
 10
-30.37670591492048
 20
41.94904869402085
 30
0.0
 40
51.2
100
AcDbArc
 50
315.4018664955978
 51
319.7041427652063
  0
ARC
  5
2C7
330
276
100
AcDbEntity
  8
1
  6
HIDDEN
 62
     1
100
AcDbCircle
 10
-30.37670591492048
 20
41.94904869402085
 30
0.0
 40
51.2
100
AcDbArc
 50
315.4018664955978
 51
319.7041427652063
  0
ARC
  5
2C8
330
276
100
AcDbEntity
  8
1
  6
HIDDEN
 62
     1
100
AcDbCircle
 10
9.05566443287615
 20
8.512868159243709
 30
0.0
 40
0.5
100
AcDbArc
 50
30.2329221307151
 51
139.7041427652063
  0
ARC
  5
2C9
330
276
100
AcDbEntity
  8
1
  6
HIDDEN
 62
     1
100
AcDbCircle
 10
9.05566443287615
 20
8.512868159243709
 30
0.0
 40
0.5
100
AcDbArc
 50
30.2329221307151
 51
139.7041427652063
  0
ARC
  5
2CA
330
276
100
AcDbEntity
  8
1
  6
Continuous
 62
     3
100
AcDbCircle
 10
12.85823841820256
 20
13.60068739196755
 30
0.0
 40
0.5
100
AcDbArc
 50
146.7478779046781
 51
256.219098539169
  0
ARC
  5
2CB
330
276
100
AcDbEntity
  8
1
  6
Continuous
 62
     3
100
AcDbCircle
 10
12.85823841820256
 20
13.60068739196755
 30
0.0
 40
0.5
100
AcDbArc
 50
146.7478779046781
 51
256.219098539169
  0
ARC
  5
2CC
330
276
100
AcDbEntity
  8
1
  6
Continuous
 62
     3
100
AcDbCircle
 10
15.25200187468122
 20
8.999999999716856
 30
0.0
 40
0.5
100
AcDbArc
 50
158.7573275728512
 51
270.0
  0
ARC
  5
2CD
330
276
100
AcDbEntity
  8
1
  6
Continuous
 62
     3
100
AcDbCircle
 10
15.25200187468122
 20
8.999999999716856
 30
0.0
 40
0.5
100
AcDbArc
 50
158.7573275728512
 51
270.0
  0
LINE
  5
2CE
330
276
100
AcDbEntity
  8
1
  6
HIDDEN
 62
     1
100
AcDbLine
 10
14.85307175170792
 20
9.373090972384011
 30
0.0
 11
14.78023479287443
 21
9.165637617797724
 31
0.0
  0
LINE
  5
2CF
330
276
100
AcDbEntity
  8
1
  6
Continuous
 62
     3
100
AcDbLine
 10
14.76366348485157
 20
9.125449062602167
 30
0.0
 11
14.78597476770112
 21
9.181159420006711
 31
0.0
  0
ENDBLK
  5
278
330
276
100
AcDbEntity
  8
0
100
AcDbBlockEnd
  0
BLOCK
  5
2D1
330
2D0
100
AcDbEntity
  8
0
100
AcDbBlockBegin
  2
GEN_BLOCK00009
 70
     0
 10
0.0
 20
0.0
 30
0.0
  3
GEN_BLOCK00009
  1
GEN_BLOCK00009
  0
LINE
  5
2D4
330
2D0
100
AcDbEntity
  8
0
  6
Continuous
 62
     9
100
AcDbLine
 10
0.0000026988430477
 20
18.00000724078798
 30
0.0
 11
196.0200119639592
 21
18.00000724078798
 31
0.0
  0
LINE
  5
2D5
330
2D0
100
AcDbEntity
  8
0
  6
Continuous
 62
     9
100
AcDbLine
 10
114.000002698843
 20
18.00000724078797
 30
0.0
 11
114.000002698843
 21
0.0000072407879657
 31
0.0
  0
LINE
  5
2D6
330
2D0
100
AcDbEntity
  8
0
  6
Continuous
 62
     9
100
AcDbLine
 10
103.7450599639593
 20
28.00000724078797
 30
0.0
 11
103.7450599639593
 21
18.00000724078797
 31
0.0
  0
LINE
  5
2D7
330
2D0
100
AcDbEntity
  8
0
  6
Continuous
 62
     9
100
AcDbLine
 10
135.1700439639593
 20
18.00000724078797
 30
0.0
 11
135.1700439639593
 21
38.00000724078797
 31
0.0
  0
LINE
  5
2D8
330
2D0
100
AcDbEntity
  8
0
  6
Continuous
 62
     9
100
AcDbLine
 10
166.5950279639593
 20
18.00000724078797
 30
0.0
 11
166.5950279639593
 21
38.00000724078797
 31
0.0
  0
LINE
  5
2D9
330
2D0
100
AcDbEntity
  8
0
  6
Continuous
 62
     9
100
AcDbLine
 10
114.000002698843
 20
9.000007240787909
 30
0.0
 11
196.0200119639592
 21
9.000007240787966
 31
0.0
  0
LINE
  5
2DA
330
2D0
100
AcDbEntity
  8
0
  6
Continuous
 62
     9
100
AcDbLine
 10
135.1700439639593
 20
38.00000724078798
 30
0.0
 11
196.0200119639592
 21
38.00000724078797
 31
0.0
  0
LINE
  5
2DB
330
2D0
100
AcDbEntity
  8
0
  6
Continuous
 62
     9
100
AcDbLine
 10
103.7450599639593
 20
28.00000724078797
 30
0.0
 11
196.0200119639592
 21
28.00000724078797
 31
0.0
  0
LINE
  5
2DC
330
2D0
100
AcDbEntity
  8
0
  6
Continuous
 62
     9
100
AcDbLine
 10
0.0000026988430477
 20
0.0000072407879657
 30
0.0
 11
0.0000026988430477
 21
0.0000072407879657
 31
0.0
  0
LINE
  5
2DD
330
2D0
100
AcDbEntity
  8
0
  6
Continuous
 62
     9
100
AcDbLine
 10
196.0200119639592
 20
0.0000072407879657
 30
0.0
 11
196.0200119639592
 21
283.0594585255471
 31
0.0
  0
LINE
  5
2DE
330
2D0
100
AcDbEntity
  8
0
  6
Continuous
 62
     9
100
AcDbLine
 10
0.0000026988430477
 20
0.0000072407879657
 30
0.0
 11
0.0000026988430477
 21
283.0594585255471
 31
0.0
  0
LINE
  5
2DF
330
2D0
100
AcDbEntity
  8
0
  6
Continuous
 62
     9
100
AcDbLine
 10
0.0000026988430477
 20
283.0594585255471
 30
0.0
 11
196.0200119639592
 21
283.0594585255471
 31
0.0
  0
LINE
  5
2E0
330
2D0
100
AcDbEntity
  8
0
  6
Continuous
 62
     9
100
AcDbLine
 10
196.0200119639592
 20
0.0000072407879657
 30
0.0
 11
196.0200119639592
 21
0.0000072407879657
 31
0.0
  0
LINE
  5
2E1
330
2D0
100
AcDbEntity
  8
0
  6
Continuous
 62
     9
100
AcDbLine
 10
196.0200119639592
 20
0.0000072407879657
 30
0.0
 11
0.0000026988430477
 21
0.0000072407879657
 31
0.0
  0
ENDBLK
  5
2D2
330
2D0
100
AcDbEntity
  8
0
100
AcDbBlockEnd
  0
ENDSEC
  0
SECTION
  2
ENTITIES
  0
INSERT
  5
76
330
1F
100
AcDbEntity
  8
0
100
AcDbBlockReference
  2
GEN_BLOCK
 10
14.08394622802734
 20
129.3023529052734
 30
0.0
  0
INSERT
  5
81
330
1F
100
AcDbEntity
  8
FIXING
100
AcDbBlockReference
 66
     1
  2
8569S
 10
-17.64826965332031
 20
0.6177359819412231
 30
0.0
  0
ATTRIB
  5
82
330
81
100
AcDbEntity
  8
FIXING
100
AcDbText
 10
0.0
 20
0.0
 30
0.0
 40
1.0
  1
8569S
100
AcDbAttribute
  2
PAT_NAME
 70
     1
280
     0
  0
SEQEND
  5
83
330
81
100
AcDbEntity
  8
FIXING
  0
INSERT
  5
1D5
330
1F
100
AcDbEntity
  8
1
100
AcDbBlockReference
 66
     1
  2
_RASTER_[__EXITEX-DC2_ARTWORK_PIERCE_COMMUNICATIONS_LOGO_EXITEXLOGOSMALLVERSION_JPG]
 10
-86.04881286621094
 20
-140.4469604492188
 30
0.0
  0
ATTRIB
  5
1D6
330
1D5
100
AcDbEntity
  8
1
100
AcDbText
 10
0.0
 20
0.0
 30
0.0
 40
1.0
  1
_RASTER_[\\EXITEX-DC2\ARTWORK\PIERCE COMMUNICATIONS\LOGO\EXITEXLOGOSMALLVERSION.JPG]
100
AcDbAttribute
  2
PAT_NAME
 70
     1
280
     0
  0
SEQEND
  5
1D7
330
1D5
100
AcDbEntity
  8
1
  0
INSERT
  5
1DB
330
1F
100
AcDbEntity
  8
1
100
AcDbBlockReference
  2
GEN_BLOCK00000
 10
-95.37540435791016
 20
134.6907958984375
 30
0.0
  0
INSERT
  5
1E1
330
1F
100
AcDbEntity
  8
1
100
AcDbBlockReference
  2
GEN_BLOCK00001
 10
-11.87376880645752
 20
-1.751867532730103
 30
0.0
  0
INSERT
  5
1F1
330
1F
100
AcDbEntity
  8
0
100
AcDbBlockReference
  2
GEN_BLOCK00002
 10
-97.93606567382812
 20
-141.7571105957031
 30
0.0
  0
INSERT
  5
203
330
1F
100
AcDbEntity
  8
0
100
AcDbBlockReference
  2
GEN_BLOCK00003
 10
-97.93606567382812
 20
-141.7571105957031
 30
0.0
  0
INSERT
  5
208
330
1F
100
AcDbEntity
  8
SYSTEM_ASSIGNED_LAYER
100
AcDbBlockReference
  2
GEN_BLOCK00004
 10
-81.79373168945312
 20
-5.103911876678467
 30
0.0
  0
INSERT
  5
216
330
1F
100
AcDbEntity
  8
1
100
AcDbBlockReference
  2
GEN_BLOCK00005
 10
-47.12488555908203
 20
-39.15294647216797
 30
0.0
  0
INSERT
  5
226
330
1F
100
AcDbEntity
  8
0
100
AcDbBlockReference
 66
     1
  2
PROTO
 10
-95.69649505615234
 20
-140.2448272705078
 30
0.0
  0
ATTRIB
  5
227
330
226
100
AcDbEntity
  8
0
100
AcDbText
 10
0.0
 20
0.0
 30
0.0
 40
1.0
  1
PROTO
100
AcDbAttribute
  2
PAT_NAME
 70
     1
280
     0
  0
SEQEND
  5
228
330
226
100
AcDbEntity
  8
0
  0
INSERT
  5
242
330
1F
100
AcDbEntity
  8
1
100
AcDbBlockReference
  2
GEN_BLOCK00006
 10
-33.55384063720703
 20
-1.918315649032593
 30
0.0
  0
INSERT
  5
263
330
1F
100
AcDbEntity
  8
SYSTEM_ASSIGNED_LAYER
100
AcDbBlockReference
  2
GEN_BLOCK00007
 10
-48.06608963012695
 20
-13.74881744384766
 30
0.0
  0
INSERT
  5
279
330
1F
100
AcDbEntity
  8
1
100
AcDbBlockReference
  2
GEN_BLOCK00008
 10
-32.35078048706055
 20
-0.5779958367347717
 30
0.0
  0
INSERT
  5
2D3
330
1F
100
AcDbEntity
  8
0
100
AcDbBlockReference
  2
GEN_BLOCK00009
 10
-97.93606567382812
 20
-141.7571105957031
 30
0.0
  0
ENDSEC
  0
SECTION
  2
OBJECTS
  0
DICTIONARY
  5
C
330
0
100
AcDbDictionary
281
     1
  3
ACAD_DETAILVIEWSTYLE
350
316
  3
ACAD_GROUP
350
D
  3
ACAD_LAYOUT
350
1A
  3
ACAD_MATERIAL
350
43
  3
ACAD_MLEADERSTYLE
350
315
  3
ACAD_MLINESTYLE
350
17
  3
ACAD_PLOTSETTINGS
350
19
  3
ACAD_PLOTSTYLENAME
350
E
  3
ACAD_SCALELIST
350
47
  3
ACAD_SECTIONVIEWSTYLE
350
317
  3
ACAD_TABLESTYLE
350
314
  3
ACAD_VISUALSTYLE
350
2A
  3
AcDbVariableDictionary
350
2E2
  0
SUN
  5
69
330
29
100
AcDbSun
 90
        1
290
     0
 63
     7
421
 16777215
 40
1.0
291
     1
 91
  2455826
 92
 54000000
292
     0
 70
     2
 71
   256
280
     1
  0
DICTIONARY
  5
316
102
{ACAD_REACTORS
330
C
102
}
330
C
100
AcDbDictionary
281
     1
  0
DICTIONARY
  5
D
102
{ACAD_REACTORS
330
C
102
}
330
C
100
AcDbDictionary
281
     1
  0
DICTIONARY
  5
1A
102
{ACAD_REACTORS
330
C
102
}
330
C
100
AcDbDictionary
281
     1
  3
Layout1
350
1E
  3
Layout2
350
26
  3
Model
350
22
  0
DICTIONARY
  5
43
102
{ACAD_REACTORS
330
C
102
}
330
C
100
AcDbDictionary
281
     1
  3
ByBlock
350
45
  3
ByLayer
350
44
  3
Global
350
46
  0
DICTIONARY
  5
315
102
{ACAD_REACTORS
330
C
102
}
330
C
100
AcDbDictionary
281
     1
  0
DICTIONARY
  5
17
102
{ACAD_REACTORS
330
C
102
}
330
C
100
AcDbDictionary
281
     1
  3
Standard
350
18
  0
DICTIONARY
  5
19
102
{ACAD_REACTORS
330
C
102
}
330
C
100
AcDbDictionary
281
     1
  0
ACDBDICTIONARYWDFLT
  5
E
102
{ACAD_REACTORS
330
C
102
}
330
C
100
AcDbDictionary
281
     1
  3
Normal
350
F
100
AcDbDictionaryWithDefault
340
F
  0
DICTIONARY
  5
47
102
{ACAD_REACTORS
330
C
102
}
330
C
100
AcDbDictionary
281
     1
  3
A0
350
48
  3
A1
350
49
  3
A2
350
4A
  3
A3
350
4B
  3
A4
350
4C
  3
A5
350
4D
  3
A6
350
4E
  3
A7
350
4F
  3
A8
350
50
  3
A9
350
51
  3
B0
350
52
  3
B1
350
53
  3
B2
350
54
  3
B3
350
55
  3
B4
350
56
  3
B5
350
57
  3
B6
350
58
  3
B7
350
59
  3
B8
350
5A
  3
B9
350
5B
  3
C0
350
5C
  3
C1
350
5D
  3
C2
350
5E
  3
C3
350
5F
  3
C4
350
60
  3
C5
350
61
  3
C6
350
62
  3
C7
350
63
  3
C8
350
64
  3
C9
350
65
  3
D0
350
66
  3
D1
350
67
  3
D2
350
68
  0
DICTIONARY
  5
317
102
{ACAD_REACTORS
330
C
102
}
330
C
100
AcDbDictionary
281
     1
  0
DICTIONARY
  5
314
102
{ACAD_REACTORS
330
C
102
}
330
C
100
AcDbDictionary
281
     1
  0
DICTIONARY
  5
2A
102
{ACAD_REACTORS
330
C
102
}
330
C
100
AcDbDictionary
281
     1
  3
2dWireframe
350
2F
  3
Basic
350
32
  3
Brighten
350
36
  3
ColorChange
350
3A
  3
Conceptual
350
34
  3
Dim
350
35
  3
EdgeColorOff
350
3D
  3
Facepattern
350
39
  3
Flat
350
2B
  3
FlatWithEdges
350
2C
  3
Gouraud
350
2D
  3
GouraudWithEdges
350
2E
  3
Hidden
350
31
  3
JitterOff
350
3B
  3
Linepattern
350
38
  3
OverhangOff
350
3C
  3
Realistic
350
33
  3
Shaded
350
42
  3
Shaded with edges
350
41
  3
Shades of Gray
350
3E
  3
Sketchy
350
3F
  3
Thicken
350
37
  3
Wireframe
350
30
  3
X-Ray
350
40
  0
DICTIONARY
  5
2E2
102
{ACAD_REACTORS
330
C
102
}
330
C
100
AcDbDictionary
281
     1
  3
CANNOSCALE
350
2E3
  0
LAYOUT
  5
1E
102
{ACAD_REACTORS
330
1A
102
}
330
1A
100
AcDbPlotSettings
  1

  2
none_device
  4

  6

 40
0.0
 41
0.0
 42
0.0
 43
0.0
 44
0.0
 45
0.0
 46
0.0
 47
0.0
 48
0.0
 49
0.0
140
0.0
141
0.0
142
1.0
143
1.0
 70
   688
 72
     1
 73
     0
 74
     5
  7

 75
    16
 76
     0
 77
     2
 78
   300
147
1.0
148
0.0
149
0.0
100
AcDbLayout
  1
Layout1
 70
     1
 71
     1
 10
0.0
 20
0.0
 11
420.0
 21
297.0
 12
0.0
 22
0.0
 32
0.0
 14
1.000000000000000E+20
 24
1.000000000000000E+20
 34
1.000000000000000E+20
 15
-1.000000000000000E+20
 25
-1.000000000000000E+20
 35
-1.000000000000000E+20
146
0.0
 13
0.0
 23
0.0
 33
0.0
 16
1.0
 26
0.0
 36
0.0
 17
0.0
 27
1.0
 37
0.0
 76
     0
330
1B
  0
LAYOUT
  5
26
102
{ACAD_REACTORS
330
1A
102
}
330
1A
100
AcDbPlotSettings
  1

  2
none_device
  4

  6

 40
0.0
 41
0.0
 42
0.0
 43
0.0
 44
0.0
 45
0.0
 46
0.0
 47
0.0
 48
0.0
 49
0.0
140
0.0
141
0.0
142
1.0
143
1.0
 70
   688
 72
     1
 73
     0
 74
     5
  7

 75
    16
 76
     0
 77
     2
 78
   300
147
1.0
148
0.0
149
0.0
100
AcDbLayout
  1
Layout2
 70
     1
 71
     2
 10
0.0
 20
0.0
 11
0.0
 21
0.0
 12
0.0
 22
0.0
 32
0.0
 14
0.0
 24
0.0
 34
0.0
 15
0.0
 25
0.0
 35
0.0
146
0.0
 13
0.0
 23
0.0
 33
0.0
 16
1.0
 26
0.0
 36
0.0
 17
0.0
 27
1.0
 37
0.0
 76
     0
330
23
  0
LAYOUT
  5
22
102
{ACAD_REACTORS
330
1A
102
}
330
1A
100
AcDbPlotSettings
  1

  2
none_device
  4
Letter_(8.50_x_11.00_Inches)
  6

 40
6.35
 41
6.35
 42
6.35000508
 43
6.35000508
 44
215.9
 45
279.4
 46
0.0
 47
0.0
 48
0.0
 49
0.0
140
0.0
141
0.0
142
1.0
143
1.0
 70
  1712
 72
     1
 73
     0
 74
     0
  7

 75
     0
 76
     0
 77
     2
 78
   300
147
1.0
148
0.0
149
0.0
100
AcDbLayout
  1
Model
 70
     1
 71
     0
 10
0.0
 20
0.0
 11
420.0
 21
297.0
 12
0.0
 22
0.0
 32
0.0
 14
-97.93606297498508
 24
-141.7571033549152
 34
0.0
 15
98.0839462901311
 25
141.302347929844
 35
0.0
146
0.0
 13
0.0
 23
0.0
 33
0.0
 16
1.0
 26
0.0
 36
0.0
 17
0.0
 27
1.0
 37
0.0
 76
     0
330
1F
331
29
  0
MATERIAL
  5
45
102
{ACAD_REACTORS
330
43
102
}
330
43
100
AcDbMaterial
  1
ByBlock
 72
     1
 94
      127
  0
MATERIAL
  5
44
102
{ACAD_REACTORS
330
43
102
}
330
43
100
AcDbMaterial
  1
ByLayer
 72
     1
 94
      127
  0
MATERIAL
  5
46
102
{ACAD_REACTORS
330
43
102
}
330
43
100
AcDbMaterial
  1
Global
 72
     1
 94
      127
  0
MLINESTYLE
  5
18
102
{ACAD_REACTORS
330
17
102
}
330
17
100
AcDbMlineStyle
  2
Standard
 70
     0
  3

 62
   256
 51
90.0
 52
90.0
 71
     2
 49
0.5
 62
   256
  6
BYLAYER
 49
-0.5
 62
   256
  6
BYLAYER
  0
ACDBPLACEHOLDER
  5
F
102
{ACAD_REACTORS
330
E
102
}
330
E
  0
SCALE
  5
48
102
{ACAD_REACTORS
330
47
102
}
330
47
100
AcDbScale
 70
     0
300
1:1
140
1.0
141
1.0
290
     1
  0
SCALE
  5
49
102
{ACAD_REACTORS
330
47
102
}
330
47
100
AcDbScale
 70
     0
300
1:2
140
1.0
141
2.0
290
     0
  0
SCALE
  5
4A
102
{ACAD_REACTORS
330
47
102
}
330
47
100
AcDbScale
 70
     0
300
1:4
140
1.0
141
4.0
290
     0
  0
SCALE
  5
4B
102
{ACAD_REACTORS
330
47
102
}
330
47
100
AcDbScale
 70
     0
300
1:5
140
1.0
141
5.0
290
     0
  0
SCALE
  5
4C
102
{ACAD_REACTORS
330
47
102
}
330
47
100
AcDbScale
 70
     0
300
1:8
140
1.0
141
8.0
290
     0
  0
SCALE
  5
4D
102
{ACAD_REACTORS
330
47
102
}
330
47
100
AcDbScale
 70
     0
300
1:10
140
1.0
141
10.0
290
     0
  0
SCALE
  5
4E
102
{ACAD_REACTORS
330
47
102
}
330
47
100
AcDbScale
 70
     0
300
1:16
140
1.0
141
16.0
290
     0
  0
SCALE
  5
4F
102
{ACAD_REACTORS
330
47
102
}
330
47
100
AcDbScale
 70
     0
300
1:20
140
1.0
141
20.0
290
     0
  0
SCALE
  5
50
102
{ACAD_REACTORS
330
47
102
}
330
47
100
AcDbScale
 70
     0
300
1:30
140
1.0
141
30.0
290
     0
  0
SCALE
  5
51
102
{ACAD_REACTORS
330
47
102
}
330
47
100
AcDbScale
 70
     0
300
1:40
140
1.0
141
40.0
290
     0
  0
SCALE
  5
52
102
{ACAD_REACTORS
330
47
102
}
330
47
100
AcDbScale
 70
     0
300
1:50
140
1.0
141
50.0
290
     0
  0
SCALE
  5
53
102
{ACAD_REACTORS
330
47
102
}
330
47
100
AcDbScale
 70
     0
300
1:100
140
1.0
141
100.0
290
     0
  0
SCALE
  5
54
102
{ACAD_REACTORS
330
47
102
}
330
47
100
AcDbScale
 70
     0
300
2:1
140
2.0
141
1.0
290
     0
  0
SCALE
  5
55
102
{ACAD_REACTORS
330
47
102
}
330
47
100
AcDbScale
 70
     0
300
4:1
140
4.0
141
1.0
290
     0
  0
SCALE
  5
56
102
{ACAD_REACTORS
330
47
102
}
330
47
100
AcDbScale
 70
     0
300
8:1
140
8.0
141
1.0
290
     0
  0
SCALE
  5
57
102
{ACAD_REACTORS
330
47
102
}
330
47
100
AcDbScale
 70
     0
300
10:1
140
10.0
141
1.0
290
     0
  0
SCALE
  5
58
102
{ACAD_REACTORS
330
47
102
}
330
47
100
AcDbScale
 70
     0
300
100:1
140
100.0
141
1.0
290
     0
  0
SCALE
  5
59
102
{ACAD_REACTORS
330
47
102
}
330
47
100
AcDbScale
 70
     0
300
1/128" = 1'-0"
140
0.0078125
141
12.0
290
     0
  0
SCALE
  5
5A
102
{ACAD_REACTORS
330
47
102
}
330
47
100
AcDbScale
 70
     0
300
1/64" = 1'-0"
140
0.015625
141
12.0
290
     0
  0
SCALE
  5
5B
102
{ACAD_REACTORS
330
47
102
}
330
47
100
AcDbScale
 70
     0
300
1/32" = 1'-0"
140
0.03125
141
12.0
290
     0
  0
SCALE
  5
5C
102
{ACAD_REACTORS
330
47
102
}
330
47
100
AcDbScale
 70
     0
300
1/16" = 1'-0"
140
0.0625
141
12.0
290
     0
  0
SCALE
  5
5D
102
{ACAD_REACTORS
330
47
102
}
330
47
100
AcDbScale
 70
     0
300
3/32" = 1'-0"
140
0.09375
141
12.0
290
     0
  0
SCALE
  5
5E
102
{ACAD_REACTORS
330
47
102
}
330
47
100
AcDbScale
 70
     0
300
1/8" = 1'-0"
140
0.125
141
12.0
290
     0
  0
SCALE
  5
5F
102
{ACAD_REACTORS
330
47
102
}
330
47
100
AcDbScale
 70
     0
300
3/16" = 1'-0"
140
0.1875
141
12.0
290
     0
  0
SCALE
  5
60
102
{ACAD_REACTORS
330
47
102
}
330
47
100
AcDbScale
 70
     0
300
1/4" = 1'-0"
140
0.25
141
12.0
290
     0
  0
SCALE
  5
61
102
{ACAD_REACTORS
330
47
102
}
330
47
100
AcDbScale
 70
     0
300
3/8" = 1'-0"
140
0.375
141
12.0
290
     0
  0
SCALE
  5
62
102
{ACAD_REACTORS
330
47
102
}
330
47
100
AcDbScale
 70
     0
300
1/2" = 1'-0"
140
0.5
141
12.0
290
     0
  0
SCALE
  5
63
102
{ACAD_REACTORS
330
47
102
}
330
47
100
AcDbScale
 70
     0
300
3/4" = 1'-0"
140
0.75
141
12.0
290
     0
  0
SCALE
  5
64
102
{ACAD_REACTORS
330
47
102
}
330
47
100
AcDbScale
 70
     0
300
1" = 1'-0"
140
1.0
141
12.0
290
     0
  0
SCALE
  5
65
102
{ACAD_REACTORS
330
47
102
}
330
47
100
AcDbScale
 70
     0
300
1-1/2" = 1'-0"
140
1.5
141
12.0
290
     0
  0
SCALE
  5
66
102
{ACAD_REACTORS
330
47
102
}
330
47
100
AcDbScale
 70
     0
300
3" = 1'-0"
140
3.0
141
12.0
290
     0
  0
SCALE
  5
67
102
{ACAD_REACTORS
330
47
102
}
330
47
100
AcDbScale
 70
     0
300
6" = 1'-0"
140
6.0
141
12.0
290
     0
  0
SCALE
  5
68
102
{ACAD_REACTORS
330
47
102
}
330
47
100
AcDbScale
 70
     0
300
1'-0" = 1'-0"
140
12.0
141
12.0
290
     0
  0
VISUALSTYLE
  5
2F
102
{ACAD_REACTORS
330
2A
102
}
102
{ACAD_XDICTIONARY
360
2EC
102
}
330
2A
100
AcDbVisualStyle
  2
2dWireframe
 70
     4
177
     2
291
     0
 71
     0
176
     1
 72
     2
176
     1
 73
     0
176
     1
 90
        0
176
     1
 40
0.6
176
     1
 41
30.0
176
     1
 62
     5
 63
     7
421
 16777215
176
     1
 74
     1
176
     1
 91
        4
176
     1
 64
     7
176
     1
 65
   257
176
     1
 75
     1
176
     1
175
     1
176
     1
 42
1.0
176
     1
 92
        0
176
     1
 66
   257
176
     1
 43
1.0
176
     1
 76
     1
176
     1
 77
     6
176
     1
 78
     2
176
     1
 67
     7
176
     1
 79
     5
176
     1
170
     0
176
     1
171
     0
176
     1
290
     0
176
     1
 93
        1
176
     1
 44
0.0
176
     1
173
     0
176
     1
  0
VISUALSTYLE
  5
32
102
{ACAD_REACTORS
330
2A
102
}
102
{ACAD_XDICTIONARY
360
2F2
102
}
330
2A
100
AcDbVisualStyle
  2
Basic
 70
     7
177
     2
291
     1
 71
     1
176
     1
 72
     0
176
     1
 73
     1
176
     1
 90
        0
176
     1
 40
0.6
176
     1
 41
30.0
176
     1
 62
     5
 63
     7
421
 16777215
176
     1
 74
     0
176
     1
 91
        4
176
     1
 64
     7
176
     1
 65
   257
176
     1
 75
     1
176
     1
175
     1
176
     1
 42
1.0
176
     1
 92
        8
176
     1
 66
     7
176
     1
 43
1.0
176
     1
 76
     1
176
     1
 77
     6
176
     1
 78
     2
176
     1
 67
     7
176
     1
 79
     5
176
     1
170
     0
176
     1
171
     0
176
     1
290
     0
176
     1
 93
        1
176
     1
 44
0.0
176
     1
173
     0
176
     1
  0
VISUALSTYLE
  5
36
102
{ACAD_REACTORS
330
2A
102
}
102
{ACAD_XDICTIONARY
360
2FA
102
}
330
2A
100
AcDbVisualStyle
  2
Brighten
 70
    12
177
     2
291
     1
 71
     2
176
     1
 72
     2
176
     1
 73
     0
176
     1
 90
        0
176
     1
 40
0.6
176
     1
 41
30.0
176
     1
 62
     5
 63
     7
421
 16777215
176
     1
 74
     1
176
     1
 91
        4
176
     1
 64
     7
176
     1
 65
   257
176
     1
 75
     1
176
     1
175
     1
176
     1
 42
1.0
176
     1
 92
        8
176
     1
 66
     7
176
     1
 43
1.0
176
     1
 76
     1
176
     1
 77
     6
176
     1
 78
     2
176
     1
 67
     7
176
     1
 79
     5
176
     1
170
     0
176
     1
171
     0
176
     1
290
     0
176
     1
 93
        1
176
     1
 44
50.0
176
     1
173
     0
176
     1
  0
VISUALSTYLE
  5
3A
102
{ACAD_REACTORS
330
2A
102
}
102
{ACAD_XDICTIONARY
360
302
102
}
330
2A
100
AcDbVisualStyle
  2
ColorChange
 70
    16
177
     2
291
     1
 71
     2
176
     1
 72
     2
176
     1
 73
     3
176
     1
 90
        0
176
     1
 40
0.6
176
     1
 41
30.0
176
     1
 62
     5
 63
     8
421
  8421504
176
     1
 74
     1
176
     1
 91
        4
176
     1
 64
     7
176
     1
 65
   257
176
     1
 75
     1
176
     1
175
     1
176
     1
 42
1.0
176
     1
 92
        8
176
     1
 66
     8
424
  8421504
176
     1
 43
1.0
176
     1
 76
     1
176
     1
 77
     6
176
     1
 78
     2
176
     1
 67
     7
176
     1
 79
     5
176
     1
170
     0
176
     1
171
     0
176
     1
290
     0
176
     1
 93
        1
176
     1
 44
0.0
176
     1
173
     0
176
     1
  0
VISUALSTYLE
  5
34
102
{ACAD_REACTORS
330
2A
102
}
102
{ACAD_XDICTIONARY
360
2F6
102
}
330
2A
100
AcDbVisualStyle
  2
Conceptual
 70
     9
177
     2
291
     0
 71
     3
176
     1
 72
     2
176
     1
 73
     0
176
     1
 90
        0
176
     1
 40
0.6
176
     1
 41
30.0
176
     1
 62
     5
 63
     7
421
 16777215
176
     1
 74
     2
176
     1
 91
        2
176
     1
 64
     7
176
     1
 65
   257
176
     1
 75
     1
176
     1
175
     1
176
     1
 42
179.0
176
     1
 92
        8
176
     1
 66
     7
176
     1
 43
1.0
176
     1
 76
     1
176
     1
 77
     6
176
     1
 78
     2
176
     1
 67
     7
176
     1
 79
     3
176
     1
170
     0
176
     1
171
     0
176
     1
290
     0
176
     1
 93
        1
176
     1
 44
0.0
176
     1
173
     0
176
     1
  0
VISUALSTYLE
  5
35
102
{ACAD_REACTORS
330
2A
102
}
102
{ACAD_XDICTIONARY
360
2F8
102
}
330
2A
100
AcDbVisualStyle
  2
Dim
 70
    11
177
     2
291
     1
 71
     2
176
     1
 72
     2
176
     1
 73
     0
176
     1
 90
        0
176
     1
 40
0.6
176
     1
 41
30.0
176
     1
 62
     5
 63
     7
421
 16777215
176
     1
 74
     1
176
     1
 91
        4
176
     1
 64
     7
176
     1
 65
   257
176
     1
 75
     1
176
     1
175
     1
176
     1
 42
1.0
176
     1
 92
        8
176
     1
 66
     7
176
     1
 43
1.0
176
     1
 76
     1
176
     1
 77
     6
176
     1
 78
     2
176
     1
 67
     7
176
     1
 79
     5
176
     1
170
     0
176
     1
171
     0
176
     1
290
     0
176
     1
 93
        1
176
     1
 44
-50.0
176
     1
173
     0
176
     1
  0
VISUALSTYLE
  5
3D
102
{ACAD_REACTORS
330
2A
102
}
102
{ACAD_XDICTIONARY
360
308
102
}
330
2A
100
AcDbVisualStyle
  2
EdgeColorOff
 70
    22
177
     2
291
     1
 71
     2
176
     0
 72
     2
176
     0
 73
     0
176
     0
 90
        0
176
     0
 40
0.6
176
     0
 41
30.0
176
     0
 62
     5
 63
     7
421
 16777215
176
     0
 74
     1
176
     0
 91
        4
176
     0
 64
     7
176
     0
 65
   257
176
     0
 75
     1
176
     0
175
     1
176
     0
 42
1.0
176
     0
 92
        8
176
     2
 66
     7
176
     0
 43
1.0
176
     0
 76
     1
176
     0
 77
     6
176
     0
 78
     2
176
     0
 67
     7
176
     0
 79
     5
176
     0
170
     0
176
     0
171
     0
176
     0
290
     0
176
     0
 93
        1
176
     0
 44
0.0
176
     0
173
     0
176
     0
  0
VISUALSTYLE
  5
39
102
{ACAD_REACTORS
330
2A
102
}
102
{ACAD_XDICTIONARY
360
300
102
}
330
2A
100
AcDbVisualStyle
  2
Facepattern
 70
    15
177
     2
291
     1
 71
     2
176
     1
 72
     2
176
     1
 73
     0
176
     1
 90
        0
176
     1
 40
0.6
176
     1
 41
30.0
176
     1
 62
     5
 63
     7
421
 16777215
176
     1
 74
     1
176
     1
 91
        4
176
     1
 64
     7
176
     1
 65
   257
176
     1
 75
     1
176
     1
175
     1
176
     1
 42
1.0
176
     1
 92
        8
176
     1
 66
     7
176
     1
 43
1.0
176
     1
 76
     1
176
     1
 77
     6
176
     1
 78
     2
176
     1
 67
     7
176
     1
 79
     5
176
     1
170
     0
176
     1
171
     0
176
     1
290
     0
176
     1
 93
        1
176
     1
 44
0.0
176
     1
173
     0
176
     1
  0
VISUALSTYLE
  5
2B
102
{ACAD_REACTORS
330
2A
102
}
102
{ACAD_XDICTIONARY
360
2E4
102
}
330
2A
100
AcDbVisualStyle
  2
Flat
 70
     0
177
     2
291
     1
 71
     2
176
     1
 72
     1
176
     1
 73
     1
176
     1
 90
        2
176
     1
 40
0.6
176
     1
 41
30.0
176
     1
 62
     5
 63
     7
421
 16777215
176
     1
 74
     0
176
     1
 91
        0
176
     1
 64
     7
176
     1
 65
   257
176
     1
 75
     1
176
     1
175
     1
176
     1
 42
1.0
176
     1
 92
        8
176
     1
 66
     7
176
     1
 43
1.0
176
     1
 76
     1
176
     1
 77
     6
176
     1
 78
     2
176
     1
 67
     7
176
     1
 79
     5
176
     1
170
     0
176
     1
171
     0
176
     1
290
     0
176
     1
 93
       13
176
     1
 44
0.0
176
     1
173
     0
176
     1
  0
VISUALSTYLE
  5
2C
102
{ACAD_REACTORS
330
2A
102
}
102
{ACAD_XDICTIONARY
360
2E6
102
}
330
2A
100
AcDbVisualStyle
  2
FlatWithEdges
 70
     1
177
     2
291
     1
 71
     2
176
     1
 72
     1
176
     1
 73
     1
176
     1
 90
        2
176
     1
 40
0.6
176
     1
 41
30.0
176
     1
 62
     5
 63
     7
421
 16777215
176
     1
 74
     1
176
     1
 91
        0
176
     1
 64
     7
176
     1
 65
   257
176
     1
 75
     1
176
     1
175
     1
176
     1
 42
1.0
176
     1
 92
        0
176
     1
 66
   257
176
     1
 43
1.0
176
     1
 76
     1
176
     1
 77
     6
176
     1
 78
     2
176
     1
 67
     7
176
     1
 79
     5
176
     1
170
     0
176
     1
171
     0
176
     1
290
     0
176
     1
 93
       13
176
     1
 44
0.0
176
     1
173
     0
176
     1
  0
VISUALSTYLE
  5
2D
102
{ACAD_REACTORS
330
2A
102
}
102
{ACAD_XDICTIONARY
360
2E8
102
}
330
2A
100
AcDbVisualStyle
  2
Gouraud
 70
     2
177
     2
291
     1
 71
     2
176
     1
 72
     2
176
     1
 73
     1
176
     1
 90
        2
176
     1
 40
0.6
176
     1
 41
30.0
176
     1
 62
     5
 63
     7
421
 16777215
176
     1
 74
     0
176
     1
 91
        0
176
     1
 64
     7
176
     1
 65
   257
176
     1
 75
     1
176
     1
175
     1
176
     1
 42
1.0
176
     1
 92
        0
176
     1
 66
     7
176
     1
 43
1.0
176
     1
 76
     1
176
     1
 77
     6
176
     1
 78
     2
176
     1
 67
     7
176
     1
 79
     5
176
     1
170
     0
176
     1
171
     0
176
     1
290
     0
176
     1
 93
       13
176
     1
 44
0.0
176
     1
173
     0
176
     1
  0
VISUALSTYLE
  5
2E
102
{ACAD_REACTORS
330
2A
102
}
102
{ACAD_XDICTIONARY
360
2EA
102
}
330
2A
100
AcDbVisualStyle
  2
GouraudWithEdges
 70
     3
177
     2
291
     1
 71
     2
176
     1
 72
     2
176
     1
 73
     1
176
     1
 90
        2
176
     1
 40
0.6
176
     1
 41
30.0
176
     1
 62
     5
 63
     7
421
 16777215
176
     1
 74
     1
176
     1
 91
        0
176
     1
 64
     7
176
     1
 65
   257
176
     1
 75
     1
176
     1
175
     1
176
     1
 42
1.0
176
     1
 92
        0
176
     1
 66
   257
176
     1
 43
1.0
176
     1
 76
     1
176
     1
 77
     6
176
     1
 78
     2
176
     1
 67
     7
176
     1
 79
     5
176
     1
170
     0
176
     1
171
     0
176
     1
290
     0
176
     1
 93
       13
176
     1
 44
0.0
176
     1
173
     0
176
     1
  0
VISUALSTYLE
  5
31
102
{ACAD_REACTORS
330
2A
102
}
102
{ACAD_XDICTIONARY
360
2F0
102
}
330
2A
100
AcDbVisualStyle
  2
Hidden
 70
     6
177
     2
291
     0
 71
     1
176
     1
 72
     2
176
     1
 73
     2
176
     1
 90
        0
176
     1
 40
0.6
176
     1
 41
30.0
176
     1
 62
     5
 63
     7
421
 16777215
176
     1
 74
     2
176
     1
 91
        2
176
     1
 64
     7
176
     1
 65
   257
176
     1
 75
     2
176
     1
175
     1
176
     1
 42
40.0
176
     1
 92
        0
176
     1
 66
   257
176
     1
 43
1.0
176
     1
 76
     1
176
     1
 77
     6
176
     1
 78
     2
176
     1
 67
     7
176
     1
 79
     3
176
     1
170
     0
176
     1
171
     0
176
     1
290
     0
176
     1
 93
        1
176
     1
 44
0.0
176
     1
173
     0
176
     1
  0
VISUALSTYLE
  5
3B
102
{ACAD_REACTORS
330
2A
102
}
102
{ACAD_XDICTIONARY
360
304
102
}
330
2A
100
AcDbVisualStyle
  2
JitterOff
 70
    20
177
     2
291
     1
 71
     2
176
     0
 72
     2
176
     0
 73
     0
176
     0
 90
        0
176
     0
 40
0.6
176
     0
 41
30.0
176
     0
 62
     5
 63
     7
421
 16777215
176
     0
 74
     1
176
     0
 91
        4
176
     0
 64
     7
176
     0
 65
   257
176
     0
 75
     1
176
     0
175
     1
176
     0
 42
1.0
176
     0
 92
       10
176
     2
 66
     7
176
     0
 43
1.0
176
     0
 76
     1
176
     0
 77
     6
176
     0
 78
     2
176
     0
 67
     7
176
     0
 79
     5
176
     0
170
     0
176
     0
171
     0
176
     0
290
     0
176
     0
 93
        1
176
     0
 44
0.0
176
     0
173
     0
176
     0
  0
VISUALSTYLE
  5
38
102
{ACAD_REACTORS
330
2A
102
}
102
{ACAD_XDICTIONARY
360
2FE
102
}
330
2A
100
AcDbVisualStyle
  2
Linepattern
 70
    14
177
     2
291
     1
 71
     2
176
     1
 72
     2
176
     1
 73
     0
176
     1
 90
        0
176
     1
 40
0.6
176
     1
 41
30.0
176
     1
 62
     5
 63
     7
421
 16777215
176
     1
 74
     1
176
     1
 91
        4
176
     1
 64
     7
176
     1
 65
   257
176
     1
 75
     7
176
     1
175
     7
176
     1
 42
1.0
176
     1
 92
        8
176
     1
 66
     7
176
     1
 43
1.0
176
     1
 76
     1
176
     1
 77
     6
176
     1
 78
     2
176
     1
 67
     7
176
     1
 79
     5
176
     1
170
     0
176
     1
171
     0
176
     1
290
     0
176
     1
 93
        1
176
     1
 44
0.0
176
     1
173
     0
176
     1
  0
VISUALSTYLE
  5
3C
102
{ACAD_REACTORS
330
2A
102
}
102
{ACAD_XDICTIONARY
360
306
102
}
330
2A
100
AcDbVisualStyle
  2
OverhangOff
 70
    21
177
     2
291
     1
 71
     2
176
     0
 72
     2
176
     0
 73
     0
176
     0
 90
        0
176
     0
 40
0.6
176
     0
 41
30.0
176
     0
 62
     5
 63
     7
421
 16777215
176
     0
 74
     1
176
     0
 91
        4
176
     0
 64
     7
176
     0
 65
   257
176
     0
 75
     1
176
     0
175
     1
176
     0
 42
1.0
176
     0
 92
        9
176
     2
 66
     7
176
     0
 43
1.0
176
     0
 76
     1
176
     0
 77
     6
176
     0
 78
     2
176
     0
 67
     7
176
     0
 79
     5
176
     0
170
     0
176
     0
171
     0
176
     0
290
     0
176
     0
 93
        1
176
     0
 44
0.0
176
     0
173
     0
176
     0
  0
VISUALSTYLE
  5
33
102
{ACAD_REACTORS
330
2A
102
}
102
{ACAD_XDICTIONARY
360
2F4
102
}
330
2A
100
AcDbVisualStyle
  2
Realistic
 70
     8
177
     2
291
     0
 71
     2
176
     1
 72
     3
176
     1
 73
     0
176
     1
 90
        2
176
     1
 40
0.6
176
     1
 41
30.0
176
     1
 62
     5
 63
     7
421
 16777215
176
     1
 74
     0
176
     1
 91
        0
176
     1
 64
     7
176
     1
 65
   257
176
     1
 75
     1
176
     1
175
     1
176
     1
 42
1.0
176
     1
 92
        8
176
     1
 66
   257
176
     1
 43
1.0
176
     1
 76
     1
176
     1
 77
     6
176
     1
 78
     2
176
     1
 67
     7
176
     1
 79
     3
176
     1
170
     0
176
     1
171
     0
176
     1
290
     0
176
     1
 93
       13
176
     1
 44
0.0
176
     1
173
     0
176
     1
  0
VISUALSTYLE
  5
42
102
{ACAD_REACTORS
330
2A
102
}
102
{ACAD_XDICTIONARY
360
312
102
}
330
2A
100
AcDbVisualStyle
  2
Shaded
 70
    27
177
     2
291
     0
 71
     2
176
     1
 72
     2
176
     1
 73
     1
176
     1
 90
        2
176
     1
 40
0.6
176
     1
 41
30.0
176
     1
 62
     5
 63
     7
421
 16777215
176
     1
 74
     0
176
     1
 91
        4
176
     1
 64
     7
176
     1
 65
   257
176
     1
 75
     1
176
     1
175
     1
176
     1
 42
1.0
176
     1
 92
        8
176
     1
 66
   257
176
     1
 43
1.0
176
     1
 76
     1
176
     1
 77
     6
176
     1
 78
     2
176
     1
 67
     8
425
  7895160
176
     1
 79
     3
176
     1
170
     0
176
     1
171
     0
176
     1
290
     0
176
     1
 93
        5
176
     1
 44
0.0
176
     1
173
     0
176
     1
  0
VISUALSTYLE
  5
41
102
{ACAD_REACTORS
330
2A
102
}
102
{ACAD_XDICTIONARY
360
310
102
}
330
2A
100
AcDbVisualStyle
  2
Shaded with edges
 70
    26
177
     2
291
     0
 71
     2
176
     1
 72
     2
176
     1
 73
     1
176
     1
 90
        2
176
     1
 40
0.6
176
     1
 41
30.0
176
     1
 62
     5
 63
     7
421
 16777215
176
     1
 74
     1
176
     1
 91
       10
176
     1
 64
     7
176
     1
 65
   257
176
     1
 75
     2
176
     1
175
     1
176
     1
 42
1.0
176
     1
 92
        8
176
     1
 66
   257
176
     1
 43
1.0
176
     1
 76
     1
176
     1
 77
     6
176
     1
 78
     2
176
     1
 67
     7
176
     1
 79
     3
176
     1
170
     0
176
     1
171
     0
176
     1
290
     0
176
     1
 93
        5
176
     1
 44
0.0
176
     1
173
     0
176
     1
  0
VISUALSTYLE
  5
3E
102
{ACAD_REACTORS
330
2A
102
}
102
{ACAD_XDICTIONARY
360
30A
102
}
330
2A
100
AcDbVisualStyle
  2
Shades of Gray
 70
    23
177
     2
291
     0
 71
     2
176
     1
 72
     2
176
     1
 73
     3
176
     1
 90
        0
176
     1
 40
0.6
176
     1
 41
30.0
176
     1
 62
     5
 63
     7
421
 16777215
176
     1
 74
     2
176
     1
 91
        2
176
     1
 64
     7
176
     1
 65
     7
176
     1
 75
     1
176
     1
175
     1
176
     1
 42
40.0
176
     1
 92
        8
176
     1
 66
     7
176
     1
 43
1.0
176
     1
 76
     1
176
     1
 77
     6
176
     1
 78
     2
176
     1
 67
     7
176
     1
 79
     3
176
     1
170
     0
176
     1
171
     0
176
     1
290
     0
176
     1
 93
        1
176
     1
 44
0.0
176
     1
173
     0
176
     1
  0
VISUALSTYLE
  5
3F
102
{ACAD_REACTORS
330
2A
102
}
102
{ACAD_XDICTIONARY
360
30C
102
}
330
2A
100
AcDbVisualStyle
  2
Sketchy
 70
    24
177
     2
291
     0
 71
     1
176
     1
 72
     2
176
     1
 73
     2
176
     1
 90
        0
176
     1
 40
0.6
176
     1
 41
30.0
176
     1
 62
     5
 63
     7
421
 16777215
176
     1
 74
     2
176
     1
 91
        2
176
     1
 64
     7
176
     1
 65
     7
176
     1
 75
     1
176
     1
175
     1
176
     1
 42
40.0
176
     1
 92
       11
176
     1
 66
     7
176
     1
 43
1.0
176
     1
 76
     1
176
     1
 77
     6
176
     1
 78
     2
176
     1
 67
     7
176
     1
 79
     6
176
     1
170
     0
176
     1
171
     0
176
     1
290
     0
176
     1
 93
        1
176
     1
 44
0.0
176
     1
173
     0
176
     1
  0
VISUALSTYLE
  5
37
102
{ACAD_REACTORS
330
2A
102
}
102
{ACAD_XDICTIONARY
360
2FC
102
}
330
2A
100
AcDbVisualStyle
  2
Thicken
 70
    13
177
     2
291
     1
 71
     2
176
     1
 72
     2
176
     1
 73
     0
176
     1
 90
        0
176
     1
 40
0.6
176
     1
 41
30.0
176
     1
 62
     5
 63
     7
421
 16777215
176
     1
 74
     1
176
     1
 91
        4
176
     1
 64
     7
176
     1
 65
   257
176
     1
 75
     1
176
     1
175
     1
176
     1
 42
1.0
176
     1
 92
       12
176
     1
 66
     7
176
     1
 43
1.0
176
     1
 76
     1
176
     1
 77
     6
176
     1
 78
     2
176
     1
 67
     7
176
     1
 79
     5
176
     1
170
     0
176
     1
171
     0
176
     1
290
     0
176
     1
 93
        1
176
     1
 44
0.0
176
     1
173
     0
176
     1
  0
VISUALSTYLE
  5
30
102
{ACAD_REACTORS
330
2A
102
}
102
{ACAD_XDICTIONARY
360
2EE
102
}
330
2A
100
AcDbVisualStyle
  2
Wireframe
 70
     5
177
     2
291
     0
 71
     0
176
     1
 72
     2
176
     1
 73
     0
176
     1
 90
        0
176
     1
 40
0.6
176
     1
 41
30.0
176
     1
 62
     5
 63
     7
421
 16777215
176
     1
 74
     1
176
     1
 91
        4
176
     1
 64
     7
176
     1
 65
   257
176
     1
 75
     1
176
     1
175
     1
176
     1
 42
1.0
176
     1
 92
        0
176
     1
 66
   257
176
     1
 43
1.0
176
     1
 76
     1
176
     1
 77
     6
176
     1
 78
     2
176
     1
 67
     7
176
     1
 79
     3
176
     1
170
     0
176
     1
171
     0
176
     1
290
     0
176
     1
 93
        1
176
     1
 44
0.0
176
     1
173
     0
176
     1
  0
VISUALSTYLE
  5
40
102
{ACAD_REACTORS
330
2A
102
}
102
{ACAD_XDICTIONARY
360
30E
102
}
330
2A
100
AcDbVisualStyle
  2
X-Ray
 70
    25
177
     2
291
     0
 71
     2
176
     1
 72
     2
176
     1
 73
     1
176
     1
 90
        1
176
     1
 40
0.5
176
     1
 41
30.0
176
     1
 62
     5
 63
     7
421
 16777215
176
     1
 74
     1
176
     1
 91
        0
176
     1
 64
     7
176
     1
 65
   257
176
     1
 75
     1
176
     1
175
     1
176
     1
 42
1.0
176
     1
 92
        8
176
     1
 66
     7
176
     1
 43
1.0
176
     1
 76
     1
176
     1
 77
     6
176
     1
 78
     2
176
     1
 67
     7
176
     1
 79
     3
176
     1
170
     0
176
     1
171
     0
176
     1
290
     0
176
     1
 93
       13
176
     1
 44
0.0
176
     1
173
     0
176
     1
  0
DICTIONARYVAR
  5
2E3
102
{ACAD_REACTORS
330
2E2
102
}
330
2E2
100
DictionaryVariables
280
     0
  1
1:1
  0
DICTIONARY
  5
2EC
330
2F
100
AcDbDictionary
280
     1
281
     1
  3
ACAD_XREC_ROUNDTRIP
360
2ED
  0
DICTIONARY
  5
2F2
330
32
100
AcDbDictionary
280
     1
281
     1
  3
ACAD_XREC_ROUNDTRIP
360
2F3
  0
DICTIONARY
  5
2FA
330
36
100
AcDbDictionary
280
     1
281
     1
  3
ACAD_XREC_ROUNDTRIP
360
2FB
  0
DICTIONARY
  5
302
330
3A
100
AcDbDictionary
280
     1
281
     1
  3
ACAD_XREC_ROUNDTRIP
360
303
  0
DICTIONARY
  5
2F6
330
34
100
AcDbDictionary
280
     1
281
     1
  3
ACAD_XREC_ROUNDTRIP
360
2F7
  0
DICTIONARY
  5
2F8
330
35
100
AcDbDictionary
280
     1
281
     1
  3
ACAD_XREC_ROUNDTRIP
360
2F9
  0
DICTIONARY
  5
308
330
3D
100
AcDbDictionary
280
     1
281
     1
  3
ACAD_XREC_ROUNDTRIP
360
309
  0
DICTIONARY
  5
300
330
39
100
AcDbDictionary
280
     1
281
     1
  3
ACAD_XREC_ROUNDTRIP
360
301
  0
DICTIONARY
  5
2E4
330
2B
100
AcDbDictionary
280
     1
281
     1
  3
ACAD_XREC_ROUNDTRIP
360
2E5
  0
DICTIONARY
  5
2E6
330
2C
100
AcDbDictionary
280
     1
281
     1
  3
ACAD_XREC_ROUNDTRIP
360
2E7
  0
DICTIONARY
  5
2E8
330
2D
100
AcDbDictionary
280
     1
281
     1
  3
ACAD_XREC_ROUNDTRIP
360
2E9
  0
DICTIONARY
  5
2EA
330
2E
100
AcDbDictionary
280
     1
281
     1
  3
ACAD_XREC_ROUNDTRIP
360
2EB
  0
DICTIONARY
  5
2F0
330
31
100
AcDbDictionary
280
     1
281
     1
  3
ACAD_XREC_ROUNDTRIP
360
2F1
  0
DICTIONARY
  5
304
330
3B
100
AcDbDictionary
280
     1
281
     1
  3
ACAD_XREC_ROUNDTRIP
360
305
  0
DICTIONARY
  5
2FE
330
38
100
AcDbDictionary
280
     1
281
     1
  3
ACAD_XREC_ROUNDTRIP
360
2FF
  0
DICTIONARY
  5
306
330
3C
100
AcDbDictionary
280
     1
281
     1
  3
ACAD_XREC_ROUNDTRIP
360
307
  0
DICTIONARY
  5
2F4
330
33
100
AcDbDictionary
280
     1
281
     1
  3
ACAD_XREC_ROUNDTRIP
360
2F5
  0
DICTIONARY
  5
312
330
42
100
AcDbDictionary
280
     1
281
     1
  3
ACAD_XREC_ROUNDTRIP
360
313
  0
DICTIONARY
  5
310
330
41
100
AcDbDictionary
280
     1
281
     1
  3
ACAD_XREC_ROUNDTRIP
360
311
  0
DICTIONARY
  5
30A
330
3E
100
AcDbDictionary
280
     1
281
     1
  3
ACAD_XREC_ROUNDTRIP
360
30B
  0
DICTIONARY
  5
30C
330
3F
100
AcDbDictionary
280
     1
281
     1
  3
ACAD_XREC_ROUNDTRIP
360
30D
  0
DICTIONARY
  5
2FC
330
37
100
AcDbDictionary
280
     1
281
     1
  3
ACAD_XREC_ROUNDTRIP
360
2FD
  0
DICTIONARY
  5
2EE
330
30
100
AcDbDictionary
280
     1
281
     1
  3
ACAD_XREC_ROUNDTRIP
360
2EF
  0
DICTIONARY
  5
30E
330
40
100
AcDbDictionary
280
     1
281
     1
  3
ACAD_XREC_ROUNDTRIP
360
30F
  0
XRECORD
  5
2ED
102
{ACAD_REACTORS
330
2EC
102
}
330
2EC
100
AcDbXrecord
280
     1
102
RTVSPost2010Prop28
280
     1
102
RTVSPost2010PropOp28
 70
     1
102
RTVSPost2010Prop29
280
     1
102
RTVSPost2010PropOp29
 70
     1
102
RTVSPost2010Prop30
280
     0
102
RTVSPost2010PropOp30
 70
     1
102
RTVSPost2010Prop31
280
     0
102
RTVSPost2010PropOp31
 70
     1
102
RTVSPost2010Prop32
280
     0
102
RTVSPost2010PropOp32
 70
     1
102
RTVSPost2010Prop33
280
     0
102
RTVSPost2010PropOp33
 70
     1
102
RTVSPost2010Prop34
280
     0
102
RTVSPost2010PropOp34
 70
     1
102
RTVSPost2010Prop35
280
     0
102
RTVSPost2010PropOp35
 70
     1
102
RTVSPost2010Prop36
280
     0
102
RTVSPost2010PropOp36
 70
     1
102
RTVSPost2010Prop37
 90
       50
102
RTVSPost2010PropOp37
 70
     1
102
RTVSPost2010Prop38
140
0.0
102
RTVSPost2010PropOp38
 70
     1
102
RTVSPost2010Prop39
140
1.0
102
RTVSPost2010PropOp39
 70
     1
102
RTVSPost2010Prop40
 90
        0
102
RTVSPost2010PropOp40
 70
     1
102
RTVSPost2010Prop41ColorIndex
 90
       18
102
RTVSPost2010Prop41ColorRGB
 90
        0
102
RTVSPost2010PropOp41
 70
     1
102
RTVSPost2010Prop42
 90
       50
102
RTVSPost2010PropOp42
 70
     1
102
RTVSPost2010Prop43
 90
        3
102
RTVSPost2010PropOp43
 70
     1
102
RTVSPost2010Prop44ColorIndex
 90
        5
102
RTVSPost2010Prop44ColorRGB
 90
      255
102
RTVSPost2010PropOp44
 70
     1
102
RTVSPost2010Prop45
280
     0
102
RTVSPost2010PropOp45
 70
     1
102
RTVSPost2010Prop46
 90
       50
102
RTVSPost2010PropOp46
 70
     1
102
RTVSPost2010Prop47
 90
       50
102
RTVSPost2010PropOp47
 70
     1
102
RTVSPost2010Prop48
 90
       50
102
RTVSPost2010PropOp48
 70
     1
102
RTVSPost2010Prop49
280
     0
102
RTVSPost2010PropOp49
 70
     1
102
RTVSPost2010Prop50
 90
       50
102
RTVSPost2010PropOp50
 70
     1
102
RTVSPost2010Prop51ColorIndex
 90
      256
102
RTVSPost2010Prop51ColorRGB
 90
-16777216
102
RTVSPost2010PropOp51
 70
     0
102
RTVSPost2010Prop52
140
1.0
102
RTVSPost2010PropOp52
 70
     0
102
RTVSPost2010Prop53
 90
        2
102
RTVSPost2010PropOp53
 70
     1
102
RTVSPost2010Prop54
  1
strokes_ogs.tif
102
RTVSPost2010PropOp54
 70
     1
102
RTVSPost2010Prop55
280
     0
102
RTVSPost2010PropOp55
 70
     1
102
RTVSPost2010Prop56
140
1.0
102
RTVSPost2010PropOp56
 70
     1
102
RTVSPost2010Prop57
140
1.0
102
RTVSPost2010PropOp57
 70
     1
  0
XRECORD
  5
2F3
102
{ACAD_REACTORS
330
2F2
102
}
330
2F2
100
AcDbXrecord
280
     1
102
RTVSPost2010Prop28
280
     0
102
RTVSPost2010PropOp28
 70
     1
102
RTVSPost2010Prop29
280
     1
102
RTVSPost2010PropOp29
 70
     1
102
RTVSPost2010Prop30
280
     1
102
RTVSPost2010PropOp30
 70
     1
102
RTVSPost2010Prop31
280
     0
102
RTVSPost2010PropOp31
 70
     1
102
RTVSPost2010Prop32
280
     0
102
RTVSPost2010PropOp32
 70
     1
102
RTVSPost2010Prop33
280
     0
102
RTVSPost2010PropOp33
 70
     1
102
RTVSPost2010Prop34
280
     0
102
RTVSPost2010PropOp34
 70
     1
102
RTVSPost2010Prop35
280
     0
102
RTVSPost2010PropOp35
 70
     1
102
RTVSPost2010Prop36
280
     0
102
RTVSPost2010PropOp36
 70
     1
102
RTVSPost2010Prop37
 90
       50
102
RTVSPost2010PropOp37
 70
     1
102
RTVSPost2010Prop38
140
0.0
102
RTVSPost2010PropOp38
 70
     1
102
RTVSPost2010Prop39
140
1.0
102
RTVSPost2010PropOp39
 70
     1
102
RTVSPost2010Prop40
 90
        0
102
RTVSPost2010PropOp40
 70
     1
102
RTVSPost2010Prop41ColorIndex
 90
       18
102
RTVSPost2010Prop41ColorRGB
 90
        0
102
RTVSPost2010PropOp41
 70
     1
102
RTVSPost2010Prop42
 90
       50
102
RTVSPost2010PropOp42
 70
     1
102
RTVSPost2010Prop43
 90
        3
102
RTVSPost2010PropOp43
 70
     1
102
RTVSPost2010Prop44ColorIndex
 90
        5
102
RTVSPost2010Prop44ColorRGB
 90
      255
102
RTVSPost2010PropOp44
 70
     1
102
RTVSPost2010Prop45
280
     0
102
RTVSPost2010PropOp45
 70
     1
102
RTVSPost2010Prop46
 90
       50
102
RTVSPost2010PropOp46
 70
     1
102
RTVSPost2010Prop47
 90
       50
102
RTVSPost2010PropOp47
 70
     1
102
RTVSPost2010Prop48
 90
       50
102
RTVSPost2010PropOp48
 70
     1
102
RTVSPost2010Prop49
280
     0
102
RTVSPost2010PropOp49
 70
     1
102
RTVSPost2010Prop50
 90
       50
102
RTVSPost2010PropOp50
 70
     1
102
RTVSPost2010Prop51ColorIndex
 90
      256
102
RTVSPost2010Prop51ColorRGB
 90
-16777216
102
RTVSPost2010PropOp51
 70
     0
102
RTVSPost2010Prop52
140
1.0
102
RTVSPost2010PropOp52
 70
     0
102
RTVSPost2010Prop53
 90
        2
102
RTVSPost2010PropOp53
 70
     1
102
RTVSPost2010Prop54
  1
strokes_ogs.tif
102
RTVSPost2010PropOp54
 70
     1
102
RTVSPost2010Prop55
280
     0
102
RTVSPost2010PropOp55
 70
     1
102
RTVSPost2010Prop56
140
1.0
102
RTVSPost2010PropOp56
 70
     1
102
RTVSPost2010Prop57
140
1.0
102
RTVSPost2010PropOp57
 70
     1
  0
XRECORD
  5
2FB
102
{ACAD_REACTORS
330
2FA
102
}
330
2FA
100
AcDbXrecord
280
     1
102
RTVSPost2010Prop28
280
     0
102
RTVSPost2010PropOp28
 70
     1
102
RTVSPost2010Prop29
280
     1
102
RTVSPost2010PropOp29
 70
     1
102
RTVSPost2010Prop30
280
     1
102
RTVSPost2010PropOp30
 70
     1
102
RTVSPost2010Prop31
280
     0
102
RTVSPost2010PropOp31
 70
     1
102
RTVSPost2010Prop32
280
     0
102
RTVSPost2010PropOp32
 70
     1
102
RTVSPost2010Prop33
280
     0
102
RTVSPost2010PropOp33
 70
     1
102
RTVSPost2010Prop34
280
     0
102
RTVSPost2010PropOp34
 70
     1
102
RTVSPost2010Prop35
280
     0
102
RTVSPost2010PropOp35
 70
     1
102
RTVSPost2010Prop36
280
     0
102
RTVSPost2010PropOp36
 70
     1
102
RTVSPost2010Prop37
 90
       50
102
RTVSPost2010PropOp37
 70
     1
102
RTVSPost2010Prop38
140
0.0
102
RTVSPost2010PropOp38
 70
     1
102
RTVSPost2010Prop39
140
1.0
102
RTVSPost2010PropOp39
 70
     1
102
RTVSPost2010Prop40
 90
        0
102
RTVSPost2010PropOp40
 70
     1
102
RTVSPost2010Prop41ColorIndex
 90
       18
102
RTVSPost2010Prop41ColorRGB
 90
        0
102
RTVSPost2010PropOp41
 70
     1
102
RTVSPost2010Prop42
 90
       50
102
RTVSPost2010PropOp42
 70
     1
102
RTVSPost2010Prop43
 90
        3
102
RTVSPost2010PropOp43
 70
     1
102
RTVSPost2010Prop44ColorIndex
 90
        5
102
RTVSPost2010Prop44ColorRGB
 90
      255
102
RTVSPost2010PropOp44
 70
     1
102
RTVSPost2010Prop45
280
     0
102
RTVSPost2010PropOp45
 70
     1
102
RTVSPost2010Prop46
 90
       50
102
RTVSPost2010PropOp46
 70
     1
102
RTVSPost2010Prop47
 90
       50
102
RTVSPost2010PropOp47
 70
     1
102
RTVSPost2010Prop48
 90
       50
102
RTVSPost2010PropOp48
 70
     1
102
RTVSPost2010Prop49
280
     0
102
RTVSPost2010PropOp49
 70
     1
102
RTVSPost2010Prop50
 90
       50
102
RTVSPost2010PropOp50
 70
     1
102
RTVSPost2010Prop51ColorIndex
 90
      256
102
RTVSPost2010Prop51ColorRGB
 90
-16777216
102
RTVSPost2010PropOp51
 70
     0
102
RTVSPost2010Prop52
140
1.0
102
RTVSPost2010PropOp52
 70
     0
102
RTVSPost2010Prop53
 90
        2
102
RTVSPost2010PropOp53
 70
     1
102
RTVSPost2010Prop54
  1
strokes_ogs.tif
102
RTVSPost2010PropOp54
 70
     1
102
RTVSPost2010Prop55
280
     0
102
RTVSPost2010PropOp55
 70
     1
102
RTVSPost2010Prop56
140
1.0
102
RTVSPost2010PropOp56
 70
     1
102
RTVSPost2010Prop57
140
1.0
102
RTVSPost2010PropOp57
 70
     1
  0
XRECORD
  5
303
102
{ACAD_REACTORS
330
302
102
}
330
302
100
AcDbXrecord
280
     1
102
RTVSPost2010Prop28
280
     0
102
RTVSPost2010PropOp28
 70
     1
102
RTVSPost2010Prop29
280
     1
102
RTVSPost2010PropOp29
 70
     1
102
RTVSPost2010Prop30
280
     1
102
RTVSPost2010PropOp30
 70
     1
102
RTVSPost2010Prop31
280
     0
102
RTVSPost2010PropOp31
 70
     1
102
RTVSPost2010Prop32
280
     0
102
RTVSPost2010PropOp32
 70
     1
102
RTVSPost2010Prop33
280
     0
102
RTVSPost2010PropOp33
 70
     1
102
RTVSPost2010Prop34
280
     0
102
RTVSPost2010PropOp34
 70
     1
102
RTVSPost2010Prop35
280
     0
102
RTVSPost2010PropOp35
 70
     1
102
RTVSPost2010Prop36
280
     0
102
RTVSPost2010PropOp36
 70
     1
102
RTVSPost2010Prop37
 90
       50
102
RTVSPost2010PropOp37
 70
     1
102
RTVSPost2010Prop38
140
0.0
102
RTVSPost2010PropOp38
 70
     1
102
RTVSPost2010Prop39
140
1.0
102
RTVSPost2010PropOp39
 70
     1
102
RTVSPost2010Prop40
 90
        0
102
RTVSPost2010PropOp40
 70
     1
102
RTVSPost2010Prop41ColorIndex
 90
       18
102
RTVSPost2010Prop41ColorRGB
 90
        0
102
RTVSPost2010PropOp41
 70
     1
102
RTVSPost2010Prop42
 90
       50
102
RTVSPost2010PropOp42
 70
     1
102
RTVSPost2010Prop43
 90
        3
102
RTVSPost2010PropOp43
 70
     1
102
RTVSPost2010Prop44ColorIndex
 90
        5
102
RTVSPost2010Prop44ColorRGB
 90
      255
102
RTVSPost2010PropOp44
 70
     1
102
RTVSPost2010Prop45
280
     0
102
RTVSPost2010PropOp45
 70
     1
102
RTVSPost2010Prop46
 90
       50
102
RTVSPost2010PropOp46
 70
     1
102
RTVSPost2010Prop47
 90
       50
102
RTVSPost2010PropOp47
 70
     1
102
RTVSPost2010Prop48
 90
       50
102
RTVSPost2010PropOp48
 70
     1
102
RTVSPost2010Prop49
280
     0
102
RTVSPost2010PropOp49
 70
     1
102
RTVSPost2010Prop50
 90
       50
102
RTVSPost2010PropOp50
 70
     1
102
RTVSPost2010Prop51ColorIndex
 90
      256
102
RTVSPost2010Prop51ColorRGB
 90
-16777216
102
RTVSPost2010PropOp51
 70
     0
102
RTVSPost2010Prop52
140
1.0
102
RTVSPost2010PropOp52
 70
     0
102
RTVSPost2010Prop53
 90
        2
102
RTVSPost2010PropOp53
 70
     1
102
RTVSPost2010Prop54
  1
strokes_ogs.tif
102
RTVSPost2010PropOp54
 70
     1
102
RTVSPost2010Prop55
280
     0
102
RTVSPost2010PropOp55
 70
     1
102
RTVSPost2010Prop56
140
1.0
102
RTVSPost2010PropOp56
 70
     1
102
RTVSPost2010Prop57
140
1.0
102
RTVSPost2010PropOp57
 70
     1
  0
XRECORD
  5
2F7
102
{ACAD_REACTORS
330
2F6
102
}
330
2F6
100
AcDbXrecord
280
     1
102
RTVSPost2010Prop28
280
     0
102
RTVSPost2010PropOp28
 70
     1
102
RTVSPost2010Prop29
280
     1
102
RTVSPost2010PropOp29
 70
     1
102
RTVSPost2010Prop30
280
     1
102
RTVSPost2010PropOp30
 70
     1
102
RTVSPost2010Prop31
280
     0
102
RTVSPost2010PropOp31
 70
     1
102
RTVSPost2010Prop32
280
     0
102
RTVSPost2010PropOp32
 70
     1
102
RTVSPost2010Prop33
280
     0
102
RTVSPost2010PropOp33
 70
     1
102
RTVSPost2010Prop34
280
     0
102
RTVSPost2010PropOp34
 70
     1
102
RTVSPost2010Prop35
280
     0
102
RTVSPost2010PropOp35
 70
     1
102
RTVSPost2010Prop36
280
     0
102
RTVSPost2010PropOp36
 70
     1
102
RTVSPost2010Prop37
 90
       50
102
RTVSPost2010PropOp37
 70
     1
102
RTVSPost2010Prop38
140
0.0
102
RTVSPost2010PropOp38
 70
     1
102
RTVSPost2010Prop39
140
1.0
102
RTVSPost2010PropOp39
 70
     1
102
RTVSPost2010Prop40
 90
        0
102
RTVSPost2010PropOp40
 70
     1
102
RTVSPost2010Prop41ColorIndex
 90
       18
102
RTVSPost2010Prop41ColorRGB
 90
        0
102
RTVSPost2010PropOp41
 70
     1
102
RTVSPost2010Prop42
 90
       50
102
RTVSPost2010PropOp42
 70
     1
102
RTVSPost2010Prop43
 90
        3
102
RTVSPost2010PropOp43
 70
     1
102
RTVSPost2010Prop44ColorIndex
 90
        5
102
RTVSPost2010Prop44ColorRGB
 90
      255
102
RTVSPost2010PropOp44
 70
     1
102
RTVSPost2010Prop45
280
     0
102
RTVSPost2010PropOp45
 70
     1
102
RTVSPost2010Prop46
 90
       50
102
RTVSPost2010PropOp46
 70
     1
102
RTVSPost2010Prop47
 90
       50
102
RTVSPost2010PropOp47
 70
     1
102
RTVSPost2010Prop48
 90
       50
102
RTVSPost2010PropOp48
 70
     1
102
RTVSPost2010Prop49
280
     0
102
RTVSPost2010PropOp49
 70
     1
102
RTVSPost2010Prop50
 90
       50
102
RTVSPost2010PropOp50
 70
     1
102
RTVSPost2010Prop51ColorIndex
 90
      256
102
RTVSPost2010Prop51ColorRGB
 90
-16777216
102
RTVSPost2010PropOp51
 70
     0
102
RTVSPost2010Prop52
140
1.0
102
RTVSPost2010PropOp52
 70
     0
102
RTVSPost2010Prop53
 90
        2
102
RTVSPost2010PropOp53
 70
     1
102
RTVSPost2010Prop54
  1
strokes_ogs.tif
102
RTVSPost2010PropOp54
 70
     1
102
RTVSPost2010Prop55
280
     0
102
RTVSPost2010PropOp55
 70
     1
102
RTVSPost2010Prop56
140
1.0
102
RTVSPost2010PropOp56
 70
     1
102
RTVSPost2010Prop57
140
1.0
102
RTVSPost2010PropOp57
 70
     1
  0
XRECORD
  5
2F9
102
{ACAD_REACTORS
330
2F8
102
}
330
2F8
100
AcDbXrecord
280
     1
102
RTVSPost2010Prop28
280
     0
102
RTVSPost2010PropOp28
 70
     1
102
RTVSPost2010Prop29
280
     1
102
RTVSPost2010PropOp29
 70
     1
102
RTVSPost2010Prop30
280
     1
102
RTVSPost2010PropOp30
 70
     1
102
RTVSPost2010Prop31
280
     0
102
RTVSPost2010PropOp31
 70
     1
102
RTVSPost2010Prop32
280
     0
102
RTVSPost2010PropOp32
 70
     1
102
RTVSPost2010Prop33
280
     0
102
RTVSPost2010PropOp33
 70
     1
102
RTVSPost2010Prop34
280
     0
102
RTVSPost2010PropOp34
 70
     1
102
RTVSPost2010Prop35
280
     0
102
RTVSPost2010PropOp35
 70
     1
102
RTVSPost2010Prop36
280
     0
102
RTVSPost2010PropOp36
 70
     1
102
RTVSPost2010Prop37
 90
       50
102
RTVSPost2010PropOp37
 70
     1
102
RTVSPost2010Prop38
140
0.0
102
RTVSPost2010PropOp38
 70
     1
102
RTVSPost2010Prop39
140
1.0
102
RTVSPost2010PropOp39
 70
     1
102
RTVSPost2010Prop40
 90
        0
102
RTVSPost2010PropOp40
 70
     1
102
RTVSPost2010Prop41ColorIndex
 90
       18
102
RTVSPost2010Prop41ColorRGB
 90
        0
102
RTVSPost2010PropOp41
 70
     1
102
RTVSPost2010Prop42
 90
       50
102
RTVSPost2010PropOp42
 70
     1
102
RTVSPost2010Prop43
 90
        3
102
RTVSPost2010PropOp43
 70
     1
102
RTVSPost2010Prop44ColorIndex
 90
        5
102
RTVSPost2010Prop44ColorRGB
 90
      255
102
RTVSPost2010PropOp44
 70
     1
102
RTVSPost2010Prop45
280
     0
102
RTVSPost2010PropOp45
 70
     1
102
RTVSPost2010Prop46
 90
       50
102
RTVSPost2010PropOp46
 70
     1
102
RTVSPost2010Prop47
 90
       50
102
RTVSPost2010PropOp47
 70
     1
102
RTVSPost2010Prop48
 90
       50
102
RTVSPost2010PropOp48
 70
     1
102
RTVSPost2010Prop49
280
     0
102
RTVSPost2010PropOp49
 70
     1
102
RTVSPost2010Prop50
 90
       50
102
RTVSPost2010PropOp50
 70
     1
102
RTVSPost2010Prop51ColorIndex
 90
      256
102
RTVSPost2010Prop51ColorRGB
 90
-16777216
102
RTVSPost2010PropOp51
 70
     0
102
RTVSPost2010Prop52
140
1.0
102
RTVSPost2010PropOp52
 70
     0
102
RTVSPost2010Prop53
 90
        2
102
RTVSPost2010PropOp53
 70
     1
102
RTVSPost2010Prop54
  1
strokes_ogs.tif
102
RTVSPost2010PropOp54
 70
     1
102
RTVSPost2010Prop55
280
     0
102
RTVSPost2010PropOp55
 70
     1
102
RTVSPost2010Prop56
140
1.0
102
RTVSPost2010PropOp56
 70
     1
102
RTVSPost2010Prop57
140
1.0
102
RTVSPost2010PropOp57
 70
     1
  0
XRECORD
  5
309
102
{ACAD_REACTORS
330
308
102
}
330
308
100
AcDbXrecord
280
     1
102
RTVSPost2010Prop28
280
     0
102
RTVSPost2010PropOp28
 70
     0
102
RTVSPost2010Prop29
280
     1
102
RTVSPost2010PropOp29
 70
     0
102
RTVSPost2010Prop30
280
     1
102
RTVSPost2010PropOp30
 70
     0
102
RTVSPost2010Prop31
280
     0
102
RTVSPost2010PropOp31
 70
     0
102
RTVSPost2010Prop32
280
     0
102
RTVSPost2010PropOp32
 70
     0
102
RTVSPost2010Prop33
280
     0
102
RTVSPost2010PropOp33
 70
     0
102
RTVSPost2010Prop34
280
     0
102
RTVSPost2010PropOp34
 70
     0
102
RTVSPost2010Prop35
280
     0
102
RTVSPost2010PropOp35
 70
     0
102
RTVSPost2010Prop36
280
     0
102
RTVSPost2010PropOp36
 70
     0
102
RTVSPost2010Prop37
 90
       50
102
RTVSPost2010PropOp37
 70
     0
102
RTVSPost2010Prop38
140
0.0
102
RTVSPost2010PropOp38
 70
     0
102
RTVSPost2010Prop39
140
1.0
102
RTVSPost2010PropOp39
 70
     0
102
RTVSPost2010Prop40
 90
        0
102
RTVSPost2010PropOp40
 70
     0
102
RTVSPost2010Prop41ColorIndex
 90
       18
102
RTVSPost2010Prop41ColorRGB
 90
        0
102
RTVSPost2010PropOp41
 70
     0
102
RTVSPost2010Prop42
 90
       50
102
RTVSPost2010PropOp42
 70
     0
102
RTVSPost2010Prop43
 90
        3
102
RTVSPost2010PropOp43
 70
     0
102
RTVSPost2010Prop44ColorIndex
 90
        5
102
RTVSPost2010Prop44ColorRGB
 90
      255
102
RTVSPost2010PropOp44
 70
     0
102
RTVSPost2010Prop45
280
     0
102
RTVSPost2010PropOp45
 70
     0
102
RTVSPost2010Prop46
 90
       50
102
RTVSPost2010PropOp46
 70
     0
102
RTVSPost2010Prop47
 90
       50
102
RTVSPost2010PropOp47
 70
     0
102
RTVSPost2010Prop48
 90
       50
102
RTVSPost2010PropOp48
 70
     0
102
RTVSPost2010Prop49
280
     0
102
RTVSPost2010PropOp49
 70
     0
102
RTVSPost2010Prop50
 90
       50
102
RTVSPost2010PropOp50
 70
     0
102
RTVSPost2010Prop51ColorIndex
 90
      256
102
RTVSPost2010Prop51ColorRGB
 90
-16777216
102
RTVSPost2010PropOp51
 70
     0
102
RTVSPost2010Prop52
140
1.0
102
RTVSPost2010PropOp52
 70
     0
102
RTVSPost2010Prop53
 90
        2
102
RTVSPost2010PropOp53
 70
     0
102
RTVSPost2010Prop54
  1
strokes_ogs.tif
102
RTVSPost2010PropOp54
 70
     0
102
RTVSPost2010Prop55
280
     0
102
RTVSPost2010PropOp55
 70
     0
102
RTVSPost2010Prop56
140
1.0
102
RTVSPost2010PropOp56
 70
     0
102
RTVSPost2010Prop57
140
1.0
102
RTVSPost2010PropOp57
 70
     0
  0
XRECORD
  5
301
102
{ACAD_REACTORS
330
300
102
}
330
300
100
AcDbXrecord
280
     1
102
RTVSPost2010Prop28
280
     0
102
RTVSPost2010PropOp28
 70
     1
102
RTVSPost2010Prop29
280
     1
102
RTVSPost2010PropOp29
 70
     1
102
RTVSPost2010Prop30
280
     1
102
RTVSPost2010PropOp30
 70
     1
102
RTVSPost2010Prop31
280
     0
102
RTVSPost2010PropOp31
 70
     1
102
RTVSPost2010Prop32
280
     0
102
RTVSPost2010PropOp32
 70
     1
102
RTVSPost2010Prop33
280
     0
102
RTVSPost2010PropOp33
 70
     1
102
RTVSPost2010Prop34
280
     0
102
RTVSPost2010PropOp34
 70
     1
102
RTVSPost2010Prop35
280
     0
102
RTVSPost2010PropOp35
 70
     1
102
RTVSPost2010Prop36
280
     0
102
RTVSPost2010PropOp36
 70
     1
102
RTVSPost2010Prop37
 90
       50
102
RTVSPost2010PropOp37
 70
     1
102
RTVSPost2010Prop38
140
0.0
102
RTVSPost2010PropOp38
 70
     1
102
RTVSPost2010Prop39
140
1.0
102
RTVSPost2010PropOp39
 70
     1
102
RTVSPost2010Prop40
 90
        0
102
RTVSPost2010PropOp40
 70
     1
102
RTVSPost2010Prop41ColorIndex
 90
       18
102
RTVSPost2010Prop41ColorRGB
 90
        0
102
RTVSPost2010PropOp41
 70
     1
102
RTVSPost2010Prop42
 90
       50
102
RTVSPost2010PropOp42
 70
     1
102
RTVSPost2010Prop43
 90
        3
102
RTVSPost2010PropOp43
 70
     1
102
RTVSPost2010Prop44ColorIndex
 90
        5
102
RTVSPost2010Prop44ColorRGB
 90
      255
102
RTVSPost2010PropOp44
 70
     1
102
RTVSPost2010Prop45
280
     0
102
RTVSPost2010PropOp45
 70
     1
102
RTVSPost2010Prop46
 90
       50
102
RTVSPost2010PropOp46
 70
     1
102
RTVSPost2010Prop47
 90
       50
102
RTVSPost2010PropOp47
 70
     1
102
RTVSPost2010Prop48
 90
       50
102
RTVSPost2010PropOp48
 70
     1
102
RTVSPost2010Prop49
280
     0
102
RTVSPost2010PropOp49
 70
     1
102
RTVSPost2010Prop50
 90
       50
102
RTVSPost2010PropOp50
 70
     1
102
RTVSPost2010Prop51ColorIndex
 90
      256
102
RTVSPost2010Prop51ColorRGB
 90
-16777216
102
RTVSPost2010PropOp51
 70
     0
102
RTVSPost2010Prop52
140
1.0
102
RTVSPost2010PropOp52
 70
     0
102
RTVSPost2010Prop53
 90
        2
102
RTVSPost2010PropOp53
 70
     1
102
RTVSPost2010Prop54
  1
strokes_ogs.tif
102
RTVSPost2010PropOp54
 70
     1
102
RTVSPost2010Prop55
280
     0
102
RTVSPost2010PropOp55
 70
     1
102
RTVSPost2010Prop56
140
1.0
102
RTVSPost2010PropOp56
 70
     1
102
RTVSPost2010Prop57
140
1.0
102
RTVSPost2010PropOp57
 70
     1
  0
XRECORD
  5
2E5
102
{ACAD_REACTORS
330
2E4
102
}
330
2E4
100
AcDbXrecord
280
     1
102
RTVSPost2010Prop28
280
     0
102
RTVSPost2010PropOp28
 70
     1
102
RTVSPost2010Prop29
280
     1
102
RTVSPost2010PropOp29
 70
     1
102
RTVSPost2010Prop30
280
     1
102
RTVSPost2010PropOp30
 70
     1
102
RTVSPost2010Prop31
280
     0
102
RTVSPost2010PropOp31
 70
     1
102
RTVSPost2010Prop32
280
     0
102
RTVSPost2010PropOp32
 70
     1
102
RTVSPost2010Prop33
280
     0
102
RTVSPost2010PropOp33
 70
     1
102
RTVSPost2010Prop34
280
     0
102
RTVSPost2010PropOp34
 70
     1
102
RTVSPost2010Prop35
280
     0
102
RTVSPost2010PropOp35
 70
     1
102
RTVSPost2010Prop36
280
     0
102
RTVSPost2010PropOp36
 70
     1
102
RTVSPost2010Prop37
 90
       50
102
RTVSPost2010PropOp37
 70
     1
102
RTVSPost2010Prop38
140
0.0
102
RTVSPost2010PropOp38
 70
     1
102
RTVSPost2010Prop39
140
1.0
102
RTVSPost2010PropOp39
 70
     1
102
RTVSPost2010Prop40
 90
        0
102
RTVSPost2010PropOp40
 70
     1
102
RTVSPost2010Prop41ColorIndex
 90
       18
102
RTVSPost2010Prop41ColorRGB
 90
        0
102
RTVSPost2010PropOp41
 70
     1
102
RTVSPost2010Prop42
 90
       50
102
RTVSPost2010PropOp42
 70
     1
102
RTVSPost2010Prop43
 90
        3
102
RTVSPost2010PropOp43
 70
     1
102
RTVSPost2010Prop44ColorIndex
 90
        5
102
RTVSPost2010Prop44ColorRGB
 90
      255
102
RTVSPost2010PropOp44
 70
     1
102
RTVSPost2010Prop45
280
     0
102
RTVSPost2010PropOp45
 70
     1
102
RTVSPost2010Prop46
 90
       50
102
RTVSPost2010PropOp46
 70
     1
102
RTVSPost2010Prop47
 90
       50
102
RTVSPost2010PropOp47
 70
     1
102
RTVSPost2010Prop48
 90
       50
102
RTVSPost2010PropOp48
 70
     1
102
RTVSPost2010Prop49
280
     0
102
RTVSPost2010PropOp49
 70
     1
102
RTVSPost2010Prop50
 90
       50
102
RTVSPost2010PropOp50
 70
     1
102
RTVSPost2010Prop51ColorIndex
 90
      256
102
RTVSPost2010Prop51ColorRGB
 90
-16777216
102
RTVSPost2010PropOp51
 70
     0
102
RTVSPost2010Prop52
140
1.0
102
RTVSPost2010PropOp52
 70
     0
102
RTVSPost2010Prop53
 90
        2
102
RTVSPost2010PropOp53
 70
     1
102
RTVSPost2010Prop54
  1
strokes_ogs.tif
102
RTVSPost2010PropOp54
 70
     1
102
RTVSPost2010Prop55
280
     0
102
RTVSPost2010PropOp55
 70
     1
102
RTVSPost2010Prop56
140
1.0
102
RTVSPost2010PropOp56
 70
     1
102
RTVSPost2010Prop57
140
1.0
102
RTVSPost2010PropOp57
 70
     1
  0
XRECORD
  5
2E7
102
{ACAD_REACTORS
330
2E6
102
}
330
2E6
100
AcDbXrecord
280
     1
102
RTVSPost2010Prop28
280
     0
102
RTVSPost2010PropOp28
 70
     1
102
RTVSPost2010Prop29
280
     1
102
RTVSPost2010PropOp29
 70
     1
102
RTVSPost2010Prop30
280
     1
102
RTVSPost2010PropOp30
 70
     1
102
RTVSPost2010Prop31
280
     0
102
RTVSPost2010PropOp31
 70
     1
102
RTVSPost2010Prop32
280
     0
102
RTVSPost2010PropOp32
 70
     1
102
RTVSPost2010Prop33
280
     0
102
RTVSPost2010PropOp33
 70
     1
102
RTVSPost2010Prop34
280
     0
102
RTVSPost2010PropOp34
 70
     1
102
RTVSPost2010Prop35
280
     0
102
RTVSPost2010PropOp35
 70
     1
102
RTVSPost2010Prop36
280
     0
102
RTVSPost2010PropOp36
 70
     1
102
RTVSPost2010Prop37
 90
       50
102
RTVSPost2010PropOp37
 70
     1
102
RTVSPost2010Prop38
140
0.0
102
RTVSPost2010PropOp38
 70
     1
102
RTVSPost2010Prop39
140
1.0
102
RTVSPost2010PropOp39
 70
     1
102
RTVSPost2010Prop40
 90
        0
102
RTVSPost2010PropOp40
 70
     1
102
RTVSPost2010Prop41ColorIndex
 90
       18
102
RTVSPost2010Prop41ColorRGB
 90
        0
102
RTVSPost2010PropOp41
 70
     1
102
RTVSPost2010Prop42
 90
       50
102
RTVSPost2010PropOp42
 70
     1
102
RTVSPost2010Prop43
 90
        3
102
RTVSPost2010PropOp43
 70
     1
102
RTVSPost2010Prop44ColorIndex
 90
        5
102
RTVSPost2010Prop44ColorRGB
 90
      255
102
RTVSPost2010PropOp44
 70
     1
102
RTVSPost2010Prop45
280
     0
102
RTVSPost2010PropOp45
 70
     1
102
RTVSPost2010Prop46
 90
       50
102
RTVSPost2010PropOp46
 70
     1
102
RTVSPost2010Prop47
 90
       50
102
RTVSPost2010PropOp47
 70
     1
102
RTVSPost2010Prop48
 90
       50
102
RTVSPost2010PropOp48
 70
     1
102
RTVSPost2010Prop49
280
     0
102
RTVSPost2010PropOp49
 70
     1
102
RTVSPost2010Prop50
 90
       50
102
RTVSPost2010PropOp50
 70
     1
102
RTVSPost2010Prop51ColorIndex
 90
      256
102
RTVSPost2010Prop51ColorRGB
 90
-16777216
102
RTVSPost2010PropOp51
 70
     0
102
RTVSPost2010Prop52
140
1.0
102
RTVSPost2010PropOp52
 70
     0
102
RTVSPost2010Prop53
 90
        2
102
RTVSPost2010PropOp53
 70
     1
102
RTVSPost2010Prop54
  1
strokes_ogs.tif
102
RTVSPost2010PropOp54
 70
     1
102
RTVSPost2010Prop55
280
     0
102
RTVSPost2010PropOp55
 70
     1
102
RTVSPost2010Prop56
140
1.0
102
RTVSPost2010PropOp56
 70
     1
102
RTVSPost2010Prop57
140
1.0
102
RTVSPost2010PropOp57
 70
     1
  0
XRECORD
  5
2E9
102
{ACAD_REACTORS
330
2E8
102
}
330
2E8
100
AcDbXrecord
280
     1
102
RTVSPost2010Prop28
280
     0
102
RTVSPost2010PropOp28
 70
     1
102
RTVSPost2010Prop29
280
     1
102
RTVSPost2010PropOp29
 70
     1
102
RTVSPost2010Prop30
280
     1
102
RTVSPost2010PropOp30
 70
     1
102
RTVSPost2010Prop31
280
     0
102
RTVSPost2010PropOp31
 70
     1
102
RTVSPost2010Prop32
280
     0
102
RTVSPost2010PropOp32
 70
     1
102
RTVSPost2010Prop33
280
     0
102
RTVSPost2010PropOp33
 70
     1
102
RTVSPost2010Prop34
280
     0
102
RTVSPost2010PropOp34
 70
     1
102
RTVSPost2010Prop35
280
     0
102
RTVSPost2010PropOp35
 70
     1
102
RTVSPost2010Prop36
280
     0
102
RTVSPost2010PropOp36
 70
     1
102
RTVSPost2010Prop37
 90
       50
102
RTVSPost2010PropOp37
 70
     1
102
RTVSPost2010Prop38
140
0.0
102
RTVSPost2010PropOp38
 70
     1
102
RTVSPost2010Prop39
140
1.0
102
RTVSPost2010PropOp39
 70
     1
102
RTVSPost2010Prop40
 90
        0
102
RTVSPost2010PropOp40
 70
     1
102
RTVSPost2010Prop41ColorIndex
 90
       18
102
RTVSPost2010Prop41ColorRGB
 90
        0
102
RTVSPost2010PropOp41
 70
     1
102
RTVSPost2010Prop42
 90
       50
102
RTVSPost2010PropOp42
 70
     1
102
RTVSPost2010Prop43
 90
        3
102
RTVSPost2010PropOp43
 70
     1
102
RTVSPost2010Prop44ColorIndex
 90
        5
102
RTVSPost2010Prop44ColorRGB
 90
      255
102
RTVSPost2010PropOp44
 70
     1
102
RTVSPost2010Prop45
280
     0
102
RTVSPost2010PropOp45
 70
     1
102
RTVSPost2010Prop46
 90
       50
102
RTVSPost2010PropOp46
 70
     1
102
RTVSPost2010Prop47
 90
       50
102
RTVSPost2010PropOp47
 70
     1
102
RTVSPost2010Prop48
 90
       50
102
RTVSPost2010PropOp48
 70
     1
102
RTVSPost2010Prop49
280
     0
102
RTVSPost2010PropOp49
 70
     1
102
RTVSPost2010Prop50
 90
       50
102
RTVSPost2010PropOp50
 70
     1
102
RTVSPost2010Prop51ColorIndex
 90
      256
102
RTVSPost2010Prop51ColorRGB
 90
-16777216
102
RTVSPost2010PropOp51
 70
     0
102
RTVSPost2010Prop52
140
1.0
102
RTVSPost2010PropOp52
 70
     0
102
RTVSPost2010Prop53
 90
        2
102
RTVSPost2010PropOp53
 70
     1
102
RTVSPost2010Prop54
  1
strokes_ogs.tif
102
RTVSPost2010PropOp54
 70
     1
102
RTVSPost2010Prop55
280
     0
102
RTVSPost2010PropOp55
 70
     1
102
RTVSPost2010Prop56
140
1.0
102
RTVSPost2010PropOp56
 70
     1
102
RTVSPost2010Prop57
140
1.0
102
RTVSPost2010PropOp57
 70
     1
  0
XRECORD
  5
2EB
102
{ACAD_REACTORS
330
2EA
102
}
330
2EA
100
AcDbXrecord
280
     1
102
RTVSPost2010Prop28
280
     0
102
RTVSPost2010PropOp28
 70
     1
102
RTVSPost2010Prop29
280
     1
102
RTVSPost2010PropOp29
 70
     1
102
RTVSPost2010Prop30
280
     1
102
RTVSPost2010PropOp30
 70
     1
102
RTVSPost2010Prop31
280
     0
102
RTVSPost2010PropOp31
 70
     1
102
RTVSPost2010Prop32
280
     0
102
RTVSPost2010PropOp32
 70
     1
102
RTVSPost2010Prop33
280
     0
102
RTVSPost2010PropOp33
 70
     1
102
RTVSPost2010Prop34
280
     0
102
RTVSPost2010PropOp34
 70
     1
102
RTVSPost2010Prop35
280
     0
102
RTVSPost2010PropOp35
 70
     1
102
RTVSPost2010Prop36
280
     0
102
RTVSPost2010PropOp36
 70
     1
102
RTVSPost2010Prop37
 90
       50
102
RTVSPost2010PropOp37
 70
     1
102
RTVSPost2010Prop38
140
0.0
102
RTVSPost2010PropOp38
 70
     1
102
RTVSPost2010Prop39
140
1.0
102
RTVSPost2010PropOp39
 70
     1
102
RTVSPost2010Prop40
 90
        0
102
RTVSPost2010PropOp40
 70
     1
102
RTVSPost2010Prop41ColorIndex
 90
       18
102
RTVSPost2010Prop41ColorRGB
 90
        0
102
RTVSPost2010PropOp41
 70
     1
102
RTVSPost2010Prop42
 90
       50
102
RTVSPost2010PropOp42
 70
     1
102
RTVSPost2010Prop43
 90
        3
102
RTVSPost2010PropOp43
 70
     1
102
RTVSPost2010Prop44ColorIndex
 90
        5
102
RTVSPost2010Prop44ColorRGB
 90
      255
102
RTVSPost2010PropOp44
 70
     1
102
RTVSPost2010Prop45
280
     0
102
RTVSPost2010PropOp45
 70
     1
102
RTVSPost2010Prop46
 90
       50
102
RTVSPost2010PropOp46
 70
     1
102
RTVSPost2010Prop47
 90
       50
102
RTVSPost2010PropOp47
 70
     1
102
RTVSPost2010Prop48
 90
       50
102
RTVSPost2010PropOp48
 70
     1
102
RTVSPost2010Prop49
280
     0
102
RTVSPost2010PropOp49
 70
     1
102
RTVSPost2010Prop50
 90
       50
102
RTVSPost2010PropOp50
 70
     1
102
RTVSPost2010Prop51ColorIndex
 90
      256
102
RTVSPost2010Prop51ColorRGB
 90
-16777216
102
RTVSPost2010PropOp51
 70
     0
102
RTVSPost2010Prop52
140
1.0
102
RTVSPost2010PropOp52
 70
     0
102
RTVSPost2010Prop53
 90
        2
102
RTVSPost2010PropOp53
 70
     1
102
RTVSPost2010Prop54
  1
strokes_ogs.tif
102
RTVSPost2010PropOp54
 70
     1
102
RTVSPost2010Prop55
280
     0
102
RTVSPost2010PropOp55
 70
     1
102
RTVSPost2010Prop56
140
1.0
102
RTVSPost2010PropOp56
 70
     1
102
RTVSPost2010Prop57
140
1.0
102
RTVSPost2010PropOp57
 70
     1
  0
XRECORD
  5
2F1
102
{ACAD_REACTORS
330
2F0
102
}
330
2F0
100
AcDbXrecord
280
     1
102
RTVSPost2010Prop28
280
     0
102
RTVSPost2010PropOp28
 70
     1
102
RTVSPost2010Prop29
280
     1
102
RTVSPost2010PropOp29
 70
     1
102
RTVSPost2010Prop30
280
     1
102
RTVSPost2010PropOp30
 70
     1
102
RTVSPost2010Prop31
280
     0
102
RTVSPost2010PropOp31
 70
     1
102
RTVSPost2010Prop32
280
     0
102
RTVSPost2010PropOp32
 70
     1
102
RTVSPost2010Prop33
280
     0
102
RTVSPost2010PropOp33
 70
     1
102
RTVSPost2010Prop34
280
     0
102
RTVSPost2010PropOp34
 70
     1
102
RTVSPost2010Prop35
280
     0
102
RTVSPost2010PropOp35
 70
     1
102
RTVSPost2010Prop36
280
     0
102
RTVSPost2010PropOp36
 70
     1
102
RTVSPost2010Prop37
 90
       50
102
RTVSPost2010PropOp37
 70
     1
102
RTVSPost2010Prop38
140
0.0
102
RTVSPost2010PropOp38
 70
     1
102
RTVSPost2010Prop39
140
1.0
102
RTVSPost2010PropOp39
 70
     1
102
RTVSPost2010Prop40
 90
        0
102
RTVSPost2010PropOp40
 70
     1
102
RTVSPost2010Prop41ColorIndex
 90
       18
102
RTVSPost2010Prop41ColorRGB
 90
        0
102
RTVSPost2010PropOp41
 70
     1
102
RTVSPost2010Prop42
 90
       50
102
RTVSPost2010PropOp42
 70
     1
102
RTVSPost2010Prop43
 90
        3
102
RTVSPost2010PropOp43
 70
     1
102
RTVSPost2010Prop44ColorIndex
 90
        5
102
RTVSPost2010Prop44ColorRGB
 90
      255
102
RTVSPost2010PropOp44
 70
     1
102
RTVSPost2010Prop45
280
     0
102
RTVSPost2010PropOp45
 70
     1
102
RTVSPost2010Prop46
 90
       50
102
RTVSPost2010PropOp46
 70
     1
102
RTVSPost2010Prop47
 90
       50
102
RTVSPost2010PropOp47
 70
     1
102
RTVSPost2010Prop48
 90
       50
102
RTVSPost2010PropOp48
 70
     1
102
RTVSPost2010Prop49
280
     0
102
RTVSPost2010PropOp49
 70
     1
102
RTVSPost2010Prop50
 90
       50
102
RTVSPost2010PropOp50
 70
     1
102
RTVSPost2010Prop51ColorIndex
 90
      256
102
RTVSPost2010Prop51ColorRGB
 90
-16777216
102
RTVSPost2010PropOp51
 70
     0
102
RTVSPost2010Prop52
140
1.0
102
RTVSPost2010PropOp52
 70
     0
102
RTVSPost2010Prop53
 90
        2
102
RTVSPost2010PropOp53
 70
     1
102
RTVSPost2010Prop54
  1
strokes_ogs.tif
102
RTVSPost2010PropOp54
 70
     1
102
RTVSPost2010Prop55
280
     0
102
RTVSPost2010PropOp55
 70
     1
102
RTVSPost2010Prop56
140
1.0
102
RTVSPost2010PropOp56
 70
     1
102
RTVSPost2010Prop57
140
1.0
102
RTVSPost2010PropOp57
 70
     1
  0
XRECORD
  5
305
102
{ACAD_REACTORS
330
304
102
}
330
304
100
AcDbXrecord
280
     1
102
RTVSPost2010Prop28
280
     0
102
RTVSPost2010PropOp28
 70
     0
102
RTVSPost2010Prop29
280
     1
102
RTVSPost2010PropOp29
 70
     0
102
RTVSPost2010Prop30
280
     1
102
RTVSPost2010PropOp30
 70
     0
102
RTVSPost2010Prop31
280
     0
102
RTVSPost2010PropOp31
 70
     0
102
RTVSPost2010Prop32
280
     0
102
RTVSPost2010PropOp32
 70
     0
102
RTVSPost2010Prop33
280
     0
102
RTVSPost2010PropOp33
 70
     0
102
RTVSPost2010Prop34
280
     0
102
RTVSPost2010PropOp34
 70
     0
102
RTVSPost2010Prop35
280
     0
102
RTVSPost2010PropOp35
 70
     0
102
RTVSPost2010Prop36
280
     0
102
RTVSPost2010PropOp36
 70
     0
102
RTVSPost2010Prop37
 90
       50
102
RTVSPost2010PropOp37
 70
     0
102
RTVSPost2010Prop38
140
0.0
102
RTVSPost2010PropOp38
 70
     0
102
RTVSPost2010Prop39
140
1.0
102
RTVSPost2010PropOp39
 70
     0
102
RTVSPost2010Prop40
 90
        0
102
RTVSPost2010PropOp40
 70
     0
102
RTVSPost2010Prop41ColorIndex
 90
       18
102
RTVSPost2010Prop41ColorRGB
 90
        0
102
RTVSPost2010PropOp41
 70
     0
102
RTVSPost2010Prop42
 90
       50
102
RTVSPost2010PropOp42
 70
     0
102
RTVSPost2010Prop43
 90
        3
102
RTVSPost2010PropOp43
 70
     0
102
RTVSPost2010Prop44ColorIndex
 90
        5
102
RTVSPost2010Prop44ColorRGB
 90
      255
102
RTVSPost2010PropOp44
 70
     0
102
RTVSPost2010Prop45
280
     0
102
RTVSPost2010PropOp45
 70
     0
102
RTVSPost2010Prop46
 90
       50
102
RTVSPost2010PropOp46
 70
     0
102
RTVSPost2010Prop47
 90
       50
102
RTVSPost2010PropOp47
 70
     0
102
RTVSPost2010Prop48
 90
       50
102
RTVSPost2010PropOp48
 70
     0
102
RTVSPost2010Prop49
280
     0
102
RTVSPost2010PropOp49
 70
     0
102
RTVSPost2010Prop50
 90
       50
102
RTVSPost2010PropOp50
 70
     0
102
RTVSPost2010Prop51ColorIndex
 90
      256
102
RTVSPost2010Prop51ColorRGB
 90
-16777216
102
RTVSPost2010PropOp51
 70
     0
102
RTVSPost2010Prop52
140
1.0
102
RTVSPost2010PropOp52
 70
     0
102
RTVSPost2010Prop53
 90
        2
102
RTVSPost2010PropOp53
 70
     0
102
RTVSPost2010Prop54
  1
strokes_ogs.tif
102
RTVSPost2010PropOp54
 70
     0
102
RTVSPost2010Prop55
280
     0
102
RTVSPost2010PropOp55
 70
     0
102
RTVSPost2010Prop56
140
1.0
102
RTVSPost2010PropOp56
 70
     0
102
RTVSPost2010Prop57
140
1.0
102
RTVSPost2010PropOp57
 70
     0
  0
XRECORD
  5
2FF
102
{ACAD_REACTORS
330
2FE
102
}
330
2FE
100
AcDbXrecord
280
     1
102
RTVSPost2010Prop28
280
     0
102
RTVSPost2010PropOp28
 70
     1
102
RTVSPost2010Prop29
280
     1
102
RTVSPost2010PropOp29
 70
     1
102
RTVSPost2010Prop30
280
     1
102
RTVSPost2010PropOp30
 70
     1
102
RTVSPost2010Prop31
280
     0
102
RTVSPost2010PropOp31
 70
     1
102
RTVSPost2010Prop32
280
     0
102
RTVSPost2010PropOp32
 70
     1
102
RTVSPost2010Prop33
280
     0
102
RTVSPost2010PropOp33
 70
     1
102
RTVSPost2010Prop34
280
     0
102
RTVSPost2010PropOp34
 70
     1
102
RTVSPost2010Prop35
280
     0
102
RTVSPost2010PropOp35
 70
     1
102
RTVSPost2010Prop36
280
     0
102
RTVSPost2010PropOp36
 70
     1
102
RTVSPost2010Prop37
 90
       50
102
RTVSPost2010PropOp37
 70
     1
102
RTVSPost2010Prop38
140
0.0
102
RTVSPost2010PropOp38
 70
     1
102
RTVSPost2010Prop39
140
1.0
102
RTVSPost2010PropOp39
 70
     1
102
RTVSPost2010Prop40
 90
        0
102
RTVSPost2010PropOp40
 70
     1
102
RTVSPost2010Prop41ColorIndex
 90
       18
102
RTVSPost2010Prop41ColorRGB
 90
        0
102
RTVSPost2010PropOp41
 70
     1
102
RTVSPost2010Prop42
 90
       50
102
RTVSPost2010PropOp42
 70
     1
102
RTVSPost2010Prop43
 90
        3
102
RTVSPost2010PropOp43
 70
     1
102
RTVSPost2010Prop44ColorIndex
 90
        5
102
RTVSPost2010Prop44ColorRGB
 90
      255
102
RTVSPost2010PropOp44
 70
     1
102
RTVSPost2010Prop45
280
     0
102
RTVSPost2010PropOp45
 70
     1
102
RTVSPost2010Prop46
 90
       50
102
RTVSPost2010PropOp46
 70
     1
102
RTVSPost2010Prop47
 90
       50
102
RTVSPost2010PropOp47
 70
     1
102
RTVSPost2010Prop48
 90
       50
102
RTVSPost2010PropOp48
 70
     1
102
RTVSPost2010Prop49
280
     0
102
RTVSPost2010PropOp49
 70
     1
102
RTVSPost2010Prop50
 90
       50
102
RTVSPost2010PropOp50
 70
     1
102
RTVSPost2010Prop51ColorIndex
 90
      256
102
RTVSPost2010Prop51ColorRGB
 90
-16777216
102
RTVSPost2010PropOp51
 70
     0
102
RTVSPost2010Prop52
140
1.0
102
RTVSPost2010PropOp52
 70
     0
102
RTVSPost2010Prop53
 90
        2
102
RTVSPost2010PropOp53
 70
     1
102
RTVSPost2010Prop54
  1
strokes_ogs.tif
102
RTVSPost2010PropOp54
 70
     1
102
RTVSPost2010Prop55
280
     0
102
RTVSPost2010PropOp55
 70
     1
102
RTVSPost2010Prop56
140
1.0
102
RTVSPost2010PropOp56
 70
     1
102
RTVSPost2010Prop57
140
1.0
102
RTVSPost2010PropOp57
 70
     1
  0
XRECORD
  5
307
102
{ACAD_REACTORS
330
306
102
}
330
306
100
AcDbXrecord
280
     1
102
RTVSPost2010Prop28
280
     0
102
RTVSPost2010PropOp28
 70
     0
102
RTVSPost2010Prop29
280
     1
102
RTVSPost2010PropOp29
 70
     0
102
RTVSPost2010Prop30
280
     1
102
RTVSPost2010PropOp30
 70
     0
102
RTVSPost2010Prop31
280
     0
102
RTVSPost2010PropOp31
 70
     0
102
RTVSPost2010Prop32
280
     0
102
RTVSPost2010PropOp32
 70
     0
102
RTVSPost2010Prop33
280
     0
102
RTVSPost2010PropOp33
 70
     0
102
RTVSPost2010Prop34
280
     0
102
RTVSPost2010PropOp34
 70
     0
102
RTVSPost2010Prop35
280
     0
102
RTVSPost2010PropOp35
 70
     0
102
RTVSPost2010Prop36
280
     0
102
RTVSPost2010PropOp36
 70
     0
102
RTVSPost2010Prop37
 90
       50
102
RTVSPost2010PropOp37
 70
     0
102
RTVSPost2010Prop38
140
0.0
102
RTVSPost2010PropOp38
 70
     0
102
RTVSPost2010Prop39
140
1.0
102
RTVSPost2010PropOp39
 70
     0
102
RTVSPost2010Prop40
 90
        0
102
RTVSPost2010PropOp40
 70
     0
102
RTVSPost2010Prop41ColorIndex
 90
       18
102
RTVSPost2010Prop41ColorRGB
 90
        0
102
RTVSPost2010PropOp41
 70
     0
102
RTVSPost2010Prop42
 90
       50
102
RTVSPost2010PropOp42
 70
     0
102
RTVSPost2010Prop43
 90
        3
102
RTVSPost2010PropOp43
 70
     0
102
RTVSPost2010Prop44ColorIndex
 90
        5
102
RTVSPost2010Prop44ColorRGB
 90
      255
102
RTVSPost2010PropOp44
 70
     0
102
RTVSPost2010Prop45
280
     0
102
RTVSPost2010PropOp45
 70
     0
102
RTVSPost2010Prop46
 90
       50
102
RTVSPost2010PropOp46
 70
     0
102
RTVSPost2010Prop47
 90
       50
102
RTVSPost2010PropOp47
 70
     0
102
RTVSPost2010Prop48
 90
       50
102
RTVSPost2010PropOp48
 70
     0
102
RTVSPost2010Prop49
280
     0
102
RTVSPost2010PropOp49
 70
     0
102
RTVSPost2010Prop50
 90
       50
102
RTVSPost2010PropOp50
 70
     0
102
RTVSPost2010Prop51ColorIndex
 90
      256
102
RTVSPost2010Prop51ColorRGB
 90
-16777216
102
RTVSPost2010PropOp51
 70
     0
102
RTVSPost2010Prop52
140
1.0
102
RTVSPost2010PropOp52
 70
     0
102
RTVSPost2010Prop53
 90
        2
102
RTVSPost2010PropOp53
 70
     0
102
RTVSPost2010Prop54
  1
strokes_ogs.tif
102
RTVSPost2010PropOp54
 70
     0
102
RTVSPost2010Prop55
280
     0
102
RTVSPost2010PropOp55
 70
     0
102
RTVSPost2010Prop56
140
1.0
102
RTVSPost2010PropOp56
 70
     0
102
RTVSPost2010Prop57
140
1.0
102
RTVSPost2010PropOp57
 70
     0
  0
XRECORD
  5
2F5
102
{ACAD_REACTORS
330
2F4
102
}
330
2F4
100
AcDbXrecord
280
     1
102
RTVSPost2010Prop28
280
     0
102
RTVSPost2010PropOp28
 70
     1
102
RTVSPost2010Prop29
280
     1
102
RTVSPost2010PropOp29
 70
     1
102
RTVSPost2010Prop30
280
     1
102
RTVSPost2010PropOp30
 70
     1
102
RTVSPost2010Prop31
280
     0
102
RTVSPost2010PropOp31
 70
     1
102
RTVSPost2010Prop32
280
     0
102
RTVSPost2010PropOp32
 70
     1
102
RTVSPost2010Prop33
280
     0
102
RTVSPost2010PropOp33
 70
     1
102
RTVSPost2010Prop34
280
     0
102
RTVSPost2010PropOp34
 70
     1
102
RTVSPost2010Prop35
280
     0
102
RTVSPost2010PropOp35
 70
     1
102
RTVSPost2010Prop36
280
     0
102
RTVSPost2010PropOp36
 70
     1
102
RTVSPost2010Prop37
 90
       50
102
RTVSPost2010PropOp37
 70
     1
102
RTVSPost2010Prop38
140
0.0
102
RTVSPost2010PropOp38
 70
     1
102
RTVSPost2010Prop39
140
1.0
102
RTVSPost2010PropOp39
 70
     1
102
RTVSPost2010Prop40
 90
        0
102
RTVSPost2010PropOp40
 70
     1
102
RTVSPost2010Prop41ColorIndex
 90
       18
102
RTVSPost2010Prop41ColorRGB
 90
        0
102
RTVSPost2010PropOp41
 70
     1
102
RTVSPost2010Prop42
 90
       50
102
RTVSPost2010PropOp42
 70
     1
102
RTVSPost2010Prop43
 90
        3
102
RTVSPost2010PropOp43
 70
     1
102
RTVSPost2010Prop44ColorIndex
 90
        5
102
RTVSPost2010Prop44ColorRGB
 90
      255
102
RTVSPost2010PropOp44
 70
     1
102
RTVSPost2010Prop45
280
     0
102
RTVSPost2010PropOp45
 70
     1
102
RTVSPost2010Prop46
 90
       50
102
RTVSPost2010PropOp46
 70
     1
102
RTVSPost2010Prop47
 90
       50
102
RTVSPost2010PropOp47
 70
     1
102
RTVSPost2010Prop48
 90
       50
102
RTVSPost2010PropOp48
 70
     1
102
RTVSPost2010Prop49
280
     0
102
RTVSPost2010PropOp49
 70
     1
102
RTVSPost2010Prop50
 90
       50
102
RTVSPost2010PropOp50
 70
     1
102
RTVSPost2010Prop51ColorIndex
 90
      256
102
RTVSPost2010Prop51ColorRGB
 90
-16777216
102
RTVSPost2010PropOp51
 70
     0
102
RTVSPost2010Prop52
140
1.0
102
RTVSPost2010PropOp52
 70
     0
102
RTVSPost2010Prop53
 90
        2
102
RTVSPost2010PropOp53
 70
     1
102
RTVSPost2010Prop54
  1
strokes_ogs.tif
102
RTVSPost2010PropOp54
 70
     1
102
RTVSPost2010Prop55
280
     0
102
RTVSPost2010PropOp55
 70
     1
102
RTVSPost2010Prop56
140
1.0
102
RTVSPost2010PropOp56
 70
     1
102
RTVSPost2010Prop57
140
1.0
102
RTVSPost2010PropOp57
 70
     1
  0
XRECORD
  5
313
102
{ACAD_REACTORS
330
312
102
}
330
312
100
AcDbXrecord
280
     1
102
RTVSPost2010Prop28
280
     0
102
RTVSPost2010PropOp28
 70
     1
102
RTVSPost2010Prop29
280
     1
102
RTVSPost2010PropOp29
 70
     1
102
RTVSPost2010Prop30
280
     1
102
RTVSPost2010PropOp30
 70
     1
102
RTVSPost2010Prop31
280
     0
102
RTVSPost2010PropOp31
 70
     1
102
RTVSPost2010Prop32
280
     0
102
RTVSPost2010PropOp32
 70
     1
102
RTVSPost2010Prop33
280
     0
102
RTVSPost2010PropOp33
 70
     1
102
RTVSPost2010Prop34
280
     0
102
RTVSPost2010PropOp34
 70
     1
102
RTVSPost2010Prop35
280
     0
102
RTVSPost2010PropOp35
 70
     1
102
RTVSPost2010Prop36
280
     0
102
RTVSPost2010PropOp36
 70
     1
102
RTVSPost2010Prop37
 90
       50
102
RTVSPost2010PropOp37
 70
     1
102
RTVSPost2010Prop38
140
0.0
102
RTVSPost2010PropOp38
 70
     1
102
RTVSPost2010Prop39
140
1.0
102
RTVSPost2010PropOp39
 70
     1
102
RTVSPost2010Prop40
 90
        0
102
RTVSPost2010PropOp40
 70
     1
102
RTVSPost2010Prop41ColorIndex
 90
       18
102
RTVSPost2010Prop41ColorRGB
 90
        0
102
RTVSPost2010PropOp41
 70
     1
102
RTVSPost2010Prop42
 90
       50
102
RTVSPost2010PropOp42
 70
     1
102
RTVSPost2010Prop43
 90
        3
102
RTVSPost2010PropOp43
 70
     1
102
RTVSPost2010Prop44ColorIndex
 90
        5
102
RTVSPost2010Prop44ColorRGB
 90
      255
102
RTVSPost2010PropOp44
 70
     1
102
RTVSPost2010Prop45
280
     0
102
RTVSPost2010PropOp45
 70
     1
102
RTVSPost2010Prop46
 90
       50
102
RTVSPost2010PropOp46
 70
     1
102
RTVSPost2010Prop47
 90
       50
102
RTVSPost2010PropOp47
 70
     1
102
RTVSPost2010Prop48
 90
       50
102
RTVSPost2010PropOp48
 70
     1
102
RTVSPost2010Prop49
280
     0
102
RTVSPost2010PropOp49
 70
     1
102
RTVSPost2010Prop50
 90
       50
102
RTVSPost2010PropOp50
 70
     1
102
RTVSPost2010Prop51ColorIndex
 90
      256
102
RTVSPost2010Prop51ColorRGB
 90
-16777216
102
RTVSPost2010PropOp51
 70
     0
102
RTVSPost2010Prop52
140
1.0
102
RTVSPost2010PropOp52
 70
     0
102
RTVSPost2010Prop53
 90
        2
102
RTVSPost2010PropOp53
 70
     1
102
RTVSPost2010Prop54
  1
strokes_ogs.tif
102
RTVSPost2010PropOp54
 70
     1
102
RTVSPost2010Prop55
280
     0
102
RTVSPost2010PropOp55
 70
     1
102
RTVSPost2010Prop56
140
1.0
102
RTVSPost2010PropOp56
 70
     1
102
RTVSPost2010Prop57
140
1.0
102
RTVSPost2010PropOp57
 70
     1
  0
XRECORD
  5
311
102
{ACAD_REACTORS
330
310
102
}
330
310
100
AcDbXrecord
280
     1
102
RTVSPost2010Prop28
280
     0
102
RTVSPost2010PropOp28
 70
     1
102
RTVSPost2010Prop29
280
     1
102
RTVSPost2010PropOp29
 70
     1
102
RTVSPost2010Prop30
280
     1
102
RTVSPost2010PropOp30
 70
     1
102
RTVSPost2010Prop31
280
     0
102
RTVSPost2010PropOp31
 70
     1
102
RTVSPost2010Prop32
280
     0
102
RTVSPost2010PropOp32
 70
     1
102
RTVSPost2010Prop33
280
     0
102
RTVSPost2010PropOp33
 70
     1
102
RTVSPost2010Prop34
280
     0
102
RTVSPost2010PropOp34
 70
     1
102
RTVSPost2010Prop35
280
     0
102
RTVSPost2010PropOp35
 70
     1
102
RTVSPost2010Prop36
280
     0
102
RTVSPost2010PropOp36
 70
     1
102
RTVSPost2010Prop37
 90
       50
102
RTVSPost2010PropOp37
 70
     1
102
RTVSPost2010Prop38
140
0.0
102
RTVSPost2010PropOp38
 70
     1
102
RTVSPost2010Prop39
140
1.0
102
RTVSPost2010PropOp39
 70
     1
102
RTVSPost2010Prop40
 90
        0
102
RTVSPost2010PropOp40
 70
     1
102
RTVSPost2010Prop41ColorIndex
 90
       18
102
RTVSPost2010Prop41ColorRGB
 90
        0
102
RTVSPost2010PropOp41
 70
     1
102
RTVSPost2010Prop42
 90
       50
102
RTVSPost2010PropOp42
 70
     1
102
RTVSPost2010Prop43
 90
        3
102
RTVSPost2010PropOp43
 70
     1
102
RTVSPost2010Prop44ColorIndex
 90
        5
102
RTVSPost2010Prop44ColorRGB
 90
      255
102
RTVSPost2010PropOp44
 70
     1
102
RTVSPost2010Prop45
280
     0
102
RTVSPost2010PropOp45
 70
     1
102
RTVSPost2010Prop46
 90
       50
102
RTVSPost2010PropOp46
 70
     1
102
RTVSPost2010Prop47
 90
       50
102
RTVSPost2010PropOp47
 70
     1
102
RTVSPost2010Prop48
 90
       50
102
RTVSPost2010PropOp48
 70
     1
102
RTVSPost2010Prop49
280
     0
102
RTVSPost2010PropOp49
 70
     1
102
RTVSPost2010Prop50
 90
       50
102
RTVSPost2010PropOp50
 70
     1
102
RTVSPost2010Prop51ColorIndex
 90
      256
102
RTVSPost2010Prop51ColorRGB
 90
-16777216
102
RTVSPost2010PropOp51
 70
     0
102
RTVSPost2010Prop52
140
1.0
102
RTVSPost2010PropOp52
 70
     0
102
RTVSPost2010Prop53
 90
        2
102
RTVSPost2010PropOp53
 70
     1
102
RTVSPost2010Prop54
  1
strokes_ogs.tif
102
RTVSPost2010PropOp54
 70
     1
102
RTVSPost2010Prop55
280
     0
102
RTVSPost2010PropOp55
 70
     1
102
RTVSPost2010Prop56
140
1.0
102
RTVSPost2010PropOp56
 70
     1
102
RTVSPost2010Prop57
140
1.0
102
RTVSPost2010PropOp57
 70
     1
  0
XRECORD
  5
30B
102
{ACAD_REACTORS
330
30A
102
}
330
30A
100
AcDbXrecord
280
     1
102
RTVSPost2010Prop28
280
     0
102
RTVSPost2010PropOp28
 70
     1
102
RTVSPost2010Prop29
280
     1
102
RTVSPost2010PropOp29
 70
     1
102
RTVSPost2010Prop30
280
     1
102
RTVSPost2010PropOp30
 70
     1
102
RTVSPost2010Prop31
280
     0
102
RTVSPost2010PropOp31
 70
     1
102
RTVSPost2010Prop32
280
     0
102
RTVSPost2010PropOp32
 70
     1
102
RTVSPost2010Prop33
280
     0
102
RTVSPost2010PropOp33
 70
     1
102
RTVSPost2010Prop34
280
     0
102
RTVSPost2010PropOp34
 70
     1
102
RTVSPost2010Prop35
280
     0
102
RTVSPost2010PropOp35
 70
     1
102
RTVSPost2010Prop36
280
     0
102
RTVSPost2010PropOp36
 70
     1
102
RTVSPost2010Prop37
 90
       50
102
RTVSPost2010PropOp37
 70
     1
102
RTVSPost2010Prop38
140
0.0
102
RTVSPost2010PropOp38
 70
     1
102
RTVSPost2010Prop39
140
1.0
102
RTVSPost2010PropOp39
 70
     1
102
RTVSPost2010Prop40
 90
        0
102
RTVSPost2010PropOp40
 70
     1
102
RTVSPost2010Prop41ColorIndex
 90
       18
102
RTVSPost2010Prop41ColorRGB
 90
        0
102
RTVSPost2010PropOp41
 70
     1
102
RTVSPost2010Prop42
 90
       50
102
RTVSPost2010PropOp42
 70
     1
102
RTVSPost2010Prop43
 90
        3
102
RTVSPost2010PropOp43
 70
     1
102
RTVSPost2010Prop44ColorIndex
 90
        5
102
RTVSPost2010Prop44ColorRGB
 90
      255
102
RTVSPost2010PropOp44
 70
     1
102
RTVSPost2010Prop45
280
     0
102
RTVSPost2010PropOp45
 70
     1
102
RTVSPost2010Prop46
 90
       50
102
RTVSPost2010PropOp46
 70
     1
102
RTVSPost2010Prop47
 90
       50
102
RTVSPost2010PropOp47
 70
     1
102
RTVSPost2010Prop48
 90
       50
102
RTVSPost2010PropOp48
 70
     1
102
RTVSPost2010Prop49
280
     0
102
RTVSPost2010PropOp49
 70
     1
102
RTVSPost2010Prop50
 90
       50
102
RTVSPost2010PropOp50
 70
     1
102
RTVSPost2010Prop51ColorIndex
 90
      256
102
RTVSPost2010Prop51ColorRGB
 90
-16777216
102
RTVSPost2010PropOp51
 70
     0
102
RTVSPost2010Prop52
140
1.0
102
RTVSPost2010PropOp52
 70
     0
102
RTVSPost2010Prop53
 90
        2
102
RTVSPost2010PropOp53
 70
     1
102
RTVSPost2010Prop54
  1
strokes_ogs.tif
102
RTVSPost2010PropOp54
 70
     1
102
RTVSPost2010Prop55
280
     0
102
RTVSPost2010PropOp55
 70
     1
102
RTVSPost2010Prop56
140
1.0
102
RTVSPost2010PropOp56
 70
     1
102
RTVSPost2010Prop57
140
1.0
102
RTVSPost2010PropOp57
 70
     1
  0
XRECORD
  5
30D
102
{ACAD_REACTORS
330
30C
102
}
330
30C
100
AcDbXrecord
280
     1
102
RTVSPost2010Prop28
280
     0
102
RTVSPost2010PropOp28
 70
     1
102
RTVSPost2010Prop29
280
     1
102
RTVSPost2010PropOp29
 70
     1
102
RTVSPost2010Prop30
280
     1
102
RTVSPost2010PropOp30
 70
     1
102
RTVSPost2010Prop31
280
     0
102
RTVSPost2010PropOp31
 70
     1
102
RTVSPost2010Prop32
280
     0
102
RTVSPost2010PropOp32
 70
     1
102
RTVSPost2010Prop33
280
     0
102
RTVSPost2010PropOp33
 70
     1
102
RTVSPost2010Prop34
280
     0
102
RTVSPost2010PropOp34
 70
     1
102
RTVSPost2010Prop35
280
     0
102
RTVSPost2010PropOp35
 70
     1
102
RTVSPost2010Prop36
280
     0
102
RTVSPost2010PropOp36
 70
     1
102
RTVSPost2010Prop37
 90
       50
102
RTVSPost2010PropOp37
 70
     1
102
RTVSPost2010Prop38
140
0.0
102
RTVSPost2010PropOp38
 70
     1
102
RTVSPost2010Prop39
140
1.0
102
RTVSPost2010PropOp39
 70
     1
102
RTVSPost2010Prop40
 90
        0
102
RTVSPost2010PropOp40
 70
     1
102
RTVSPost2010Prop41ColorIndex
 90
       18
102
RTVSPost2010Prop41ColorRGB
 90
        0
102
RTVSPost2010PropOp41
 70
     1
102
RTVSPost2010Prop42
 90
       50
102
RTVSPost2010PropOp42
 70
     1
102
RTVSPost2010Prop43
 90
        3
102
RTVSPost2010PropOp43
 70
     1
102
RTVSPost2010Prop44ColorIndex
 90
        5
102
RTVSPost2010Prop44ColorRGB
 90
      255
102
RTVSPost2010PropOp44
 70
     1
102
RTVSPost2010Prop45
280
     0
102
RTVSPost2010PropOp45
 70
     1
102
RTVSPost2010Prop46
 90
       50
102
RTVSPost2010PropOp46
 70
     1
102
RTVSPost2010Prop47
 90
       50
102
RTVSPost2010PropOp47
 70
     1
102
RTVSPost2010Prop48
 90
       50
102
RTVSPost2010PropOp48
 70
     1
102
RTVSPost2010Prop49
280
     0
102
RTVSPost2010PropOp49
 70
     1
102
RTVSPost2010Prop50
 90
       50
102
RTVSPost2010PropOp50
 70
     1
102
RTVSPost2010Prop51ColorIndex
 90
      256
102
RTVSPost2010Prop51ColorRGB
 90
-16777216
102
RTVSPost2010PropOp51
 70
     0
102
RTVSPost2010Prop52
140
1.0
102
RTVSPost2010PropOp52
 70
     0
102
RTVSPost2010Prop53
 90
        2
102
RTVSPost2010PropOp53
 70
     1
102
RTVSPost2010Prop54
  1
strokes_ogs.tif
102
RTVSPost2010PropOp54
 70
     1
102
RTVSPost2010Prop55
280
     0
102
RTVSPost2010PropOp55
 70
     1
102
RTVSPost2010Prop56
140
1.0
102
RTVSPost2010PropOp56
 70
     1
102
RTVSPost2010Prop57
140
1.0
102
RTVSPost2010PropOp57
 70
     1
  0
XRECORD
  5
2FD
102
{ACAD_REACTORS
330
2FC
102
}
330
2FC
100
AcDbXrecord
280
     1
102
RTVSPost2010Prop28
280
     0
102
RTVSPost2010PropOp28
 70
     1
102
RTVSPost2010Prop29
280
     1
102
RTVSPost2010PropOp29
 70
     1
102
RTVSPost2010Prop30
280
     1
102
RTVSPost2010PropOp30
 70
     1
102
RTVSPost2010Prop31
280
     0
102
RTVSPost2010PropOp31
 70
     1
102
RTVSPost2010Prop32
280
     0
102
RTVSPost2010PropOp32
 70
     1
102
RTVSPost2010Prop33
280
     0
102
RTVSPost2010PropOp33
 70
     1
102
RTVSPost2010Prop34
280
     0
102
RTVSPost2010PropOp34
 70
     1
102
RTVSPost2010Prop35
280
     0
102
RTVSPost2010PropOp35
 70
     1
102
RTVSPost2010Prop36
280
     0
102
RTVSPost2010PropOp36
 70
     1
102
RTVSPost2010Prop37
 90
       50
102
RTVSPost2010PropOp37
 70
     1
102
RTVSPost2010Prop38
140
0.0
102
RTVSPost2010PropOp38
 70
     1
102
RTVSPost2010Prop39
140
1.0
102
RTVSPost2010PropOp39
 70
     1
102
RTVSPost2010Prop40
 90
        0
102
RTVSPost2010PropOp40
 70
     1
102
RTVSPost2010Prop41ColorIndex
 90
       18
102
RTVSPost2010Prop41ColorRGB
 90
        0
102
RTVSPost2010PropOp41
 70
     1
102
RTVSPost2010Prop42
 90
       50
102
RTVSPost2010PropOp42
 70
     1
102
RTVSPost2010Prop43
 90
        3
102
RTVSPost2010PropOp43
 70
     1
102
RTVSPost2010Prop44ColorIndex
 90
        5
102
RTVSPost2010Prop44ColorRGB
 90
      255
102
RTVSPost2010PropOp44
 70
     1
102
RTVSPost2010Prop45
280
     0
102
RTVSPost2010PropOp45
 70
     1
102
RTVSPost2010Prop46
 90
       50
102
RTVSPost2010PropOp46
 70
     1
102
RTVSPost2010Prop47
 90
       50
102
RTVSPost2010PropOp47
 70
     1
102
RTVSPost2010Prop48
 90
       50
102
RTVSPost2010PropOp48
 70
     1
102
RTVSPost2010Prop49
280
     0
102
RTVSPost2010PropOp49
 70
     1
102
RTVSPost2010Prop50
 90
       50
102
RTVSPost2010PropOp50
 70
     1
102
RTVSPost2010Prop51ColorIndex
 90
      256
102
RTVSPost2010Prop51ColorRGB
 90
-16777216
102
RTVSPost2010PropOp51
 70
     0
102
RTVSPost2010Prop52
140
1.0
102
RTVSPost2010PropOp52
 70
     0
102
RTVSPost2010Prop53
 90
        2
102
RTVSPost2010PropOp53
 70
     1
102
RTVSPost2010Prop54
  1
strokes_ogs.tif
102
RTVSPost2010PropOp54
 70
     1
102
RTVSPost2010Prop55
280
     0
102
RTVSPost2010PropOp55
 70
     1
102
RTVSPost2010Prop56
140
1.0
102
RTVSPost2010PropOp56
 70
     1
102
RTVSPost2010Prop57
140
1.0
102
RTVSPost2010PropOp57
 70
     1
  0
XRECORD
  5
2EF
102
{ACAD_REACTORS
330
2EE
102
}
330
2EE
100
AcDbXrecord
280
     1
102
RTVSPost2010Prop28
280
     0
102
RTVSPost2010PropOp28
 70
     1
102
RTVSPost2010Prop29
280
     1
102
RTVSPost2010PropOp29
 70
     1
102
RTVSPost2010Prop30
280
     1
102
RTVSPost2010PropOp30
 70
     1
102
RTVSPost2010Prop31
280
     0
102
RTVSPost2010PropOp31
 70
     1
102
RTVSPost2010Prop32
280
     0
102
RTVSPost2010PropOp32
 70
     1
102
RTVSPost2010Prop33
280
     0
102
RTVSPost2010PropOp33
 70
     1
102
RTVSPost2010Prop34
280
     0
102
RTVSPost2010PropOp34
 70
     1
102
RTVSPost2010Prop35
280
     0
102
RTVSPost2010PropOp35
 70
     1
102
RTVSPost2010Prop36
280
     0
102
RTVSPost2010PropOp36
 70
     1
102
RTVSPost2010Prop37
 90
       50
102
RTVSPost2010PropOp37
 70
     1
102
RTVSPost2010Prop38
140
0.0
102
RTVSPost2010PropOp38
 70
     1
102
RTVSPost2010Prop39
140
1.0
102
RTVSPost2010PropOp39
 70
     1
102
RTVSPost2010Prop40
 90
        0
102
RTVSPost2010PropOp40
 70
     1
102
RTVSPost2010Prop41ColorIndex
 90
       18
102
RTVSPost2010Prop41ColorRGB
 90
        0
102
RTVSPost2010PropOp41
 70
     1
102
RTVSPost2010Prop42
 90
       50
102
RTVSPost2010PropOp42
 70
     1
102
RTVSPost2010Prop43
 90
        3
102
RTVSPost2010PropOp43
 70
     1
102
RTVSPost2010Prop44ColorIndex
 90
        5
102
RTVSPost2010Prop44ColorRGB
 90
      255
102
RTVSPost2010PropOp44
 70
     1
102
RTVSPost2010Prop45
280
     0
102
RTVSPost2010PropOp45
 70
     1
102
RTVSPost2010Prop46
 90
       50
102
RTVSPost2010PropOp46
 70
     1
102
RTVSPost2010Prop47
 90
       50
102
RTVSPost2010PropOp47
 70
     1
102
RTVSPost2010Prop48
 90
       50
102
RTVSPost2010PropOp48
 70
     1
102
RTVSPost2010Prop49
280
     0
102
RTVSPost2010PropOp49
 70
     1
102
RTVSPost2010Prop50
 90
       50
102
RTVSPost2010PropOp50
 70
     1
102
RTVSPost2010Prop51ColorIndex
 90
      256
102
RTVSPost2010Prop51ColorRGB
 90
-16777216
102
RTVSPost2010PropOp51
 70
     0
102
RTVSPost2010Prop52
140
1.0
102
RTVSPost2010PropOp52
 70
     0
102
RTVSPost2010Prop53
 90
        2
102
RTVSPost2010PropOp53
 70
     1
102
RTVSPost2010Prop54
  1
strokes_ogs.tif
102
RTVSPost2010PropOp54
 70
     1
102
RTVSPost2010Prop55
280
     0
102
RTVSPost2010PropOp55
 70
     1
102
RTVSPost2010Prop56
140
1.0
102
RTVSPost2010PropOp56
 70
     1
102
RTVSPost2010Prop57
140
1.0
102
RTVSPost2010PropOp57
 70
     1
  0
XRECORD
  5
30F
102
{ACAD_REACTORS
330
30E
102
}
330
30E
100
AcDbXrecord
280
     1
102
RTVSPost2010Prop28
280
     0
102
RTVSPost2010PropOp28
 70
     1
102
RTVSPost2010Prop29
280
     1
102
RTVSPost2010PropOp29
 70
     1
102
RTVSPost2010Prop30
280
     1
102
RTVSPost2010PropOp30
 70
     1
102
RTVSPost2010Prop31
280
     0
102
RTVSPost2010PropOp31
 70
     1
102
RTVSPost2010Prop32
280
     0
102
RTVSPost2010PropOp32
 70
     1
102
RTVSPost2010Prop33
280
     0
102
RTVSPost2010PropOp33
 70
     1
102
RTVSPost2010Prop34
280
     0
102
RTVSPost2010PropOp34
 70
     1
102
RTVSPost2010Prop35
280
     0
102
RTVSPost2010PropOp35
 70
     1
102
RTVSPost2010Prop36
280
     0
102
RTVSPost2010PropOp36
 70
     1
102
RTVSPost2010Prop37
 90
       50
102
RTVSPost2010PropOp37
 70
     1
102
RTVSPost2010Prop38
140
0.0
102
RTVSPost2010PropOp38
 70
     1
102
RTVSPost2010Prop39
140
1.0
102
RTVSPost2010PropOp39
 70
     1
102
RTVSPost2010Prop40
 90
        0
102
RTVSPost2010PropOp40
 70
     1
102
RTVSPost2010Prop41ColorIndex
 90
       18
102
RTVSPost2010Prop41ColorRGB
 90
        0
102
RTVSPost2010PropOp41
 70
     1
102
RTVSPost2010Prop42
 90
       50
102
RTVSPost2010PropOp42
 70
     1
102
RTVSPost2010Prop43
 90
        3
102
RTVSPost2010PropOp43
 70
     1
102
RTVSPost2010Prop44ColorIndex
 90
        5
102
RTVSPost2010Prop44ColorRGB
 90
      255
102
RTVSPost2010PropOp44
 70
     1
102
RTVSPost2010Prop45
280
     0
102
RTVSPost2010PropOp45
 70
     1
102
RTVSPost2010Prop46
 90
       50
102
RTVSPost2010PropOp46
 70
     1
102
RTVSPost2010Prop47
 90
       50
102
RTVSPost2010PropOp47
 70
     1
102
RTVSPost2010Prop48
 90
       50
102
RTVSPost2010PropOp48
 70
     1
102
RTVSPost2010Prop49
280
     0
102
RTVSPost2010PropOp49
 70
     1
102
RTVSPost2010Prop50
 90
       50
102
RTVSPost2010PropOp50
 70
     1
102
RTVSPost2010Prop51ColorIndex
 90
      256
102
RTVSPost2010Prop51ColorRGB
 90
-16777216
102
RTVSPost2010PropOp51
 70
     0
102
RTVSPost2010Prop52
140
1.0
102
RTVSPost2010PropOp52
 70
     0
102
RTVSPost2010Prop53
 90
        2
102
RTVSPost2010PropOp53
 70
     1
102
RTVSPost2010Prop54
  1
strokes_ogs.tif
102
RTVSPost2010PropOp54
 70
     1
102
RTVSPost2010Prop55
280
     0
102
RTVSPost2010PropOp55
 70
     1
102
RTVSPost2010Prop56
140
1.0
102
RTVSPost2010PropOp56
 70
     1
102
RTVSPost2010Prop57
140
1.0
102
RTVSPost2010PropOp57
 70
     1
  0
ENDSEC
  0
EOF
