  0
SECTION
  2
HEADER
  9
$ACADVER
  1
AC1024
  9
$ACADMAINTVER
 70
     6
  9
$DWGCODEPAGE
  3
ANSI_1252
  9
$INSBASE
 10
0.0
 20
0.0
 30
0.0
  9
$EXTMIN
 10
-139.637476
 20
-97.86864329471652
 30
0.0
  9
$EXTMAX
 10
138.6374746984039
 20
97.86864329471665
 30
0.0
  9
$LIMMIN
 10
0.0
 20
0.0
  9
$LIMMAX
 10
420.0
 20
297.0
  9
$ORTHOMODE
 70
     0
  9
$REGENMODE
 70
     1
  9
$FILLMODE
 70
     1
  9
$QTEXTMODE
 70
     0
  9
$MIRRTEXT
 70
     1
  9
$LTSCALE
 40
1.0
  9
$ATTMODE
 70
     1
  9
$TEXTSIZE
 40
1.0
  9
$TRACEWID
 40
1.0
  9
$TEXTSTYLE
  7
Standard
  9
$CLAYER
  8
0
  9
$CELTYPE
  6
ByLayer
  9
$CECOLOR
 62
   256
  9
$CELTSCALE
 40
1.0
  9
$DISPSILH
 70
     0
  9
$DIMSCALE
 40
1.0
  9
$DIMASZ
 40
2.5
  9
$DIMEXO
 40
0.625
  9
$DIMDLI
 40
3.75
  9
$DIMRND
 40
0.0
  9
$DIMDLE
 40
0.0
  9
$DIMEXE
 40
1.25
  9
$DIMTP
 40
0.0
  9
$DIMTM
 40
0.0
  9
$DIMTXT
 40
2.5
  9
$DIMCEN
 40
2.5
  9
$DIMTSZ
 40
0.0
  9
$DIMTOL
 70
     0
  9
$DIMLIM
 70
     0
  9
$DIMTIH
 70
     0
  9
$DIMTOH
 70
     0
  9
$DIMSE1
 70
     0
  9
$DIMSE2
 70
     0
  9
$DIMTAD
 70
     1
  9
$DIMZIN
 70
     8
  9
$DIMBLK
  1

  9
$DIMASO
 70
     1
  9
$DIMSHO
 70
     1
  9
$DIMPOST
  1

  9
$DIMAPOST
  1

  9
$DIMALT
 70
     0
  9
$DIMALTD
 70
     3
  9
$DIMALTF
 40
0.03937007874016
  9
$DIMLFAC
 40
1.0
  9
$DIMTOFL
 70
     1
  9
$DIMTVP
 40
0.0
  9
$DIMTIX
 70
     0
  9
$DIMSOXD
 70
     0
  9
$DIMSAH
 70
     0
  9
$DIMBLK1
  1

  9
$DIMBLK2
  1

  9
$DIMSTYLE
  2
ISO-25
  9
$DIMCLRD
 70
     0
  9
$DIMCLRE
 70
     0
  9
$DIMCLRT
 70
     0
  9
$DIMTFAC
 40
1.0
  9
$DIMGAP
 40
0.625
  9
$DIMJUST
 70
     0
  9
$DIMSD1
 70
     0
  9
$DIMSD2
 70
     0
  9
$DIMTOLJ
 70
     0
  9
$DIMTZIN
 70
     8
  9
$DIMALTZ
 70
     0
  9
$DIMALTTZ
 70
     0
  9
$DIMUPT
 70
     0
  9
$DIMDEC
 70
     2
  9
$DIMTDEC
 70
     2
  9
$DIMALTU
 70
     2
  9
$DIMALTTD
 70
     3
  9
$DIMTXSTY
  7
Standard
  9
$DIMAUNIT
 70
     0
  9
$DIMADEC
 70
     0
  9
$DIMALTRND
 40
0.0
  9
$DIMAZIN
 70
     0
  9
$DIMDSEP
 70
    44
  9
$DIMATFIT
 70
     3
  9
$DIMFRAC
 70
     0
  9
$DIMLDRBLK
  1

  9
$DIMLUNIT
 70
     2
  9
$DIMLWD
 70
    -2
  9
$DIMLWE
 70
    -2
  9
$DIMTMOVE
 70
     0
  9
$DIMFXL
 40
1.0
  9
$DIMFXLON
 70
     0
  9
$DIMJOGANG
 40
0.7853981633974483
  9
$DIMTFILL
 70
     0
  9
$DIMTFILLCLR
 70
     0
  9
$DIMARCSYM
 70
     0
  9
$DIMLTYPE
  6

  9
$DIMLTEX1
  6

  9
$DIMLTEX2
  6

  9
$DIMTXTDIRECTION
 70
     0
  9
$LUNITS
 70
     2
  9
$LUPREC
 70
     4
  9
$SKETCHINC
 40
1.0
  9
$FILLETRAD
 40
10.0
  9
$AUNITS
 70
     0
  9
$AUPREC
 70
     0
  9
$MENU
  1
.
  9
$ELEVATION
 40
0.0
  9
$PELEVATION
 40
0.0
  9
$THICKNESS
 40
0.0
  9
$LIMCHECK
 70
     0
  9
$CHAMFERA
 40
0.0
  9
$CHAMFERB
 40
0.0
  9
$CHAMFERC
 40
0.0
  9
$CHAMFERD
 40
0.0
  9
$SKPOLY
 70
     0
  9
$TDCREATE
 40
2458004.454412998
  9
$TDUCREATE
 40
2458004.412746331
  9
$TDUPDATE
 40
2458004.454413634
  9
$TDUUPDATE
 40
2458004.412746968
  9
$TDINDWG
 40
0.0000000116
  9
$TDUSRTIMER
 40
0.0000000116
  9
$USRTIMER
 70
     1
  9
$ANGBASE
 50
0.0
  9
$ANGDIR
 70
     0
  9
$PDMODE
 70
     0
  9
$PDSIZE
 40
0.0
  9
$PLINEWID
 40
0.0
  9
$SPLFRAME
 70
     0
  9
$SPLINETYPE
 70
     6
  9
$SPLINESEGS
 70
     8
  9
$HANDSEED
  5
38C
  9
$SURFTAB1
 70
     6
  9
$SURFTAB2
 70
     6
  9
$SURFTYPE
 70
     6
  9
$SURFU
 70
     6
  9
$SURFV
 70
     6
  9
$UCSBASE
  2

  9
$UCSNAME
  2

  9
$UCSORG
 10
0.0
 20
0.0
 30
0.0
  9
$UCSXDIR
 10
1.0
 20
0.0
 30
0.0
  9
$UCSYDIR
 10
0.0
 20
1.0
 30
0.0
  9
$UCSORTHOREF
  2

  9
$UCSORTHOVIEW
 70
     0
  9
$UCSORGTOP
 10
0.0
 20
0.0
 30
0.0
  9
$UCSORGBOTTOM
 10
0.0
 20
0.0
 30
0.0
  9
$UCSORGLEFT
 10
0.0
 20
0.0
 30
0.0
  9
$UCSORGRIGHT
 10
0.0
 20
0.0
 30
0.0
  9
$UCSORGFRONT
 10
0.0
 20
0.0
 30
0.0
  9
$UCSORGBACK
 10
0.0
 20
0.0
 30
0.0
  9
$PUCSBASE
  2

  9
$PUCSNAME
  2

  9
$PUCSORG
 10
0.0
 20
0.0
 30
0.0
  9
$PUCSXDIR
 10
1.0
 20
0.0
 30
0.0
  9
$PUCSYDIR
 10
0.0
 20
1.0
 30
0.0
  9
$PUCSORTHOREF
  2

  9
$PUCSORTHOVIEW
 70
     0
  9
$PUCSORGTOP
 10
0.0
 20
0.0
 30
0.0
  9
$PUCSORGBOTTOM
 10
0.0
 20
0.0
 30
0.0
  9
$PUCSORGLEFT
 10
0.0
 20
0.0
 30
0.0
  9
$PUCSORGRIGHT
 10
0.0
 20
0.0
 30
0.0
  9
$PUCSORGFRONT
 10
0.0
 20
0.0
 30
0.0
  9
$PUCSORGBACK
 10
0.0
 20
0.0
 30
0.0
  9
$USERI1
 70
     0
  9
$USERI2
 70
     0
  9
$USERI3
 70
     0
  9
$USERI4
 70
     0
  9
$USERI5
 70
     0
  9
$USERR1
 40
0.0
  9
$USERR2
 40
0.0
  9
$USERR3
 40
0.0
  9
$USERR4
 40
0.0
  9
$USERR5
 40
0.0
  9
$WORLDVIEW
 70
     1
  9
$SHADEDGE
 70
     3
  9
$SHADEDIF
 70
    70
  9
$TILEMODE
 70
     1
  9
$MAXACTVP
 70
    64
  9
$PINSBASE
 10
0.0
 20
0.0
 30
0.0
  9
$PLIMCHECK
 70
     0
  9
$PEXTMIN
 10
1.000000000000000E+20
 20
1.000000000000000E+20
 30
1.000000000000000E+20
  9
$PEXTMAX
 10
-1.000000000000000E+20
 20
-1.000000000000000E+20
 30
-1.000000000000000E+20
  9
$PLIMMIN
 10
0.0
 20
0.0
  9
$PLIMMAX
 10
420.0
 20
297.0
  9
$UNITMODE
 70
     0
  9
$VISRETAIN
 70
     1
  9
$PLINEGEN
 70
     0
  9
$PSLTSCALE
 70
     1
  9
$TREEDEPTH
 70
  3020
  9
$CMLSTYLE
  2
Standard
  9
$CMLJUST
 70
     0
  9
$CMLSCALE
 40
20.0
  9
$PROXYGRAPHICS
 70
     1
  9
$MEASUREMENT
 70
     1
  9
$CELWEIGHT
370
    -1
  9
$ENDCAPS
280
     0
  9
$JOINSTYLE
280
     0
  9
$LWDISPLAY
290
     0
  9
$INSUNITS
 70
     4
  9
$HYPERLINKBASE
  1

  9
$STYLESHEET
  1

  9
$XEDIT
290
     1
  9
$CEPSNTYPE
380
     0
  9
$PSTYLEMODE
290
     1
  9
$FINGERPRINTGUID
  2
{9CBFFF7F-89F6-4053-921E-2A6707A833D0}
  9
$VERSIONGUID
  2
{FAEB1C32-E019-11D5-929B-00C0DF256EC4}
  9
$EXTNAMES
290
     1
  9
$PSVPSCALE
 40
0.0
  9
$OLESTARTUP
290
     0
  9
$SORTENTS
280
   127
  9
$INDEXCTL
280
     0
  9
$HIDETEXT
280
     1
  9
$XCLIPFRAME
280
     2
  9
$HALOGAP
280
     0
  9
$OBSCOLOR
 70
   257
  9
$OBSLTYPE
280
     0
  9
$INTERSECTIONDISPLAY
280
     0
  9
$INTERSECTIONCOLOR
 70
   257
  9
$DIMASSOC
280
     2
  9
$PROJECTNAME
  1

  9
$CAMERADISPLAY
290
     0
  9
$LENSLENGTH
 40
50.0
  9
$CAMERAHEIGHT
 40
0.0
  9
$STEPSPERSEC
 40
2.0
  9
$STEPSIZE
 40
6.0
  9
$3DDWFPREC
 40
2.0
  9
$PSOLWIDTH
 40
5.0
  9
$PSOLHEIGHT
 40
80.0
  9
$LOFTANG1
 40
1.570796326794897
  9
$LOFTANG2
 40
1.570796326794897
  9
$LOFTMAG1
 40
0.0
  9
$LOFTMAG2
 40
0.0
  9
$LOFTPARAM
 70
     7
  9
$LOFTNORMALS
280
     1
  9
$LATITUDE
 40
37.795
  9
$LONGITUDE
 40
-122.394
  9
$NORTHDIRECTION
 40
0.0
  9
$TIMEZONE
 70
 -8000
  9
$LIGHTGLYPHDISPLAY
280
     1
  9
$TILEMODELIGHTSYNCH
280
     1
  9
$CMATERIAL
347
44
  9
$SOLIDHIST
280
     1
  9
$SHOWHIST
280
     1
  9
$DWFFRAME
280
     2
  9
$DGNFRAME
280
     2
  9
$REALWORLDSCALE
290
     1
  9
$INTERFERECOLOR
 62
   256
  9
$CSHADOW
280
     0
  9
$SHADOWPLANELOCATION
 40
0.0
  0
ENDSEC
  0
SECTION
  2
CLASSES
  0
CLASS
  1
ACDBDICTIONARYWDFLT
  2
AcDbDictionaryWithDefault
  3
ObjectDBX Classes
 90
        0
 91
        4
280
     0
281
     0
  0
CLASS
  1
VISUALSTYLE
  2
AcDbVisualStyle
  3
ObjectDBX Classes
 90
     4095
 91
        4
280
     0
281
     0
  0
CLASS
  1
MATERIAL
  2
AcDbMaterial
  3
ObjectDBX Classes
 90
     1153
 91
        4
280
     0
281
     0
  0
CLASS
  1
SCALE
  2
AcDbScale
  3
ObjectDBX Classes
 90
     1153
 91
        4
280
     0
281
     0
  0
CLASS
  1
SUN
  2
AcDbSun
  3
SCENEOE
 90
     1153
 91
        4
280
     0
281
     0
  0
CLASS
  1
DICTIONARYVAR
  2
AcDbDictionaryVar
  3
ObjectDBX Classes
 90
        0
 91
        4
280
     0
281
     0
  0
ENDSEC
  0
SECTION
  2
TABLES
  0
TABLE
  2
VPORT
  5
8
330
0
100
AcDbSymbolTable
 70
     1
  0
VPORT
  5
29
330
8
100
AcDbSymbolTableRecord
100
AcDbViewportTableRecord
  2
*Active
 70
     0
 10
0.0
 20
0.0
 11
1.0
 21
1.0
 12
344.1869158878504
 22
148.5
 13
0.0
 23
0.0
 14
10.0
 24
10.0
 15
10.0
 25
10.0
 16
0.0
 26
0.0
 36
1.0
 17
0.0
 27
0.0
 37
0.0
 40
297.0
 41
1.972972972850329
 42
50.0
 43
0.0
 44
0.0
 50
0.0
 51
0.0
 71
     0
 72
   100
 73
     1
 74
     3
 75
     0
 76
     0
 77
     0
 78
     0
281
     0
 65
     1
110
0.0
120
0.0
130
0.0
111
1.0
121
0.0
131
0.0
112
0.0
122
1.0
132
0.0
 79
     0
146
0.0
 60
     3
 61
     5
292
     1
282
     1
141
0.0
142
0.0
 63
   250
361
69
  0
ENDTAB
  0
TABLE
  2
LTYPE
  5
5
330
0
100
AcDbSymbolTable
 70
     9
  0
LTYPE
  5
14
330
5
100
AcDbSymbolTableRecord
100
AcDbLinetypeTableRecord
  2
ByBlock
 70
     0
  3

 72
    65
 73
     0
 40
0.0
  0
LTYPE
  5
15
330
5
100
AcDbSymbolTableRecord
100
AcDbLinetypeTableRecord
  2
ByLayer
 70
     0
  3

 72
    65
 73
     0
 40
0.0
  0
LTYPE
  5
16
330
5
100
AcDbSymbolTableRecord
100
AcDbLinetypeTableRecord
  2
Continuous
 70
     0
  3
Solid line
 72
    65
 73
     0
 40
0.0
  0
LTYPE
  5
6A
330
5
100
AcDbSymbolTableRecord
100
AcDbLinetypeTableRecord
  2
DOT
 70
     0
  3
____    ____    
 72
    65
 73
     4
 40
16.0
 49
4.0
 74
     0
 49
-4.0
 74
     0
 49
4.0
 74
     0
 49
-4.0
 74
     0
  0
LTYPE
  5
6B
330
5
100
AcDbSymbolTableRecord
100
AcDbLinetypeTableRecord
  2
HIDDEN
 70
     0
  3
__  __  __  __  
 72
    65
 73
     8
 40
16.0
 49
2.0
 74
     0
 49
-2.0
 74
     0
 49
2.0
 74
     0
 49
-2.0
 74
     0
 49
2.0
 74
     0
 49
-2.0
 74
     0
 49
2.0
 74
     0
 49
-2.0
 74
     0
  0
LTYPE
  5
6C
330
5
100
AcDbSymbolTableRecord
100
AcDbLinetypeTableRecord
  2
DASHED
 70
     0
  3
________        
 72
    65
 73
     2
 40
16.0
 49
8.0
 74
     0
 49
-8.0
 74
     0
  0
LTYPE
  5
6D
330
5
100
AcDbSymbolTableRecord
100
AcDbLinetypeTableRecord
  2
DASHDOT
 70
     0
  3
____________    
 72
    65
 73
     2
 40
16.0
 49
12.0
 74
     0
 49
-4.0
 74
     0
  0
LTYPE
  5
6E
330
5
100
AcDbSymbolTableRecord
100
AcDbLinetypeTableRecord
  2
BORDER
 70
     0
  3
_____________ _ 
 72
    65
 73
     4
 40
16.0
 49
13.0
 74
     0
 49
-1.0
 74
     0
 49
1.0
 74
     0
 49
-1.0
 74
     0
  0
LTYPE
  5
6F
330
5
100
AcDbSymbolTableRecord
100
AcDbLinetypeTableRecord
  2
CENTER
 70
     0
  3
_________  ___  
 72
    65
 73
     4
 40
16.0
 49
9.0
 74
     0
 49
-2.0
 74
     0
 49
3.0
 74
     0
 49
-2.0
 74
     0
  0
LTYPE
  5
70
330
5
100
AcDbSymbolTableRecord
100
AcDbLinetypeTableRecord
  2
PHANTOM
 70
     0
  3
_______   ___   
 72
    65
 73
     4
 40
16.0
 49
7.0
 74
     0
 49
-3.0
 74
     0
 49
3.0
 74
     0
 49
-3.0
 74
     0
  0
LTYPE
  5
71
330
5
100
AcDbSymbolTableRecord
100
AcDbLinetypeTableRecord
  2
DIVIDE
 70
     0
  3
_______  __ __  
 72
    65
 73
     6
 40
16.0
 49
7.0
 74
     0
 49
-2.0
 74
     0
 49
2.0
 74
     0
 49
-1.0
 74
     0
 49
2.0
 74
     0
 49
-2.0
 74
     0
  0
ENDTAB
  0
TABLE
  2
LAYER
  5
2
330
0
100
AcDbSymbolTable
 70
     3
  0
LAYER
  5
10
330
2
100
AcDbSymbolTableRecord
100
AcDbLayerTableRecord
  2
0
 70
     0
 62
     7
  6
Continuous
370
    -3
390
F
347
46
  0
LAYER
  5
73
330
2
100
AcDbSymbolTableRecord
100
AcDbLayerTableRecord
  2
1
 70
     0
 62
     7
420
 16777215
  6
Continuous
370
    -3
390
F
347
46
  0
LAYER
  5
343
330
2
100
AcDbSymbolTableRecord
100
AcDbLayerTableRecord
  2
GEN_LAYER
 70
     0
 62
     7
420
 16777215
  6
Continuous
370
    -3
390
F
347
46
  0
ENDTAB
  0
TABLE
  2
STYLE
  5
3
330
0
100
AcDbSymbolTable
 70
     2
  0
STYLE
  5
11
330
3
100
AcDbSymbolTableRecord
100
AcDbTextStyleTableRecord
  2
Standard
 70
     0
 40
0.0
 41
1.0
 50
0.0
 71
     0
 42
1.0
  3
txt
  4

  0
STYLE
  5
72
330
3
100
AcDbSymbolTableRecord
100
AcDbTextStyleTableRecord
  2
ARIAL
 70
     0
 40
0.2
 41
1.0
 50
0.0
 71
     0
 42
1.0
  3
ARIAL.TTF
  4

  0
ENDTAB
  0
TABLE
  2
VIEW
  5
6
330
0
100
AcDbSymbolTable
 70
     0
  0
ENDTAB
  0
TABLE
  2
UCS
  5
7
330
0
100
AcDbSymbolTable
 70
     0
  0
ENDTAB
  0
TABLE
  2
APPID
  5
9
330
0
100
AcDbSymbolTable
 70
     1
  0
APPID
  5
12
330
9
100
AcDbSymbolTableRecord
100
AcDbRegAppTableRecord
  2
ACAD
 70
     0
  0
ENDTAB
  0
TABLE
  2
DIMSTYLE
  5
A
330
0
100
AcDbSymbolTable
 70
     1
100
AcDbDimStyleTable
  0
DIMSTYLE
105
27
330
A
100
AcDbSymbolTableRecord
100
AcDbDimStyleTableRecord
  2
ISO-25
 70
     0
 41
2.5
 42
0.625
 43
3.75
 44
1.25
 73
     0
 74
     0
 77
     1
 78
     8
140
2.5
141
2.5
143
0.03937007874016
147
0.625
171
     3
172
     1
178
     0
271
     2
272
     2
274
     3
278
    44
283
     0
284
     8
340
11
  0
ENDTAB
  0
TABLE
  2
BLOCK_RECORD
  5
1
330
0
100
AcDbSymbolTable
 70
    13
  0
BLOCK_RECORD
  5
1F
330
1
100
AcDbSymbolTableRecord
100
AcDbBlockTableRecord
  2
*Model_Space
340
22
 70
     0
280
     1
281
     0
  0
BLOCK_RECORD
  5
1B
330
1
100
AcDbSymbolTableRecord
100
AcDbBlockTableRecord
  2
*Paper_Space
340
1E
 70
     0
280
     1
281
     0
  0
BLOCK_RECORD
  5
23
330
1
100
AcDbSymbolTableRecord
100
AcDbBlockTableRecord
  2
*Paper_Space0
340
26
 70
     0
280
     1
281
     0
  0
BLOCK_RECORD
  5
74
330
1
100
AcDbSymbolTableRecord
100
AcDbBlockTableRecord
  2
GEN_BLOCK
340
0
102
{BLKREFS
331
77
102
}
 70
     0
280
     1
281
     0
  0
BLOCK_RECORD
  5
7D
330
1
100
AcDbSymbolTableRecord
100
AcDbBlockTableRecord
  2
GEN_BLOCK00000
340
0
102
{BLKREFS
331
80
102
}
 70
     0
280
     1
281
     0
  0
BLOCK_RECORD
  5
81
330
1
100
AcDbSymbolTableRecord
100
AcDbBlockTableRecord
  2
GEN_BLOCK00001
340
0
102
{BLKREFS
331
84
102
}
 70
     0
280
     1
281
     0
  0
BLOCK_RECORD
  5
260
330
1
100
AcDbSymbolTableRecord
100
AcDbBlockTableRecord
  2
GEN_BLOCK00002
340
0
102
{BLKREFS
331
263
102
}
 70
     0
280
     1
281
     0
  0
BLOCK_RECORD
  5
276
330
1
100
AcDbSymbolTableRecord
100
AcDbBlockTableRecord
  2
GEN_BLOCK00003
340
0
102
{BLKREFS
331
279
102
}
 70
     0
280
     1
281
     0
  0
BLOCK_RECORD
  5
2BD
330
1
100
AcDbSymbolTableRecord
100
AcDbBlockTableRecord
  2
_RASTER_[X__IMAGES_LOGO_JPG]
340
0
102
{BLKREFS
331
2C1
102
}
 70
     0
280
     1
281
     0
  0
BLOCK_RECORD
  5
2C4
330
1
100
AcDbSymbolTableRecord
100
AcDbBlockTableRecord
  2
PROTO
340
0
102
{BLKREFS
331
2C8
102
}
 70
     0
280
     1
281
     0
  0
BLOCK_RECORD
  5
2F3
330
1
100
AcDbSymbolTableRecord
100
AcDbBlockTableRecord
  2
GEN_BLOCK00004
340
0
102
{BLKREFS
331
2F6
102
}
 70
     0
280
     1
281
     0
  0
BLOCK_RECORD
  5
32A
330
1
100
AcDbSymbolTableRecord
100
AcDbBlockTableRecord
  2
GEN_BLOCK00005
340
0
102
{BLKREFS
331
32D
102
}
 70
     0
280
     1
281
     0
  0
BLOCK_RECORD
  5
33A
330
1
100
AcDbSymbolTableRecord
100
AcDbBlockTableRecord
  2
GEN_BLOCK00006
340
0
102
{BLKREFS
331
33D
102
}
 70
     0
280
     1
281
     0
  0
BLOCK_RECORD
  5
344
330
1
100
AcDbSymbolTableRecord
100
AcDbBlockTableRecord
  2
GEN_BLOCK00007
340
0
102
{BLKREFS
331
347
102
}
 70
     0
280
     1
281
     0
  0
BLOCK_RECORD
  5
352
330
1
100
AcDbSymbolTableRecord
100
AcDbBlockTableRecord
  2
GEN_BLOCK00008
340
0
102
{BLKREFS
331
355
102
}
 70
     0
280
     1
281
     0
  0
ENDTAB
  0
ENDSEC
  0
SECTION
  2
BLOCKS
  0
BLOCK
  5
20
330
1F
100
AcDbEntity
  8
0
100
AcDbBlockBegin
  2
*Model_Space
 70
     0
 10
0.0
 20
0.0
 30
0.0
  3
*Model_Space
  1
*Model_Space
  0
ENDBLK
  5
21
330
1F
100
AcDbEntity
  8
0
100
AcDbBlockEnd
  0
BLOCK
  5
1C
330
1B
100
AcDbEntity
 67
     1
  8
0
100
AcDbBlockBegin
  2
*Paper_Space
 70
     0
 10
0.0
 20
0.0
 30
0.0
  3
*Paper_Space
  1
*Paper_Space
  0
ENDBLK
  5
1D
330
1B
100
AcDbEntity
 67
     1
  8
0
100
AcDbBlockEnd
  0
BLOCK
  5
24
330
23
100
AcDbEntity
  8
0
100
AcDbBlockBegin
  2
*Paper_Space0
 70
     0
 10
0.0
 20
0.0
 30
0.0
  3
*Paper_Space0
  1
*Paper_Space0
  0
ENDBLK
  5
25
330
23
100
AcDbEntity
  8
0
100
AcDbBlockEnd
  0
BLOCK
  5
75
330
74
100
AcDbEntity
  8
0
100
AcDbBlockBegin
  2
GEN_BLOCK
 70
     0
 10
0.0
 20
0.0
 30
0.0
  3
GEN_BLOCK
  1
GEN_BLOCK
  0
TEXT
  5
78
330
74
100
AcDbEntity
  8
1
  6
Continuous
 62
     4
100
AcDbText
 10
1.386665344238281
 20
13.34906959533691
 30
0.0
 40
2.5
  1
MDS 150 CILL
100
AcDbText
  0
TEXT
  5
79
330
74
100
AcDbEntity
  8
1
  6
Continuous
 62
     4
100
AcDbText
 10
1.386665344238281
 20
8.349069595336914
 30
0.0
 40
2.5
  1
SECTION
100
AcDbText
  0
LINE
  5
7A
330
74
100
AcDbEntity
  8
1
  6
Continuous
 62
     4
100
AcDbLine
 10
26.30684407542404
 20
11.40417487844432
 30
0.0
 11
41.96183052961553
 21
1.499999774772132
 31
0.0
  0
LINE
  5
7B
330
74
100
AcDbEntity
  8
1
  6
Continuous
 62
     4
100
AcDbLine
 10
39.82757530591223
 20
3.737734039624684
 30
0.0
 11
41.96183052961553
 21
1.499999774772132
 31
0.0
  0
LINE
  5
7C
330
74
100
AcDbEntity
  8
1
  6
Continuous
 62
     4
100
AcDbLine
 10
41.96183052961553
 20
1.499999774772132
 30
0.0
 11
39.02561273700553
 21
2.470115785546362
 31
0.0
  0
ENDBLK
  5
76
330
74
100
AcDbEntity
  8
0
100
AcDbBlockEnd
  0
BLOCK
  5
7E
330
7D
100
AcDbEntity
  8
0
100
AcDbBlockBegin
  2
GEN_BLOCK00000
 70
     0
 10
0.0
 20
0.0
 30
0.0
  3
GEN_BLOCK00000
  1
GEN_BLOCK00000
  0
ENDBLK
  5
7F
330
7D
100
AcDbEntity
  8
0
100
AcDbBlockEnd
  0
BLOCK
  5
82
330
81
100
AcDbEntity
  8
0
100
AcDbBlockBegin
  2
GEN_BLOCK00001
 70
     0
 10
0.0
 20
0.0
 30
0.0
  3
GEN_BLOCK00001
  1
GEN_BLOCK00001
  0
LINE
  5
85
330
81
100
AcDbEntity
  8
1
  6
Continuous
 62
     2
100
AcDbLine
 10
116.5060295116453
 20
2.529696475754676
 30
0.0
 11
116.6199099127703
 21
2.651818254606205
 31
0.0
  0
LINE
  5
86
330
81
100
AcDbEntity
  8
1
  6
Continuous
 62
     2
100
AcDbLine
 10
115.2666988358874
 20
2.666956223337799
 30
0.0
 11
116.5705545712136
 21
4.065170316287897
 31
0.0
  0
LINE
  5
87
330
81
100
AcDbEntity
  8
1
  6
Continuous
 62
     2
100
AcDbLine
 10
114.3386342988479
 20
3.138008038572806
 30
0.0
 11
116.521199229657
 21
5.47852237796959
 31
0.0
  0
LINE
  5
88
330
81
100
AcDbEntity
  8
1
  6
Continuous
 62
     2
100
AcDbLine
 10
113.2849274767712
 20
3.474324998677822
 30
0.0
 11
116.3079012696102
 21
6.71606750534292
 31
0.0
  0
LINE
  5
89
330
81
100
AcDbEntity
  8
1
  6
Continuous
 62
     2
100
AcDbLine
 10
111.8715754150896
 20
3.424969657121153
 30
0.0
 11
114.0760977143395
 21
5.789030391388422
 31
0.0
  0
LINE
  5
8A
330
81
100
AcDbEntity
  8
1
  6
Continuous
 62
     2
100
AcDbLine
 10
110.9043562438114
 20
3.854033267746033
 30
0.0
 11
112.8333521497222
 21
5.92262811901049
 31
0.0
  0
LINE
  5
8B
330
81
100
AcDbEntity
  8
1
  6
Continuous
 62
     2
100
AcDbLine
 10
110.853646855929
 20
5.265933292516124
 30
0.0
 11
112.7826295165622
 21
7.334513939959329
 31
0.0
  0
LINE
  5
8C
330
81
100
AcDbEntity
  8
1
  6
Continuous
 62
     2
100
AcDbLine
 10
110.297608237372
 20
6.135934062049841
 30
0.0
 11
112.2265908980052
 21
8.204514709493033
 31
0.0
  0
LINE
  5
8D
330
81
100
AcDbEntity
  8
1
  6
Continuous
 62
     2
100
AcDbLine
 10
106.2181671683629
 20
3.227548290894461
 30
0.0
 11
107.3483282428209
 21
4.439497664431151
 31
0.0
  0
LINE
  5
8E
330
81
100
AcDbEntity
  8
1
  6
Continuous
 62
     2
100
AcDbLine
 10
108.8842561756903
 20
6.086578720493172
 30
0.0
 11
110.8132388363235
 21
8.155159367936363
 31
0.0
  0
LINE
  5
8F
330
81
100
AcDbEntity
  8
1
  6
Continuous
 62
     2
100
AcDbLine
 10
104.8048151066812
 20
3.178192949337785
 30
0.0
 11
107.2989729012643
 21
5.852849726112801
 31
0.0
  0
LINE
  5
90
330
81
100
AcDbEntity
  8
1
  6
Continuous
 62
     2
100
AcDbLine
 10
107.4709041140087
 20
6.037223378936496
 30
0.0
 11
109.3998867746419
 21
8.10580402637968
 31
0.0
  0
LINE
  5
91
330
81
100
AcDbEntity
  8
1
  6
Continuous
 62
     2
100
AcDbLine
 10
102.3725088948286
 20
2.036143060187946
 30
0.0
 11
107.9865347129602
 21
8.05644868482301
 31
0.0
  0
LINE
  5
92
330
81
100
AcDbEntity
  8
1
  6
Continuous
 62
     2
100
AcDbLine
 10
101.7767035764932
 20
2.86349926517839
 30
0.0
 11
104.1364097879417
 21
5.393974371186708
 31
0.0
  0
LINE
  5
93
330
81
100
AcDbEntity
  8
1
  6
Continuous
 62
     2
100
AcDbLine
 10
105.2712795575178
 20
6.610973202032994
 30
0.0
 11
106.5731826512785
 21
8.007093343266334
 31
0.0
  0
LINE
  5
94
330
81
100
AcDbEntity
  8
1
  6
Continuous
 62
     2
100
AcDbLine
 10
101.7273482349365
 20
4.276851326860069
 30
0.0
 11
103.2223151765045
 21
5.880007097518835
 31
0.0
  0
LINE
  5
95
330
81
100
AcDbEntity
  8
1
  6
Continuous
 62
     2
100
AcDbLine
 10
101.6779928933798
 20
5.690203388541754
 30
0.0
 11
102.1743806527934
 21
6.222514089776155
 31
0.0
  0
LINE
  5
96
330
81
100
AcDbEntity
  8
1
  6
Continuous
 62
     1
100
AcDbLine
 10
98.36731076561574
 20
7.740772791527121
 30
0.0
 11
103.3236148975397
 21
8.205922610708683
 31
0.0
  0
LINE
  5
97
330
81
100
AcDbEntity
  8
1
  6
Continuous
 62
     1
100
AcDbLine
 10
91.50741082909482
 20
4.407987107925294
 30
0.0
 11
93.7574917641738
 21
4.465255765065962
 31
0.0
  0
LINE
  5
98
330
81
100
AcDbEntity
  8
1
  6
Continuous
 62
     1
100
AcDbLine
 10
94.25732989401584
 20
4.477977555663585
 30
0.0
 11
95.18569997862724
 21
4.501606264856406
 31
0.0
  0
LINE
  5
99
330
81
100
AcDbEntity
  8
1
  6
Continuous
 62
     1
100
AcDbLine
 10
88.88078833805938
 20
3.478420891737585
 30
0.0
 11
87.09029739449343
 21
1.687929948171615
 31
0.0
  0
LINE
  5
9A
330
81
100
AcDbEntity
  8
1
  6
Continuous
 62
     1
100
AcDbLine
 10
87.93882553191727
 20
0.839401810747745
 30
0.0
 11
91.50741082909482
 21
4.407987107925294
 31
0.0
  0
ARC
  5
9B
330
81
100
AcDbEntity
  8
1
  6
Continuous
 62
     1
100
AcDbCircle
 10
87.51456146320535
 20
1.263665879459666
 30
0.0
 40
0.6000000000000003
100
AcDbArc
 50
135.0
 51
315.0
  0
ARC
  5
9C
330
81
100
AcDbEntity
  8
1
  6
Continuous
 62
     1
100
AcDbCircle
 10
87.51456146320535
 20
1.263665879459666
 30
0.0
 40
0.6000000000000003
100
AcDbArc
 50
135.0
 51
315.0
  0
LINE
  5
9D
330
81
100
AcDbEntity
  8
1
  6
Continuous
 62
     1
100
AcDbLine
 10
93.7574917641738
 20
4.465255765065962
 30
0.0
 11
94.001049933796
 21
4.721535725285804
 31
0.0
  0
LINE
  5
9E
330
81
100
AcDbEntity
  8
1
  6
Continuous
 62
     1
100
AcDbLine
 10
94.001049933796
 20
4.721535725285804
 30
0.0
 11
94.25732989401584
 21
4.477977555663585
 31
0.0
  0
ARC
  5
9F
330
81
100
AcDbEntity
  8
1
  6
Continuous
 62
     1
100
AcDbCircle
 10
87.51456146320535
 20
1.263665879459666
 30
0.0
 40
0.6000000000000003
100
AcDbArc
 50
135.0
 51
315.0
  0
ARC
  5
A0
330
81
100
AcDbEntity
  8
1
  6
Continuous
 62
     1
100
AcDbCircle
 10
87.51456146320535
 20
1.263665879459666
 30
0.0
 40
0.6000000000000003
100
AcDbArc
 50
135.0
 51
315.0
  0
ARC
  5
A1
330
81
100
AcDbEntity
  8
1
  6
Continuous
 62
     1
100
AcDbCircle
 10
88.5272349474661
 20
3.831974282330862
 30
0.0
 40
0.5
100
AcDbArc
 50
315.0000000000001
 51
91.45796715583056
  0
ARC
  5
A2
330
81
100
AcDbEntity
  8
1
  6
Continuous
 62
     1
100
AcDbCircle
 10
88.5272349474661
 20
3.831974282330862
 30
0.0
 40
0.5
100
AcDbArc
 50
315.0000000000001
 51
91.45796715583056
  0
ARC
  5
A3
330
81
100
AcDbEntity
  8
1
  6
Continuous
 62
     1
100
AcDbCircle
 10
104.4442240196235
 20
6.205975613791537
 30
0.0
 40
0.4
100
AcDbArc
 50
242.0000000000004
 51
22.00000000000077
  0
ARC
  5
A4
330
81
100
AcDbEntity
  8
1
  6
Continuous
 62
     1
100
AcDbCircle
 10
104.4442240196235
 20
6.205975613791537
 30
0.0
 40
0.4
100
AcDbArc
 50
242.0000000000004
 51
22.00000000000077
  0
LINE
  5
A5
330
81
100
AcDbEntity
  8
1
  6
Continuous
 62
     1
100
AcDbLine
 10
104.2564353945091
 20
5.852796576647961
 30
0.0
 11
103.026648043007
 21
6.506686110379661
 31
0.0
  0
LINE
  5
A6
330
81
100
AcDbEntity
  8
1
  6
Continuous
 62
     1
100
AcDbLine
 10
101.5425006715979
 20
6.204706156056204
 30
0.0
 11
101.6646489100567
 21
2.706838261489366
 31
0.0
  0
LINE
  5
A7
330
81
100
AcDbEntity
  8
1
  6
Continuous
 62
     1
100
AcDbLine
 10
103.026648043007
 20
6.506686110379661
 30
0.0
 11
101.783623504177
 21
6.463278736986609
 31
0.0
  0
ARC
  5
A8
330
81
100
AcDbEntity
  8
1
  6
Continuous
 62
     1
100
AcDbCircle
 10
101.7923483783526
 20
6.213431030231817
 30
0.0
 40
0.25
100
AcDbArc
 50
91.99999999999997
 51
181.9999999999995
  0
ARC
  5
A9
330
81
100
AcDbEntity
  8
1
  6
Continuous
 62
     1
100
AcDbCircle
 10
101.7923483783526
 20
6.213431030231817
 30
0.0
 40
0.25
100
AcDbArc
 50
91.99999999999997
 51
181.9999999999995
  0
LINE
  5
AA
330
81
100
AcDbEntity
  8
1
  6
Continuous
 62
     1
100
AcDbLine
 10
105.551790140679
 20
0.2777691567303862
 30
0.0
 11
105.488508675256
 21
2.089913228694542
 31
0.0
  0
LINE
  5
AB
330
81
100
AcDbEntity
  8
1
  6
Continuous
 62
     1
100
AcDbLine
 10
105.488508675256
 20
2.089913228694542
 30
0.0
 11
104.8333926969639
 21
2.817493232850353
 31
0.0
  0
LINE
  5
AC
330
81
100
AcDbEntity
  8
1
  6
Continuous
 62
     1
100
AcDbLine
 10
104.8333926969639
 20
2.817493232850353
 30
0.0
 11
104.426818397237
 21
2.052838187224211
 31
0.0
  0
LINE
  5
AD
330
81
100
AcDbEntity
  8
1
  6
Continuous
 62
     1
100
AcDbLine
 10
104.426818397237
 20
2.052838187224211
 30
0.0
 11
102.2904580287949
 21
1.978234839246539
 31
0.0
  0
LINE
  5
AE
330
81
100
AcDbEntity
  8
1
  6
Continuous
 62
     1
100
AcDbLine
 10
102.2904580287949
 20
1.978234839246539
 30
0.0
 11
102.1820382155344
 21
1.774326827079562
 31
0.0
  0
LINE
  5
AF
330
81
100
AcDbEntity
  8
1
  6
Continuous
 62
     1
100
AcDbLine
 10
102.1820382155344
 20
1.774326827079562
 30
0.0
 11
101.9476511386789
 21
1.766141849996842
 31
0.0
  0
ARC
  5
B0
330
81
100
AcDbEntity
  8
1
  6
Continuous
 62
     1
100
AcDbCircle
 10
101.9389262645032
 20
2.015989556751634
 30
0.0
 40
0.25
100
AcDbArc
 50
182.0000000000004
 51
272.0000000000004
  0
ARC
  5
B1
330
81
100
AcDbEntity
  8
1
  6
Continuous
 62
     1
100
AcDbCircle
 10
101.9389262645032
 20
2.015989556751634
 30
0.0
 40
0.25
100
AcDbArc
 50
182.0000000000004
 51
272.0000000000004
  0
LINE
  5
B2
330
81
100
AcDbEntity
  8
1
  6
Continuous
 62
     1
100
AcDbLine
 10
101.6890785577484
 20
2.007264682575993
 30
0.0
 11
101.6646489100567
 21
2.706838261489366
 31
0.0
  0
LINE
  5
B3
330
81
100
AcDbEntity
  8
1
  6
Continuous
 62
     1
100
AcDbLine
 10
105.3106673080998
 20
0.019196575799981
 30
0.0
 11
104.7610023532393
 21
0.0000018526136216
 31
0.0
  0
ARC
  5
B4
330
81
100
AcDbEntity
  8
1
  6
Continuous
 62
     1
100
AcDbCircle
 10
102.7994159145144
 20
-2.269839252708636
 30
0.0
 40
3.0
100
AcDbArc
 50
49.16657193393275
 51
92.0
  0
ARC
  5
B5
330
81
100
AcDbEntity
  8
1
  6
Continuous
 62
     1
100
AcDbCircle
 10
102.7994159145144
 20
-2.269839252708636
 30
0.0
 40
3.0
100
AcDbArc
 50
49.16657193393275
 51
92.0
  0
LINE
  5
B6
330
81
100
AcDbEntity
  8
1
  6
Continuous
 62
     1
100
AcDbLine
 10
102.694717424407
 20
0.7283332283486459
 30
0.0
 11
101.0353366959067
 21
0.670386376429633
 31
0.0
  0
ARC
  5
B7
330
81
100
AcDbEntity
  8
1
  6
Continuous
 62
     1
100
AcDbCircle
 10
105.3019424339241
 20
0.2690442825547734
 30
0.0
 40
0.25
100
AcDbArc
 50
271.9999999999995
 51
1.999999999999572
  0
ARC
  5
B8
330
81
100
AcDbEntity
  8
1
  6
Continuous
 62
     1
100
AcDbCircle
 10
105.3019424339241
 20
0.2690442825547734
 30
0.0
 40
0.25
100
AcDbArc
 50
271.9999999999995
 51
1.999999999999572
  0
ARC
  5
B9
330
81
100
AcDbEntity
  8
1
  6
Continuous
 62
     1
100
AcDbCircle
 10
101.0004371992042
 20
1.669777203448717
 30
0.0
 40
1.0
100
AcDbArc
 50
193.910067321913
 51
272.0
  0
ARC
  5
BA
330
81
100
AcDbEntity
  8
1
  6
Continuous
 62
     1
100
AcDbCircle
 10
101.0004371992042
 20
1.669777203448717
 30
0.0
 40
1.0
100
AcDbArc
 50
193.910067321913
 51
272.0
  0
LINE
  5
BB
330
81
100
AcDbEntity
  8
1
  6
Continuous
 62
     1
100
AcDbLine
 10
92.0010463721853
 20
12.63548687972704
 30
0.0
 11
93.9179789429003
 21
7.36875792707059
 31
0.0
  0
LINE
  5
BC
330
81
100
AcDbEntity
  8
1
  6
Continuous
 62
     1
100
AcDbLine
 10
94.47551117055909
 20
7.047516863728902
 30
0.0
 11
97.87505963061113
 21
7.653086874261305
 31
0.0
  0
ARC
  5
BD
330
81
100
AcDbEntity
  8
1
  6
Continuous
 62
     1
100
AcDbCircle
 10
98.1709926218569
 20
3.89677081376837
 30
0.0
 40
2.75
100
AcDbArc
 50
276.1299610874498
 51
302.5952258108916
  0
ARC
  5
BE
330
81
100
AcDbEntity
  8
1
  6
Continuous
 62
     1
100
AcDbCircle
 10
98.1709926218569
 20
3.89677081376837
 30
0.0
 40
2.75
100
AcDbArc
 50
276.1299610874498
 51
302.5952258108916
  0
ARC
  5
BF
330
81
100
AcDbEntity
  8
1
  6
Continuous
 62
     1
100
AcDbCircle
 10
98.411341893626
 20
1.658842120911913
 30
0.0
 40
0.5035797918405848
100
AcDbArc
 50
96.12996108744984
 51
276.1299610874498
  0
ARC
  5
C0
330
81
100
AcDbEntity
  8
1
  6
Continuous
 62
     1
100
AcDbCircle
 10
98.411341893626
 20
1.658842120911913
 30
0.0
 40
0.5035797918405848
100
AcDbArc
 50
96.12996108744984
 51
276.1299610874498
  0
ARC
  5
C1
330
81
100
AcDbEntity
  8
1
  6
Continuous
 62
     1
100
AcDbCircle
 10
98.1709926218569
 20
3.89677081376837
 30
0.0
 40
1.75
100
AcDbArc
 50
276.1299610874498
 51
173.9421865996551
  0
ARC
  5
C2
330
81
100
AcDbEntity
  8
1
  6
Continuous
 62
     1
100
AcDbCircle
 10
98.1709926218569
 20
3.89677081376837
 30
0.0
 40
1.75
100
AcDbArc
 50
276.1299610874498
 51
173.9421865996551
  0
ARC
  5
C3
330
81
100
AcDbEntity
  8
1
  6
Continuous
 62
     1
100
AcDbCircle
 10
95.93355416097918
 20
4.134217906986407
 30
0.0
 40
0.5000119881486164
100
AcDbArc
 50
173.9421865996551
 51
353.942186599655
  0
ARC
  5
C4
330
81
100
AcDbEntity
  8
1
  6
Continuous
 62
     1
100
AcDbCircle
 10
95.93355416097918
 20
4.134217906986407
 30
0.0
 40
0.5000119881486164
100
AcDbArc
 50
173.9421865996551
 51
353.942186599655
  0
ARC
  5
C5
330
81
100
AcDbEntity
  8
1
  6
Continuous
 62
     1
100
AcDbCircle
 10
99.7870943784223
 20
1.369278951778256
 30
0.0
 40
0.25
100
AcDbArc
 50
13.9100673219132
 51
122.5952258108916
  0
ARC
  5
C6
330
81
100
AcDbEntity
  8
1
  6
Continuous
 62
     1
100
AcDbCircle
 10
99.7870943784223
 20
1.369278951778256
 30
0.0
 40
0.25
100
AcDbArc
 50
13.9100673219132
 51
122.5952258108916
  0
LINE
  5
C7
330
81
100
AcDbEntity
  8
1
  6
Continuous
 62
     1
100
AcDbLine
 10
97.87505963061113
 20
7.653086874261305
 30
0.0
 11
98.16502815674636
 21
7.450804265391952
 31
0.0
  0
LINE
  5
C8
330
81
100
AcDbEntity
  8
1
  6
Continuous
 62
     1
100
AcDbLine
 10
98.16502815674636
 20
7.450804265391952
 30
0.0
 11
98.36731076561574
 21
7.740772791527121
 31
0.0
  0
LINE
  5
C9
330
81
100
AcDbEntity
  8
1
  6
Continuous
 62
     1
100
AcDbLine
 10
103.4955568185954
 20
8.116133838325283
 30
0.0
 11
104.4335867955785
 21
7.529987654536313
 31
0.0
  0
LINE
  5
CA
330
81
100
AcDbEntity
  8
1
  6
Continuous
 62
     1
100
AcDbLine
 10
104.4335867955785
 20
7.529987654536313
 30
0.0
 11
104.8150975614502
 21
6.355818251157899
 31
0.0
  0
LINE
  5
CB
330
81
100
AcDbEntity
  8
1
  6
Continuous
 62
     1
100
AcDbLine
 10
103.3236148975397
 20
8.205922610708683
 30
0.0
 11
103.4955568185954
 21
8.116133838325283
 31
0.0
  0
ARC
  5
CC
330
81
100
AcDbEntity
  8
1
  6
Continuous
 62
     1
100
AcDbCircle
 10
95.19206087392601
 20
4.25168719993539
 30
0.0
 40
0.25
100
AcDbArc
 50
353.2056839427042
 51
91.45796715583067
  0
ARC
  5
CD
330
81
100
AcDbEntity
  8
1
  6
Continuous
 62
     1
100
AcDbCircle
 10
95.19206087392601
 20
4.25168719993539
 30
0.0
 40
0.25
100
AcDbArc
 50
353.2056839427042
 51
91.45796715583067
  0
ARC
  5
CE
330
81
100
AcDbEntity
  8
1
  6
Continuous
 62
     1
100
AcDbCircle
 10
83.5010463721853
 20
13.63548687972704
 30
0.0
 40
1.0
100
AcDbArc
 50
223.8498765394345
 51
270.0
  0
ARC
  5
CF
330
81
100
AcDbEntity
  8
1
  6
Continuous
 62
     1
100
AcDbCircle
 10
83.5010463721853
 20
13.63548687972704
 30
0.0
 40
1.0
100
AcDbArc
 50
223.8498765394345
 51
270.0
  0
LINE
  5
D0
330
81
100
AcDbEntity
  8
1
  6
Continuous
 62
     1
100
AcDbLine
 10
77.75104637218533
 20
17.13548687974915
 30
0.0
 11
77.50104637218533
 21
17.13548687974915
 31
0.0
  0
ARC
  5
D1
330
81
100
AcDbEntity
  8
1
  6
Continuous
 62
     1
100
AcDbCircle
 10
77.50104637218533
 20
18.13548687974915
 30
0.0
 40
1.0
100
AcDbArc
 50
180.0
 51
270.0
  0
ARC
  5
D2
330
81
100
AcDbEntity
  8
1
  6
Continuous
 62
     1
100
AcDbCircle
 10
77.50104637218533
 20
18.13548687974915
 30
0.0
 40
1.0
100
AcDbArc
 50
180.0
 51
270.0
  0
ARC
  5
D3
330
81
100
AcDbEntity
  8
1
  6
Continuous
 62
     1
100
AcDbCircle
 10
77.50104637218533
 20
18.13548687974915
 30
0.0
 40
1.0
100
AcDbArc
 50
180.0
 51
270.0
  0
ARC
  5
D4
330
81
100
AcDbEntity
  8
1
  6
Continuous
 62
     1
100
AcDbCircle
 10
77.50104637218533
 20
18.13548687974915
 30
0.0
 40
1.0
100
AcDbArc
 50
180.0
 51
270.0
  0
ARC
  5
D5
330
81
100
AcDbEntity
  8
1
  6
Continuous
 62
     1
100
AcDbCircle
 10
80.7510463721853
 20
15.38548687974915
 30
0.0
 40
2.75
100
AcDbArc
 50
157.3801350519596
 51
173.9429256935988
  0
ARC
  5
D6
330
81
100
AcDbEntity
  8
1
  6
Continuous
 62
     1
100
AcDbCircle
 10
80.7510463721853
 20
15.38548687974915
 30
0.0
 40
2.75
100
AcDbArc
 50
157.3801350519596
 51
173.9429256935988
  0
ARC
  5
D7
330
81
100
AcDbEntity
  8
1
  6
Continuous
 62
     1
100
AcDbCircle
 10
78.51355580175468
 20
15.62291031525967
 30
0.0
 40
0.5002338857932375
100
AcDbArc
 50
173.9429256935988
 51
353.9429256935988
  0
ARC
  5
D8
330
81
100
AcDbEntity
  8
1
  6
Continuous
 62
     1
100
AcDbCircle
 10
78.51355580175468
 20
15.62291031525967
 30
0.0
 40
0.5002338857932375
100
AcDbArc
 50
173.9429256935988
 51
353.9429256935988
  0
ARC
  5
D9
330
81
100
AcDbEntity
  8
1
  6
Continuous
 62
     1
100
AcDbCircle
 10
80.7510463721853
 20
15.38548687974915
 30
0.0
 40
1.75
100
AcDbArc
 50
276.0499953108652
 51
173.9429256935988
  0
ARC
  5
DA
330
81
100
AcDbEntity
  8
1
  6
Continuous
 62
     1
100
AcDbCircle
 10
80.7510463721853
 20
15.38548687974915
 30
0.0
 40
1.75
100
AcDbArc
 50
276.0499953108652
 51
173.9429256935988
  0
ARC
  5
DB
330
81
100
AcDbEntity
  8
1
  6
Continuous
 62
     1
100
AcDbCircle
 10
80.98819648175217
 20
13.14793753752875
 30
0.0
 40
0.5003670985771858
100
AcDbArc
 50
96.04999531086538
 51
276.0499953108651
  0
ARC
  5
DC
330
81
100
AcDbEntity
  8
1
  6
Continuous
 62
     1
100
AcDbCircle
 10
80.98819648175217
 20
13.14793753752875
 30
0.0
 40
0.5003670985771858
100
AcDbArc
 50
96.04999531086538
 51
276.0499953108651
  0
ARC
  5
DD
330
81
100
AcDbEntity
  8
1
  6
Continuous
 62
     1
100
AcDbCircle
 10
80.7510463721853
 20
15.38548687974915
 30
0.0
 40
2.75
100
AcDbArc
 50
276.0499953108652
 51
300.8846901167669
  0
ARC
  5
DE
330
81
100
AcDbEntity
  8
1
  6
Continuous
 62
     1
100
AcDbCircle
 10
80.7510463721853
 20
15.38548687974915
 30
0.0
 40
2.75
100
AcDbArc
 50
276.0499953108652
 51
300.8846901167669
  0
ARC
  5
DF
330
81
100
AcDbEntity
  8
1
  6
Continuous
 62
     1
100
AcDbCircle
 10
82.41931021628685
 20
12.59633006335042
 30
0.0
 40
0.5
100
AcDbArc
 50
43.84987653943458
 51
120.884690116767
  0
ARC
  5
E0
330
81
100
AcDbEntity
  8
1
  6
Continuous
 62
     1
100
AcDbCircle
 10
82.41931021628685
 20
12.59633006335042
 30
0.0
 40
0.5
100
AcDbArc
 50
43.84987653943458
 51
120.884690116767
  0
ARC
  5
E1
330
81
100
AcDbEntity
  8
1
  6
Continuous
 62
     1
100
AcDbCircle
 10
77.75104637218533
 20
16.63548687974915
 30
0.0
 40
0.5
100
AcDbArc
 50
337.3801350519595
 51
90.0
  0
ARC
  5
E2
330
81
100
AcDbEntity
  8
1
  6
Continuous
 62
     1
100
AcDbCircle
 10
77.75104637218533
 20
16.63548687974915
 30
0.0
 40
0.5
100
AcDbArc
 50
337.3801350519595
 51
90.0
  0
LINE
  5
E3
330
81
100
AcDbEntity
  8
1
  6
Continuous
 62
     1
100
AcDbLine
 10
83.5010463721853
 20
12.63548687972704
 30
0.0
 11
84.0010463721853
 21
12.63548687972704
 31
0.0
  0
LINE
  5
E4
330
81
100
AcDbEntity
  8
1
  6
Continuous
 62
     1
100
AcDbLine
 10
84.0010463721853
 20
12.63548687972704
 30
0.0
 11
90.05467594436661
 21
12.63548687972704
 31
0.0
  0
LINE
  5
E5
330
81
100
AcDbEntity
  8
1
  6
Continuous
 62
     1
100
AcDbLine
 10
91.0010463721853
 20
14.13548687974915
 30
0.0
 11
91.0010463721853
 21
14.63548687974915
 31
0.0
  0
ARC
  5
E6
330
81
100
AcDbEntity
  8
1
  6
Continuous
 62
     1
100
AcDbCircle
 10
91.5010463721853
 20
14.63548687974915
 30
0.0
 40
0.5
100
AcDbArc
 50
0.0
 51
180.0
  0
ARC
  5
E7
330
81
100
AcDbEntity
  8
1
  6
Continuous
 62
     1
100
AcDbCircle
 10
91.5010463721853
 20
14.63548687974915
 30
0.0
 40
0.5
100
AcDbArc
 50
0.0
 51
180.0
  0
ARC
  5
E8
330
81
100
AcDbEntity
  8
1
  6
Continuous
 62
     1
100
AcDbCircle
 10
90.05467594436661
 20
12.13548687972704
 30
0.0
 40
0.5
100
AcDbArc
 50
20.00000000000003
 51
90.0
  0
ARC
  5
E9
330
81
100
AcDbEntity
  8
1
  6
Continuous
 62
     1
100
AcDbCircle
 10
90.05467594436661
 20
12.13548687972704
 30
0.0
 40
0.5
100
AcDbArc
 50
20.00000000000003
 51
90.0
  0
LINE
  5
EA
330
81
100
AcDbEntity
  8
1
  6
Continuous
 62
     1
100
AcDbLine
 10
92.0010463721853
 20
14.63548687974915
 30
0.0
 11
92.0010463721853
 21
12.63548687972704
 31
0.0
  0
ARC
  5
EB
330
81
100
AcDbEntity
  8
1
  6
Continuous
 62
     1
100
AcDbCircle
 10
91.5010463721853
 20
14.63548687974915
 30
0.0
 40
0.5
100
AcDbArc
 50
0.0
 51
180.0
  0
ARC
  5
EC
330
81
100
AcDbEntity
  8
1
  6
Continuous
 62
     1
100
AcDbCircle
 10
91.5010463721853
 20
14.63548687974915
 30
0.0
 40
0.5
100
AcDbArc
 50
0.0
 51
180.0
  0
ARC
  5
ED
330
81
100
AcDbEntity
  8
1
  6
Continuous
 62
     1
100
AcDbCircle
 10
4.99999679129499
 20
10.56530198237758
 30
0.0
 40
0.25
100
AcDbArc
 50
17.84901782512609
 51
198.5001097319276
  0
ARC
  5
EE
330
81
100
AcDbEntity
  8
1
  6
Continuous
 62
     1
100
AcDbCircle
 10
4.99999679129499
 20
10.56530198237758
 30
0.0
 40
0.25
100
AcDbArc
 50
17.84901782512609
 51
198.5001097319276
  0
ARC
  5
EF
330
81
100
AcDbEntity
  8
1
  6
Continuous
 62
     1
100
AcDbCircle
 10
9.999996791295047
 20
11.58840823347211
 30
0.0
 40
0.25
100
AcDbArc
 50
6.009180409460906
 51
186.0091804094612
  0
ARC
  5
F0
330
81
100
AcDbEntity
  8
1
  6
Continuous
 62
     1
100
AcDbCircle
 10
9.999996791295047
 20
11.58840823347211
 30
0.0
 40
0.25
100
AcDbArc
 50
6.009180409460906
 51
186.0091804094612
  0
ARC
  5
F1
330
81
100
AcDbEntity
  8
1
  6
Continuous
 62
     1
100
AcDbCircle
 10
14.99999679129505
 20
12.11473941544159
 30
0.0
 40
0.25
100
AcDbArc
 50
6.009180409460906
 51
186.0091804094625
  0
ARC
  5
F2
330
81
100
AcDbEntity
  8
1
  6
Continuous
 62
     1
100
AcDbCircle
 10
14.99999679129505
 20
12.11473941544159
 30
0.0
 40
0.25
100
AcDbArc
 50
6.009180409460906
 51
186.0091804094625
  0
ARC
  5
F3
330
81
100
AcDbEntity
  8
1
  6
Continuous
 62
     1
100
AcDbCircle
 10
19.99999679129505
 20
12.64107059741107
 30
0.0
 40
0.25
100
AcDbArc
 50
6.009180409460906
 51
186.0091804094623
  0
ARC
  5
F4
330
81
100
AcDbEntity
  8
1
  6
Continuous
 62
     1
100
AcDbCircle
 10
19.99999679129505
 20
12.64107059741107
 30
0.0
 40
0.25
100
AcDbArc
 50
6.009180409460906
 51
186.0091804094623
  0
ARC
  5
F5
330
81
100
AcDbEntity
  8
1
  6
Continuous
 62
     1
100
AcDbCircle
 10
24.99999679129505
 20
13.16740177938055
 30
0.0
 40
0.25
100
AcDbArc
 50
6.009180409454257
 51
186.0091804094621
  0
ARC
  5
F6
330
81
100
AcDbEntity
  8
1
  6
Continuous
 62
     1
100
AcDbCircle
 10
24.99999679129505
 20
13.16740177938055
 30
0.0
 40
0.25
100
AcDbArc
 50
6.009180409454257
 51
186.0091804094621
  0
ARC
  5
F7
330
81
100
AcDbEntity
  8
1
  6
Continuous
 62
     1
100
AcDbCircle
 10
29.99999679129505
 20
13.69373296135001
 30
0.0
 40
0.25
100
AcDbArc
 50
6.009180409460906
 51
186.0091804094618
  0
ARC
  5
F8
330
81
100
AcDbEntity
  8
1
  6
Continuous
 62
     1
100
AcDbCircle
 10
29.99999679129505
 20
13.69373296135001
 30
0.0
 40
0.25
100
AcDbArc
 50
6.009180409460906
 51
186.0091804094618
  0
ARC
  5
F9
330
81
100
AcDbEntity
  8
1
  6
Continuous
 62
     1
100
AcDbCircle
 10
34.99999679129505
 20
14.22006414331949
 30
0.0
 40
0.25
100
AcDbArc
 50
6.009180409460906
 51
186.0091804094619
  0
ARC
  5
FA
330
81
100
AcDbEntity
  8
1
  6
Continuous
 62
     1
100
AcDbCircle
 10
34.99999679129505
 20
14.22006414331949
 30
0.0
 40
0.25
100
AcDbArc
 50
6.009180409460906
 51
186.0091804094619
  0
ARC
  5
FB
330
81
100
AcDbEntity
  8
1
  6
Continuous
 62
     1
100
AcDbCircle
 10
39.99999679129505
 20
14.74639532528897
 30
0.0
 40
0.25
100
AcDbArc
 50
6.009180409460906
 51
186.0091804094617
  0
ARC
  5
FC
330
81
100
AcDbEntity
  8
1
  6
Continuous
 62
     1
100
AcDbCircle
 10
39.99999679129505
 20
14.74639532528897
 30
0.0
 40
0.25
100
AcDbArc
 50
6.009180409460906
 51
186.0091804094617
  0
LINE
  5
FD
330
81
100
AcDbEntity
  8
1
  6
Continuous
 62
     1
100
AcDbLine
 10
76.50104637218499
 20
22.4748139139474
 30
0.0
 11
76.50104637218533
 21
18.13548687974915
 31
0.0
  0
LINE
  5
FE
330
81
100
AcDbEntity
  8
1
  6
Continuous
 62
     1
100
AcDbLine
 10
84.90397616027516
 20
25.63548687974916
 30
0.0
 11
87.0010463721853
 21
25.63548687974916
 31
0.0
  0
ARC
  5
FF
330
81
100
AcDbEntity
  8
1
  6
Continuous
 62
     1
100
AcDbCircle
 10
87.0010463721853
 20
25.13548687974916
 30
0.0
 40
0.5
100
AcDbArc
 50
0.0
 51
90.0
  0
ARC
  5
100
330
81
100
AcDbEntity
  8
1
  6
Continuous
 62
     1
100
AcDbCircle
 10
87.0010463721853
 20
25.13548687974916
 30
0.0
 40
0.5
100
AcDbArc
 50
0.0
 51
90.0
  0
LINE
  5
101
330
81
100
AcDbEntity
  8
1
  6
Continuous
 62
     1
100
AcDbLine
 10
87.5010463721853
 20
25.13548687974916
 30
0.0
 11
87.5010463721853
 21
23.63548687974916
 31
0.0
  0
ARC
  5
102
330
81
100
AcDbEntity
  8
1
  6
Continuous
 62
     1
100
AcDbCircle
 10
87.0010463721853
 20
23.63548687974916
 30
0.0
 40
0.5
100
AcDbArc
 50
270.0
 51
0.0
  0
ARC
  5
103
330
81
100
AcDbEntity
  8
1
  6
Continuous
 62
     1
100
AcDbCircle
 10
87.0010463721853
 20
23.63548687974916
 30
0.0
 40
0.5
100
AcDbArc
 50
270.0
 51
0.0
  0
LINE
  5
104
330
81
100
AcDbEntity
  8
1
  6
Continuous
 62
     1
100
AcDbLine
 10
87.0010463721853
 20
23.13548687974916
 30
0.0
 11
84.5010463721853
 21
23.13548687974916
 31
0.0
  0
LINE
  5
105
330
81
100
AcDbEntity
  8
1
  6
Continuous
 62
     1
100
AcDbLine
 10
84.5010463721853
 20
23.13548687974916
 30
0.0
 11
84.5010463721853
 21
22.13548687974916
 31
0.0
  0
LINE
  5
106
330
81
100
AcDbEntity
  8
1
  6
Continuous
 62
     1
100
AcDbLine
 10
84.5010463721853
 20
22.13548687974916
 30
0.0
 11
78.5010463721853
 21
22.13548687974916
 31
0.0
  0
LINE
  5
107
330
81
100
AcDbEntity
  8
1
  6
Continuous
 62
     1
100
AcDbLine
 10
78.5010463721853
 20
22.13548687974916
 30
0.0
 11
78.5010463721853
 21
19.13548687974916
 31
0.0
  0
LINE
  5
108
330
81
100
AcDbEntity
  8
1
  6
Continuous
 62
     1
100
AcDbLine
 10
78.5010463721853
 20
19.13548687974916
 30
0.0
 11
83.5010463721853
 21
19.13548687974916
 31
0.0
  0
LINE
  5
109
330
81
100
AcDbEntity
  8
1
  6
Continuous
 62
     1
100
AcDbLine
 10
84.5010463721853
 20
19.13548687974916
 30
0.0
 11
84.5010463721853
 21
14.13548687974915
 31
0.0
  0
LINE
  5
10A
330
81
100
AcDbEntity
  8
1
  6
Continuous
 62
     1
100
AcDbLine
 10
84.5010463721853
 20
14.13548687974915
 30
0.0
 11
91.0010463721853
 21
14.13548687974915
 31
0.0
  0
ARC
  5
10B
330
81
100
AcDbEntity
  8
1
  6
Continuous
 62
     1
100
AcDbCircle
 10
84.0010463721853
 20
19.13548687974916
 30
0.0
 40
0.5
100
AcDbArc
 50
0.0
 51
180.0
  0
ARC
  5
10C
330
81
100
AcDbEntity
  8
1
  6
Continuous
 62
     1
100
AcDbCircle
 10
84.0010463721853
 20
19.13548687974916
 30
0.0
 40
0.5
100
AcDbArc
 50
0.0
 51
180.0
  0
ARC
  5
10D
330
81
100
AcDbEntity
  8
1
  6
Continuous
 62
     1
100
AcDbCircle
 10
77.50104637218533
 20
18.13548687974915
 30
0.0
 40
1.0
100
AcDbArc
 50
180.0
 51
270.0
  0
ARC
  5
10E
330
81
100
AcDbEntity
  8
1
  6
Continuous
 62
     1
100
AcDbCircle
 10
77.50104637218533
 20
18.13548687974915
 30
0.0
 40
1.0
100
AcDbArc
 50
180.0
 51
270.0
  0
ARC
  5
10F
330
81
100
AcDbEntity
  8
1
  6
Continuous
 62
     1
100
AcDbCircle
 10
46.00104637218502
 20
16.82886580158009
 30
0.0
 40
0.25
100
AcDbArc
 50
19.25823261634907
 51
199.3400837369028
  0
ARC
  5
110
330
81
100
AcDbEntity
  8
1
  6
Continuous
 62
     1
100
AcDbCircle
 10
46.00104637218502
 20
16.82886580158009
 30
0.0
 40
0.25
100
AcDbArc
 50
19.25823261634907
 51
199.3400837369028
  0
ARC
  5
111
330
81
100
AcDbEntity
  8
1
  6
Continuous
 62
     1
100
AcDbCircle
 10
103.8386383867544
 20
-148.3371505273131
 30
0.0
 40
175.0
100
AcDbArc
 50
109.3810092971752
 51
109.9944487536015
  0
ARC
  5
112
330
81
100
AcDbEntity
  8
1
  6
Continuous
 62
     1
100
AcDbCircle
 10
103.8386383867544
 20
-148.3371505273131
 30
0.0
 40
175.0
100
AcDbArc
 50
109.3810092971752
 51
109.9944487536015
  0
ARC
  5
113
330
81
100
AcDbEntity
  8
1
  6
Continuous
 62
     1
100
AcDbCircle
 10
56.00104637218502
 20
19.99753036241802
 30
0.0
 40
0.25
100
AcDbArc
 50
15.82324026029682
 51
195.9050913808499
  0
ARC
  5
114
330
81
100
AcDbEntity
  8
1
  6
Continuous
 62
     1
100
AcDbCircle
 10
56.00104637218502
 20
19.99753036241802
 30
0.0
 40
0.25
100
AcDbArc
 50
15.82324026029682
 51
195.9050913808499
  0
ARC
  5
115
330
81
100
AcDbEntity
  8
1
  6
Continuous
 62
     1
100
AcDbCircle
 10
66.00104637218499
 20
22.52336752919698
 30
0.0
 40
0.25
100
AcDbArc
 50
12.44588182032852
 51
192.52773294089
  0
ARC
  5
116
330
81
100
AcDbEntity
  8
1
  6
Continuous
 62
     1
100
AcDbCircle
 10
66.00104637218499
 20
22.52336752919698
 30
0.0
 40
0.25
100
AcDbArc
 50
12.44588182032852
 51
192.52773294089
  0
ARC
  5
117
330
81
100
AcDbEntity
  8
1
  6
Continuous
 62
     1
100
AcDbCircle
 10
103.8386383867544
 20
-148.3371505273131
 30
0.0
 40
175.0
100
AcDbArc
 50
107.4916549594273
 51
107.4916549594273
  0
ARC
  5
118
330
81
100
AcDbEntity
  8
1
  6
Continuous
 62
     1
100
AcDbCircle
 10
103.8386383867544
 20
-148.3371505273131
 30
0.0
 40
175.0
100
AcDbArc
 50
107.4916549594273
 51
107.4916549594273
  0
ARC
  5
119
330
81
100
AcDbEntity
  8
1
  6
Continuous
 62
     1
100
AcDbCircle
 10
103.8386383867544
 20
-148.3371505273131
 30
0.0
 40
175.0
100
AcDbArc
 50
105.782314700027
 51
105.782314700027
  0
ARC
  5
11A
330
81
100
AcDbEntity
  8
1
  6
Continuous
 62
     1
100
AcDbCircle
 10
103.8386383867544
 20
-148.3371505273131
 30
0.0
 40
175.0
100
AcDbArc
 50
105.782314700027
 51
105.782314700027
  0
LINE
  5
11B
330
81
100
AcDbEntity
  8
1
  6
Continuous
 62
     1
100
AcDbLine
 10
71.24868950040937
 20
23.58861072314684
 30
0.0
 11
75.7542580928841
 21
24.39462878242853
 31
0.0
  0
ARC
  5
11C
330
81
100
AcDbEntity
  8
1
  6
Continuous
 62
     1
100
AcDbCircle
 10
103.8386383867544
 20
-148.3371505273131
 30
0.0
 40
175.0
100
AcDbArc
 50
97.58036785583263
 51
99.0711821300979
  0
ARC
  5
11D
330
81
100
AcDbEntity
  8
1
  6
Continuous
 62
     1
100
AcDbCircle
 10
103.8386383867544
 20
-148.3371505273131
 30
0.0
 40
175.0
100
AcDbArc
 50
97.58036785583263
 51
99.0711821300979
  0
LINE
  5
11E
330
81
100
AcDbEntity
  8
1
  6
Continuous
 62
     1
100
AcDbLine
 10
81.24893167264128
 20
25.19873956626476
 30
0.0
 11
84.90397616027516
 21
25.63548687974916
 31
0.0
  0
ARC
  5
11F
330
81
100
AcDbEntity
  8
1
  6
Continuous
 62
     1
100
AcDbCircle
 10
76.00104637218499
 20
24.43457305855148
 30
0.0
 40
0.25
100
AcDbArc
 50
9.112107690360952
 51
189.1939588109559
  0
ARC
  5
120
330
81
100
AcDbEntity
  8
1
  6
Continuous
 62
     1
100
AcDbCircle
 10
76.00104637218499
 20
24.43457305855148
 30
0.0
 40
0.25
100
AcDbArc
 50
9.112107690360952
 51
189.1939588109559
  0
ARC
  5
121
330
81
100
AcDbEntity
  8
1
  6
Continuous
 62
     1
100
AcDbCircle
 10
103.9286383867541
 20
-148.3371505273131
 30
0.0
 40
173.0
100
AcDbArc
 50
99.12222045677093
 51
109.6253250614151
  0
ARC
  5
122
330
81
100
AcDbEntity
  8
1
  6
Continuous
 62
     1
100
AcDbCircle
 10
103.9286383867541
 20
-148.3371505273131
 30
0.0
 40
173.0
100
AcDbArc
 50
99.12222045677093
 51
109.6253250614151
  0
ARC
  5
123
330
81
100
AcDbEntity
  8
1
  6
Continuous
 62
     1
100
AcDbCircle
 10
87.0010463721853
 20
25.13548687974916
 30
0.0
 40
0.5
100
AcDbArc
 50
0.0
 51
90.0
  0
ARC
  5
124
330
81
100
AcDbEntity
  8
1
  6
Continuous
 62
     1
100
AcDbCircle
 10
87.0010463721853
 20
25.13548687974916
 30
0.0
 40
0.5
100
AcDbArc
 50
0.0
 51
90.0
  0
ARC
  5
125
330
81
100
AcDbEntity
  8
1
  6
Continuous
 62
     1
100
AcDbCircle
 10
87.0010463721853
 20
23.63548687974916
 30
0.0
 40
0.5
100
AcDbArc
 50
270.0
 51
0.0
  0
ARC
  5
126
330
81
100
AcDbEntity
  8
1
  6
Continuous
 62
     1
100
AcDbCircle
 10
87.0010463721853
 20
23.63548687974916
 30
0.0
 40
0.5
100
AcDbArc
 50
270.0
 51
0.0
  0
ARC
  5
127
330
81
100
AcDbEntity
  8
1
  6
Continuous
 62
     1
100
AcDbCircle
 10
84.0010463721853
 20
19.13548687974916
 30
0.0
 40
0.5
100
AcDbArc
 50
0.0
 51
180.0
  0
ARC
  5
128
330
81
100
AcDbEntity
  8
1
  6
Continuous
 62
     1
100
AcDbCircle
 10
84.0010463721853
 20
19.13548687974916
 30
0.0
 40
0.5
100
AcDbArc
 50
0.0
 51
180.0
  0
ARC
  5
129
330
81
100
AcDbEntity
  8
1
  6
Continuous
 62
     1
100
AcDbCircle
 10
77.50104637218533
 20
18.13548687974915
 30
0.0
 40
1.0
100
AcDbArc
 50
180.0
 51
270.0
  0
ARC
  5
12A
330
81
100
AcDbEntity
  8
1
  6
Continuous
 62
     1
100
AcDbCircle
 10
77.50104637218533
 20
18.13548687974915
 30
0.0
 40
1.0
100
AcDbArc
 50
180.0
 51
270.0
  0
ARC
  5
12B
330
81
100
AcDbEntity
  8
1
  6
Continuous
 62
     1
100
AcDbCircle
 10
51.00104637218502
 20
18.49566659840085
 30
0.0
 40
0.25
100
AcDbArc
 50
17.53258051969647
 51
197.6144316402499
  0
ARC
  5
12C
330
81
100
AcDbEntity
  8
1
  6
Continuous
 62
     1
100
AcDbCircle
 10
51.00104637218502
 20
18.49566659840085
 30
0.0
 40
0.25
100
AcDbArc
 50
17.53258051969647
 51
197.6144316402499
  0
ARC
  5
12D
330
81
100
AcDbEntity
  8
1
  6
Continuous
 62
     1
100
AcDbCircle
 10
103.8386383867544
 20
-148.3371505273131
 30
0.0
 40
175.0
100
AcDbArc
 50
109.3810092971752
 51
109.9944487536015
  0
ARC
  5
12E
330
81
100
AcDbEntity
  8
1
  6
Continuous
 62
     1
100
AcDbCircle
 10
103.8386383867544
 20
-148.3371505273131
 30
0.0
 40
175.0
100
AcDbArc
 50
109.3810092971752
 51
109.9944487536015
  0
ARC
  5
12F
330
81
100
AcDbEntity
  8
1
  6
Continuous
 62
     1
100
AcDbCircle
 10
103.8386383867544
 20
-148.3371505273131
 30
0.0
 40
175.0
100
AcDbArc
 50
107.6553572005216
 51
109.2173070560809
  0
ARC
  5
130
330
81
100
AcDbEntity
  8
1
  6
Continuous
 62
     1
100
AcDbCircle
 10
103.8386383867544
 20
-148.3371505273131
 30
0.0
 40
175.0
100
AcDbArc
 50
107.6553572005216
 51
109.2173070560809
  0
ARC
  5
131
330
81
100
AcDbEntity
  8
1
  6
Continuous
 62
     1
100
AcDbCircle
 10
61.00104637218499
 20
21.3388369028277
 30
0.0
 40
0.25
100
AcDbArc
 50
14.12827597803147
 51
194.2101270985739
  0
ARC
  5
132
330
81
100
AcDbEntity
  8
1
  6
Continuous
 62
     1
100
AcDbCircle
 10
61.00104637218499
 20
21.3388369028277
 30
0.0
 40
0.25
100
AcDbArc
 50
14.12827597803147
 51
194.2101270985739
  0
ARC
  5
133
330
81
100
AcDbEntity
  8
1
  6
Continuous
 62
     1
100
AcDbCircle
 10
71.00104637218499
 20
23.55436337225294
 30
0.0
 40
0.25
100
AcDbArc
 50
7.873673233132083
 51
190.8562121202383
  0
ARC
  5
134
330
81
100
AcDbEntity
  8
1
  6
Continuous
 62
     1
100
AcDbCircle
 10
71.00104637218499
 20
23.55436337225294
 30
0.0
 40
0.25
100
AcDbArc
 50
7.873673233132083
 51
190.8562121202383
  0
ARC
  5
135
330
81
100
AcDbEntity
  8
1
  6
Continuous
 62
     1
100
AcDbCircle
 10
103.8386383867544
 20
-148.3371505273131
 30
0.0
 40
175.0
100
AcDbArc
 50
105.9460169411213
 51
107.4916549594273
  0
ARC
  5
136
330
81
100
AcDbEntity
  8
1
  6
Continuous
 62
     1
100
AcDbCircle
 10
103.8386383867544
 20
-148.3371505273131
 30
0.0
 40
175.0
100
AcDbArc
 50
105.9460169411213
 51
107.4916549594273
  0
ARC
  5
137
330
81
100
AcDbEntity
  8
1
  6
Continuous
 62
     1
100
AcDbCircle
 10
103.8386383867544
 20
-148.3371505273131
 30
0.0
 40
175.0
100
AcDbArc
 50
104.2510526588625
 51
105.782314700027
  0
ARC
  5
138
330
81
100
AcDbEntity
  8
1
  6
Continuous
 62
     1
100
AcDbCircle
 10
103.8386383867544
 20
-148.3371505273131
 30
0.0
 40
175.0
100
AcDbArc
 50
104.2510526588625
 51
105.782314700027
  0
ARC
  5
139
330
81
100
AcDbEntity
  8
1
  6
Continuous
 62
     1
100
AcDbCircle
 10
103.8386383867544
 20
-148.3371505273131
 30
0.0
 40
175.0
100
AcDbArc
 50
100.89713768051
 51
102.4049562600683
  0
ARC
  5
13A
330
81
100
AcDbEntity
  8
1
  6
Continuous
 62
     1
100
AcDbCircle
 10
103.8386383867544
 20
-148.3371505273131
 30
0.0
 40
175.0
100
AcDbArc
 50
100.89713768051
 51
102.4049562600683
  0
ARC
  5
13B
330
81
100
AcDbEntity
  8
1
  6
Continuous
 62
     1
100
AcDbCircle
 10
103.8386383867544
 20
-148.3371505273131
 30
0.0
 40
175.0
100
AcDbArc
 50
97.58036785583263
 51
99.07118213010101
  0
ARC
  5
13C
330
81
100
AcDbEntity
  8
1
  6
Continuous
 62
     1
100
AcDbCircle
 10
103.8386383867544
 20
-148.3371505273131
 30
0.0
 40
175.0
100
AcDbArc
 50
97.58036785583263
 51
99.07118213010101
  0
ARC
  5
13D
330
81
100
AcDbEntity
  8
1
  6
Continuous
 62
     1
100
AcDbCircle
 10
81.00104637218496
 20
25.1662914874668
 30
0.0
 40
0.25
100
AcDbArc
 50
7.457591174988654
 51
187.53944229556
  0
ARC
  5
13E
330
81
100
AcDbEntity
  8
1
  6
Continuous
 62
     1
100
AcDbCircle
 10
81.00104637218496
 20
25.1662914874668
 30
0.0
 40
0.25
100
AcDbArc
 50
7.457591174988654
 51
187.53944229556
  0
LINE
  5
13F
330
81
100
AcDbEntity
  8
1
  6
Continuous
 62
     1
100
AcDbLine
 10
44.84749788384784
 20
14.25420911930337
 30
0.0
 11
45.82348619628667
 21
14.61312191468872
 31
0.0
  0
LINE
  5
140
330
81
100
AcDbEntity
  8
1
  6
Continuous
 62
     1
100
AcDbLine
 10
5.909226535578753
 20
8.504008440454015
 30
0.0
 11
8.107436278677795
 21
2.464476808064234
 31
0.0
  0
LINE
  5
141
330
81
100
AcDbEntity
  8
1
  6
Continuous
 62
     1
100
AcDbLine
 10
8.57728258907079
 20
2.135486879727068
 30
0.0
 11
12.9999967912951
 21
2.135486879727068
 31
0.0
  0
LINE
  5
142
330
81
100
AcDbEntity
  8
1
  6
Continuous
 62
     1
100
AcDbLine
 10
15.49355656568721
 20
3.641844679743741
 30
0.0
 11
17.99355656568716
 21
3.674048479296232
 31
0.0
  0
LINE
  5
143
330
81
100
AcDbEntity
  8
1
  6
Continuous
 62
     1
100
AcDbLine
 10
18.4999967912951
 20
3.174089957522568
 30
0.0
 11
18.4999967912951
 21
1.135486879727068
 31
0.0
  0
LINE
  5
144
330
81
100
AcDbEntity
  8
1
  6
Continuous
 62
     1
100
AcDbLine
 10
18.9999967912951
 20
0.6354868797270683
 30
0.0
 11
19.49999679129499
 21
0.6354868797270683
 31
0.0
  0
LINE
  5
145
330
81
100
AcDbEntity
  8
1
  6
Continuous
 62
     1
100
AcDbLine
 10
19.99999679129499
 20
1.135486879727068
 30
0.0
 11
19.99999679129499
 21
3.185066463906082
 31
0.0
  0
LINE
  5
146
330
81
100
AcDbEntity
  8
1
  6
Continuous
 62
     1
100
AcDbLine
 10
7.374443189913976
 20
8.86406536830384
 30
0.0
 11
9.21761885663642
 21
3.799981843895623
 31
0.0
  0
ARC
  5
147
330
81
100
AcDbEntity
  8
1
  6
Continuous
 62
     1
100
AcDbCircle
 10
11.86208612719358
 20
-10.33713160670835
 30
0.0
 40
20.0
100
AcDbArc
 50
96.00918040946125
 51
102.4347466357175
  0
ARC
  5
148
330
81
100
AcDbEntity
  8
1
  6
Continuous
 62
     1
100
AcDbCircle
 10
11.86208612719358
 20
-10.33713160670835
 30
0.0
 40
20.0
100
AcDbArc
 50
96.00918040946125
 51
102.4347466357175
  0
ARC
  5
149
330
81
100
AcDbEntity
  8
1
  6
Continuous
 62
     1
100
AcDbCircle
 10
11.86208612719358
 20
-10.33713160670835
 30
0.0
 40
20.0
100
AcDbArc
 50
108.2585459617593
 51
121.1474548612101
  0
ARC
  5
14A
330
81
100
AcDbEntity
  8
1
  6
Continuous
 62
     1
100
AcDbCircle
 10
11.86208612719358
 20
-10.33713160670835
 30
0.0
 40
20.0
100
AcDbArc
 50
108.2585459617593
 51
121.1474548612101
  0
ARC
  5
14B
330
81
100
AcDbEntity
  8
1
  6
Continuous
 62
     1
100
AcDbCircle
 10
0.9999967912950467
 20
7.635486879727068
 30
0.0
 40
1.0
100
AcDbArc
 50
121.14745486121
 51
301.1474548612097
  0
ARC
  5
14C
330
81
100
AcDbEntity
  8
1
  6
Continuous
 62
     1
100
AcDbCircle
 10
0.9999967912950467
 20
7.635486879727068
 30
0.0
 40
1.0
100
AcDbArc
 50
121.14745486121
 51
301.1474548612097
  0
ARC
  5
14D
330
81
100
AcDbEntity
  8
1
  6
Continuous
 62
     1
100
AcDbCircle
 10
11.86208612719358
 20
-10.33713160670835
 30
0.0
 40
22.0
100
AcDbArc
 50
108.8256556853252
 51
121.1474548612101
  0
ARC
  5
14E
330
81
100
AcDbEntity
  8
1
  6
Continuous
 62
     1
100
AcDbCircle
 10
11.86208612719358
 20
-10.33713160670835
 30
0.0
 40
22.0
100
AcDbArc
 50
108.8256556853252
 51
121.1474548612101
  0
ARC
  5
14F
330
81
100
AcDbEntity
  8
1
  6
Continuous
 62
     1
100
AcDbCircle
 10
11.86208612719358
 20
-10.33713160670835
 30
0.0
 40
22.0
100
AcDbArc
 50
96.00918040946127
 51
107.523471871733
  0
ARC
  5
150
330
81
100
AcDbEntity
  8
1
  6
Continuous
 62
     1
100
AcDbCircle
 10
11.86208612719358
 20
-10.33713160670835
 30
0.0
 40
22.0
100
AcDbArc
 50
96.00918040946127
 51
107.523471871733
  0
LINE
  5
151
330
81
100
AcDbEntity
  8
1
  6
Continuous
 62
     1
100
AcDbLine
 10
9.5589542511116
 20
11.54198134517739
 30
0.0
 11
9.751370507750863
 21
11.56223628033482
 31
0.0
  0
LINE
  5
152
330
81
100
AcDbEntity
  8
1
  6
Continuous
 62
     1
100
AcDbLine
 10
10.2486230748392
 20
11.6145801866094
 30
0.0
 11
14.75137050775086
 21
12.0885674623043
 31
0.0
  0
LINE
  5
153
330
81
100
AcDbEntity
  8
1
  6
Continuous
 62
     1
100
AcDbLine
 10
15.2486230748392
 20
12.14091136857888
 30
0.0
 11
19.75137050775086
 21
12.61489864427375
 31
0.0
  0
LINE
  5
154
330
81
100
AcDbEntity
  8
1
  6
Continuous
 62
     1
100
AcDbLine
 10
20.2486230748392
 20
12.66724255054837
 30
0.0
 11
24.75137050775087
 21
13.14122982624323
 31
0.0
  0
LINE
  5
155
330
81
100
AcDbEntity
  8
1
  6
Continuous
 62
     1
100
AcDbLine
 10
25.24862307483922
 20
13.19357373251782
 30
0.0
 11
29.7513705077509
 21
13.66756100821272
 31
0.0
  0
LINE
  5
156
330
81
100
AcDbEntity
  8
1
  6
Continuous
 62
     1
100
AcDbLine
 10
30.24862307483921
 20
13.7199049144873
 30
0.0
 11
34.7513705077509
 21
14.1938921901822
 31
0.0
  0
LINE
  5
157
330
81
100
AcDbEntity
  8
1
  6
Continuous
 62
     1
100
AcDbLine
 10
35.24862307483921
 20
14.24623609645678
 30
0.0
 11
39.7513705077509
 21
14.72022337215168
 31
0.0
  0
LINE
  5
158
330
81
100
AcDbEntity
  8
1
  6
Continuous
 62
     1
100
AcDbLine
 10
40.24862307483921
 20
14.77256727842627
 30
0.0
 11
40.50212404196441
 21
14.79925237115773
 31
0.0
  0
LINE
  5
159
330
81
100
AcDbEntity
  8
1
  6
Continuous
 62
     1
100
AcDbLine
 10
71.88057139743964
 20
3.298635665068161
 30
0.0
 11
73.26339009689084
 21
1.915816965616955
 31
0.0
  0
ARC
  5
15A
330
81
100
AcDbEntity
  8
1
  6
Continuous
 62
     1
100
AcDbCircle
 10
72.73306001100093
 20
1.38548687972704
 30
0.0
 40
0.7499999999999929
100
AcDbArc
 50
225.0000000000006
 51
45.00000000000034
  0
ARC
  5
15B
330
81
100
AcDbEntity
  8
1
  6
Continuous
 62
     1
100
AcDbCircle
 10
72.73306001100093
 20
1.38548687972704
 30
0.0
 40
0.7499999999999929
100
AcDbArc
 50
225.0000000000006
 51
45.00000000000034
  0
LINE
  5
15C
330
81
100
AcDbEntity
  8
1
  6
Continuous
 62
     1
100
AcDbLine
 10
72.20272992511104
 20
0.8551567938371392
 30
0.0
 11
68.93546187510705
 21
4.122424843841088
 31
0.0
  0
LINE
  5
15D
330
81
100
AcDbEntity
  8
1
  6
Continuous
 62
     1
100
AcDbLine
 10
68.93546187510705
 20
4.122424843841088
 30
0.0
 11
66.68077378301493
 21
4.102066604783801
 31
0.0
  0
LINE
  5
15E
330
81
100
AcDbEntity
  8
1
  6
Continuous
 62
     1
100
AcDbLine
 10
66.68077378301493
 20
4.102066604783801
 30
0.0
 11
66.43300080696625
 21
4.34983958083248
 31
0.0
  0
LINE
  5
15F
330
81
100
AcDbEntity
  8
1
  6
Continuous
 62
     1
100
AcDbLine
 10
66.43300080696625
 20
4.34983958083248
 30
0.0
 11
66.18071263234788
 21
4.097551406214109
 31
0.0
  0
LINE
  5
160
330
81
100
AcDbEntity
  8
1
  6
Continuous
 62
     1
100
AcDbLine
 10
66.18071263234788
 20
4.097551406214109
 30
0.0
 11
63.93505420122379
 21
4.077274698609983
 31
0.0
  0
LINE
  5
161
330
81
100
AcDbEntity
  8
1
  6
Continuous
 62
     1
100
AcDbLine
 10
63.93505420122379
 20
4.077274698609983
 30
0.0
 11
60.71293629645096
 21
0.8551567938371534
 31
0.0
  0
ARC
  5
162
330
81
100
AcDbEntity
  8
1
  6
Continuous
 62
     1
100
AcDbCircle
 10
60.18260621056104
 20
1.385486879727068
 30
0.0
 40
0.7500000000000018
100
AcDbArc
 50
135.0000000000004
 51
314.9999999999997
  0
ARC
  5
163
330
81
100
AcDbEntity
  8
1
  6
Continuous
 62
     1
100
AcDbCircle
 10
60.18260621056104
 20
1.385486879727068
 30
0.0
 40
0.7500000000000018
100
AcDbArc
 50
135.0000000000004
 51
314.9999999999997
  0
LINE
  5
164
330
81
100
AcDbEntity
  8
1
  6
Continuous
 62
     1
100
AcDbLine
 10
59.65227612467113
 20
1.915816965616983
 30
0.0
 11
60.92983272356862
 21
3.193373564514474
 31
0.0
  0
LINE
  5
165
330
81
100
AcDbEntity
  8
1
  6
Continuous
 62
     1
100
AcDbLine
 10
20.49548232889666
 20
3.685046083119971
 30
0.0
 11
34.49548232889664
 21
3.811456182947808
 31
0.0
  0
LINE
  5
166
330
81
100
AcDbEntity
  8
1
  6
Continuous
 62
     1
100
AcDbLine
 10
34.99999679129497
 20
3.311476563733947
 30
0.0
 11
34.99999679129497
 21
1.135486879727068
 31
0.0
  0
LINE
  5
167
330
81
100
AcDbEntity
  8
1
  6
Continuous
 62
     1
100
AcDbLine
 10
35.49999679129497
 20
0.6354868797270683
 30
0.0
 11
35.99999679129497
 21
0.6354868797270683
 31
0.0
  0
LINE
  5
168
330
81
100
AcDbEntity
  8
1
  6
Continuous
 62
     1
100
AcDbLine
 10
36.49999679129497
 20
1.135486879727068
 30
0.0
 11
36.49999679129497
 21
3.334049795846056
 31
0.0
  0
LINE
  5
169
330
81
100
AcDbEntity
  8
1
  6
Continuous
 62
     1
100
AcDbLine
 10
36.99548232889664
 20
3.834029415059945
 30
0.0
 11
60.57176487057701
 21
4.046906574321611
 31
0.0
  0
LINE
  5
16A
330
81
100
AcDbEntity
  8
1
  6
Continuous
 62
     1
100
AcDbLine
 10
12.9999967912951
 20
2.135486879727068
 30
0.0
 11
13.9999967912951
 21
2.135486879727068
 31
0.0
  0
ARC
  5
16B
330
81
100
AcDbEntity
  8
1
  6
Continuous
 62
     1
100
AcDbCircle
 10
13.9999967912951
 20
3.135486879727068
 30
0.0
 40
1.0
100
AcDbArc
 50
270.0
 51
0.0
  0
ARC
  5
16C
330
81
100
AcDbEntity
  8
1
  6
Continuous
 62
     1
100
AcDbCircle
 10
13.9999967912951
 20
3.135486879727068
 30
0.0
 40
1.0
100
AcDbArc
 50
270.0
 51
0.0
  0
ARC
  5
16D
330
81
100
AcDbEntity
  8
1
  6
Continuous
 62
     1
100
AcDbCircle
 10
18.9999967912951
 20
1.135486879727068
 30
0.0
 40
0.5
100
AcDbArc
 50
180.0
 51
270.0
  0
ARC
  5
16E
330
81
100
AcDbEntity
  8
1
  6
Continuous
 62
     1
100
AcDbCircle
 10
18.9999967912951
 20
1.135486879727068
 30
0.0
 40
0.5
100
AcDbArc
 50
180.0
 51
270.0
  0
ARC
  5
16F
330
81
100
AcDbEntity
  8
1
  6
Continuous
 62
     1
100
AcDbCircle
 10
19.49999679129499
 20
1.135486879727068
 30
0.0
 40
0.5
100
AcDbArc
 50
270.0
 51
0.0
  0
ARC
  5
170
330
81
100
AcDbEntity
  8
1
  6
Continuous
 62
     1
100
AcDbCircle
 10
19.49999679129499
 20
1.135486879727068
 30
0.0
 40
0.5
100
AcDbArc
 50
270.0
 51
0.0
  0
ARC
  5
171
330
81
100
AcDbEntity
  8
1
  6
Continuous
 62
     1
100
AcDbCircle
 10
20.499996791295
 20
3.185066463906082
 30
0.0
 40
0.5
100
AcDbArc
 50
90.0
 51
180.0
  0
ARC
  5
172
330
81
100
AcDbEntity
  8
1
  6
Continuous
 62
     1
100
AcDbCircle
 10
20.499996791295
 20
3.185066463906082
 30
0.0
 40
0.5
100
AcDbArc
 50
90.0
 51
180.0
  0
ARC
  5
173
330
81
100
AcDbEntity
  8
1
  6
Continuous
 62
     1
100
AcDbCircle
 10
17.9999967912951
 20
3.174089957522568
 30
0.0
 40
0.5
100
AcDbArc
 50
0.0
 51
90.73801590073018
  0
ARC
  5
174
330
81
100
AcDbEntity
  8
1
  6
Continuous
 62
     1
100
AcDbCircle
 10
17.9999967912951
 20
3.174089957522568
 30
0.0
 40
0.5
100
AcDbArc
 50
0.0
 51
90.73801590073018
  0
ARC
  5
175
330
81
100
AcDbEntity
  8
1
  6
Continuous
 62
     1
100
AcDbCircle
 10
15.4999967912951
 20
3.141886157970077
 30
0.0
 40
0.5
100
AcDbArc
 50
90.73801590073015
 51
180.0
  0
ARC
  5
176
330
81
100
AcDbEntity
  8
1
  6
Continuous
 62
     1
100
AcDbCircle
 10
15.4999967912951
 20
3.141886157970077
 30
0.0
 40
0.5
100
AcDbArc
 50
90.73801590073015
 51
180.0
  0
ARC
  5
177
330
81
100
AcDbEntity
  8
1
  6
Continuous
 62
     1
100
AcDbCircle
 10
34.49999679129497
 20
3.311476563733947
 30
0.0
 40
0.5
100
AcDbArc
 50
0.0
 51
90.0
  0
ARC
  5
178
330
81
100
AcDbEntity
  8
1
  6
Continuous
 62
     1
100
AcDbCircle
 10
34.49999679129497
 20
3.311476563733947
 30
0.0
 40
0.5
100
AcDbArc
 50
0.0
 51
90.0
  0
ARC
  5
179
330
81
100
AcDbEntity
  8
1
  6
Continuous
 62
     1
100
AcDbCircle
 10
36.99999679129497
 20
3.334049795846056
 30
0.0
 40
0.5
100
AcDbArc
 50
90.0
 51
180.0
  0
ARC
  5
17A
330
81
100
AcDbEntity
  8
1
  6
Continuous
 62
     1
100
AcDbCircle
 10
36.99999679129497
 20
3.334049795846056
 30
0.0
 40
0.5
100
AcDbArc
 50
90.0
 51
180.0
  0
ARC
  5
17B
330
81
100
AcDbEntity
  8
1
  6
Continuous
 62
     1
100
AcDbCircle
 10
35.49999679129497
 20
1.135486879727068
 30
0.0
 40
0.5
100
AcDbArc
 50
180.0
 51
270.0
  0
ARC
  5
17C
330
81
100
AcDbEntity
  8
1
  6
Continuous
 62
     1
100
AcDbCircle
 10
35.49999679129497
 20
1.135486879727068
 30
0.0
 40
0.5
100
AcDbArc
 50
180.0
 51
270.0
  0
ARC
  5
17D
330
81
100
AcDbEntity
  8
1
  6
Continuous
 62
     1
100
AcDbCircle
 10
35.99999679129497
 20
1.135486879727068
 30
0.0
 40
0.5
100
AcDbArc
 50
270.0
 51
0.0
  0
ARC
  5
17E
330
81
100
AcDbEntity
  8
1
  6
Continuous
 62
     1
100
AcDbCircle
 10
35.99999679129497
 20
1.135486879727068
 30
0.0
 40
0.5
100
AcDbArc
 50
270.0
 51
0.0
  0
ARC
  5
17F
330
81
100
AcDbEntity
  8
1
  6
Continuous
 62
     1
100
AcDbCircle
 10
60.57627933297534
 20
3.546926955107722
 30
0.0
 40
0.5
100
AcDbArc
 50
315.0000000000002
 51
90.0
  0
ARC
  5
180
330
81
100
AcDbEntity
  8
1
  6
Continuous
 62
     1
100
AcDbCircle
 10
60.57627933297534
 20
3.546926955107722
 30
0.0
 40
0.5
100
AcDbArc
 50
315.0000000000002
 51
90.0
  0
ARC
  5
181
330
81
100
AcDbEntity
  8
1
  6
Continuous
 62
     1
100
AcDbCircle
 10
72.23412478803291
 20
3.652189055661438
 30
0.0
 40
0.5
100
AcDbArc
 50
90.0
 51
224.9999999999998
  0
ARC
  5
182
330
81
100
AcDbEntity
  8
1
  6
Continuous
 62
     1
100
AcDbCircle
 10
72.23412478803291
 20
3.652189055661438
 30
0.0
 40
0.5
100
AcDbArc
 50
90.0
 51
224.9999999999998
  0
LINE
  5
183
330
81
100
AcDbEntity
  8
1
  6
Continuous
 62
     1
100
AcDbLine
 10
9.452542011832904
 20
3.63548687972704
 30
0.0
 11
12.9999967912951
 21
3.635486879727068
 31
0.0
  0
LINE
  5
184
330
81
100
AcDbEntity
  8
1
  6
Continuous
 62
     1
100
AcDbLine
 10
15.4999967912951
 20
5.135486879727068
 30
0.0
 11
14.9999967912951
 21
5.135486879727068
 31
0.0
  0
LINE
  5
185
330
81
100
AcDbEntity
  8
1
  6
Continuous
 62
     1
100
AcDbLine
 10
14.9999967912951
 20
5.135486879727068
 30
0.0
 11
14.4999967912951
 21
5.135486879727068
 31
0.0
  0
ARC
  5
186
330
81
100
AcDbEntity
  8
1
  6
Continuous
 62
     1
100
AcDbCircle
 10
14.4999967912951
 20
4.135486879727068
 30
0.0
 40
1.0
100
AcDbArc
 50
90.0
 51
180.0
  0
ARC
  5
187
330
81
100
AcDbEntity
  8
1
  6
Continuous
 62
     1
100
AcDbCircle
 10
14.4999967912951
 20
4.135486879727068
 30
0.0
 40
1.0
100
AcDbArc
 50
90.0
 51
180.0
  0
ARC
  5
188
330
81
100
AcDbEntity
  8
1
  6
Continuous
 62
     1
100
AcDbCircle
 10
12.9999967912951
 20
4.135486879727068
 30
0.0
 40
0.5
100
AcDbArc
 50
270.0
 51
0.0
  0
ARC
  5
189
330
81
100
AcDbEntity
  8
1
  6
Continuous
 62
     1
100
AcDbCircle
 10
12.9999967912951
 20
4.135486879727068
 30
0.0
 40
0.5
100
AcDbArc
 50
270.0
 51
0.0
  0
ARC
  5
18A
330
81
100
AcDbEntity
  8
1
  6
Continuous
 62
     1
100
AcDbCircle
 10
8.57728258907079
 20
2.635486879727068
 30
0.0
 40
0.5
100
AcDbArc
 50
200.0
 51
270.0
  0
ARC
  5
18B
330
81
100
AcDbEntity
  8
1
  6
Continuous
 62
     1
100
AcDbCircle
 10
8.57728258907079
 20
2.635486879727068
 30
0.0
 40
0.5
100
AcDbArc
 50
200.0
 51
270.0
  0
LINE
  5
18C
330
81
100
AcDbEntity
  8
1
  6
Continuous
 62
     1
100
AcDbLine
 10
9.768329876209947
 20
9.55297107682415
 30
0.0
 11
41.1011140625416
 21
12.8512553438614
 31
0.0
  0
LINE
  5
18D
330
81
100
AcDbEntity
  8
1
  6
Continuous
 62
     1
100
AcDbLine
 10
41.1011140625416
 20
12.8512553438614
 30
0.0
 11
44.84749788384784
 21
14.25420911930337
 31
0.0
  0
LINE
  5
18E
330
81
100
AcDbEntity
  8
1
  6
Continuous
 62
     1
100
AcDbLine
 10
44.15246043132542
 20
16.16987108900835
 30
0.0
 11
40.50212404196441
 21
14.79925237115773
 31
0.0
  0
LINE
  5
18F
330
81
100
AcDbEntity
  8
1
  6
Continuous
 62
     1
100
AcDbLine
 10
92.15112379360502
 20
5.889073005597936
 30
0.0
 11
15.4999967912951
 21
5.135486879727068
 31
0.0
  0
LINE
  5
190
330
81
100
AcDbEntity
  8
1
  6
Continuous
 62
     1
100
AcDbLine
 10
72.23412478803291
 20
4.152189055661438
 30
0.0
 11
89.76302975626905
 21
4.360662309947259
 31
0.0
  0
LINE
  5
191
330
81
100
AcDbEntity
  8
1
  6
Continuous
 62
     1
100
AcDbLine
 10
90.52452225475955
 20
12.30649695138987
 30
0.0
 11
92.61605465305368
 21
6.560058915018971
 31
0.0
  0
ARC
  5
192
330
81
100
AcDbEntity
  8
1
  6
Continuous
 62
     1
100
AcDbCircle
 10
92.14620834266074
 20
6.389048843356136
 30
0.0
 40
0.5
100
AcDbArc
 50
270.0
 51
20.00000000000002
  0
ARC
  5
193
330
81
100
AcDbEntity
  8
1
  6
Continuous
 62
     1
100
AcDbCircle
 10
92.14620834266074
 20
6.389048843356136
 30
0.0
 40
0.5
100
AcDbArc
 50
270.0
 51
20.00000000000002
  0
ARC
  5
194
330
81
100
AcDbEntity
  8
1
  6
Continuous
 62
     1
100
AcDbCircle
 10
94.38782525329324
 20
7.539767998733424
 30
0.0
 40
0.5
100
AcDbArc
 50
200.0
 51
280.1002972993625
  0
ARC
  5
195
330
81
100
AcDbEntity
  8
1
  6
Continuous
 62
     1
100
AcDbCircle
 10
94.38782525329324
 20
7.539767998733424
 30
0.0
 40
0.5
100
AcDbArc
 50
200.0
 51
280.1002972993625
  0
ARC
  5
196
330
81
100
AcDbEntity
  8
1
  6
Continuous
 62
     1
100
AcDbCircle
 10
91.50104637218536
 20
14.63548687974915
 30
0.0
 40
0.5
100
AcDbArc
 50
0.0
 51
180.0
  0
ARC
  5
197
330
81
100
AcDbEntity
  8
1
  6
Continuous
 62
     1
100
AcDbCircle
 10
91.50104637218536
 20
14.63548687974915
 30
0.0
 40
0.5
100
AcDbArc
 50
0.0
 51
180.0
  0
ARC
  5
198
330
81
100
AcDbEntity
  8
1
  6
Continuous
 62
     1
100
AcDbCircle
 10
91.50104637218536
 20
14.63548687974915
 30
0.0
 40
0.5
100
AcDbArc
 50
0.0
 51
180.0
  0
ARC
  5
199
330
81
100
AcDbEntity
  8
1
  6
Continuous
 62
     1
100
AcDbCircle
 10
91.50104637218536
 20
14.63548687974915
 30
0.0
 40
0.5
100
AcDbArc
 50
0.0
 51
180.0
  0
LINE
  5
19A
330
81
100
AcDbEntity
  8
1
  6
Continuous
 62
     2
100
AcDbLine
 10
115.4532430207239
 20
6.686222181639337
 30
0.0
 11
113.6127867226021
 21
5.48718946277129
 31
0.0
  0
LINE
  5
19B
330
81
100
AcDbEntity
  8
1
  6
Continuous
 62
     2
100
AcDbLine
 10
113.6127867226021
 20
5.48718946277129
 30
0.0
 11
113.3477674613819
 21
5.477934786239352
 31
0.0
  0
LINE
  5
19C
330
81
100
AcDbEntity
  8
1
  6
Continuous
 62
     2
100
AcDbLine
 10
104.8209394855649
 20
5.180171392000062
 30
0.0
 11
104.5559202243494
 21
5.17091671546828
 31
0.0
  0
LINE
  5
19D
330
81
100
AcDbEntity
  8
1
  6
Continuous
 62
     2
100
AcDbLine
 10
104.5559202243494
 20
5.17091671546828
 30
0.0
 11
102.5532691718427
 21
6.23574516841294
 31
0.0
  0
LINE
  5
19E
330
81
100
AcDbEntity
  8
1
  6
Continuous
 62
     2
100
AcDbLine
 10
102.8021105267772
 20
2.051145079750498
 30
0.0
 11
104.5939817441982
 21
3.17083048608535
 31
0.0
  0
LINE
  5
19F
330
81
100
AcDbEntity
  8
1
  6
Continuous
 62
     2
100
AcDbLine
 10
104.5939817441982
 20
3.17083048608535
 30
0.0
 11
106.8895269788508
 21
3.250992692082534
 31
0.0
  0
LINE
  5
1A0
330
81
100
AcDbEntity
  8
1
  6
Continuous
 62
     2
100
AcDbLine
 10
111.4187916465913
 20
3.409158099511821
 30
0.0
 11
113.6508482424508
 21
3.48710323338836
 31
0.0
  0
LINE
  5
1A1
330
81
100
AcDbEntity
  8
1
  6
Continuous
 62
     2
100
AcDbLine
 10
113.6508482424508
 20
3.48710323338836
 30
0.0
 11
115.5994975763481
 21
2.498039683005317
 31
0.0
  0
LINE
  5
1A2
330
81
100
AcDbEntity
  8
1
  6
Continuous
 62
     2
100
AcDbLine
 10
115.4532430207239
 20
6.686222181639337
 30
0.0
 11
116.4777760460094
 21
6.721999663252028
 31
0.0
  0
LINE
  5
1A3
330
81
100
AcDbEntity
  8
1
  6
Continuous
 62
     2
100
AcDbLine
 10
116.4777760460094
 20
6.721999663252028
 30
0.0
 11
116.6240306016335
 21
2.533817164617929
 31
0.0
  0
LINE
  5
1A4
330
81
100
AcDbEntity
  8
1
  6
Continuous
 62
     2
100
AcDbLine
 10
116.6240306016335
 20
2.533817164617929
 30
0.0
 11
115.5994975763481
 21
2.49803968300526
 31
0.0
  0
LINE
  5
1A5
330
81
100
AcDbEntity
  8
1
  6
Continuous
 62
     2
100
AcDbLine
 10
102.8021105267772
 20
2.051145079750498
 30
0.0
 11
101.8062859780936
 21
2.016370120231734
 31
0.0
  0
LINE
  5
1A6
330
81
100
AcDbEntity
  8
1
  6
Continuous
 62
     2
100
AcDbLine
 10
101.8062859780936
 20
2.016370120231734
 30
0.0
 11
101.6600314224694
 21
6.204552618865748
 31
0.0
  0
LINE
  5
1A7
330
81
100
AcDbEntity
  8
1
  6
Continuous
 62
     2
100
AcDbLine
 10
101.6600314224694
 20
6.204552618865748
 30
0.0
 11
102.5532691718427
 21
6.23574516841294
 31
0.0
  0
LINE
  5
1A8
330
81
100
AcDbEntity
  8
1
  6
Continuous
 62
     2
100
AcDbLine
 10
107.371772644009
 20
3.768137853943337
 30
0.0
 11
107.2927516812246
 21
6.031002158896847
 31
0.0
  0
LINE
  5
1A9
330
81
100
AcDbEntity
  8
1
  6
Continuous
 62
     2
100
AcDbLine
 10
107.2927516812246
 20
6.031002158896847
 30
0.0
 11
110.8226255219462
 21
6.154268069623633
 31
0.0
  0
LINE
  5
1AA
330
81
100
AcDbEntity
  8
1
  6
Continuous
 62
     2
100
AcDbLine
 10
110.8226255219462
 20
6.154268069623633
 30
0.0
 11
110.9016464847305
 21
3.891403764670123
 31
0.0
  0
LINE
  5
1AB
330
81
100
AcDbEntity
  8
1
  6
Continuous
 62
     2
100
AcDbLine
 10
112.8306222995211
 20
5.960180451397648
 30
0.0
 11
112.7690579309306
 21
7.723153303557268
 31
0.0
  0
LINE
  5
1AC
330
81
100
AcDbEntity
  8
1
  6
Continuous
 62
     2
100
AcDbLine
 10
112.2519127690697
 20
8.20539896871557
 30
0.0
 11
105.723866447291
 21
7.977434567881282
 31
0.0
  0
LINE
  5
1AD
330
81
100
AcDbEntity
  8
1
  6
Continuous
 62
     2
100
AcDbLine
 10
105.2416207821327
 20
7.460289406020486
 30
0.0
 11
105.3031851507232
 21
5.697316553860858
 31
0.0
  0
ARC
  5
1AE
330
81
100
AcDbEntity
  8
1
  6
Continuous
 62
     2
100
AcDbCircle
 10
106.8720772304995
 20
3.750688105592076
 30
0.0
 40
0.5
100
AcDbArc
 50
272.0000000000036
 51
2.000000000001285
  0
ARC
  5
1AF
330
81
100
AcDbEntity
  8
1
  6
Continuous
 62
     2
100
AcDbCircle
 10
106.8720772304995
 20
3.750688105592076
 30
0.0
 40
0.5
100
AcDbArc
 50
272.0000000000036
 51
2.000000000001285
  0
ARC
  5
1B0
330
81
100
AcDbEntity
  8
1
  6
Continuous
 62
     2
100
AcDbCircle
 10
111.4013418982401
 20
3.90885351302137
 30
0.0
 40
0.5
100
AcDbArc
 50
181.9999999999994
 51
271.9999999999971
  0
ARC
  5
1B1
330
81
100
AcDbEntity
  8
1
  6
Continuous
 62
     2
100
AcDbCircle
 10
111.4013418982401
 20
3.90885351302137
 30
0.0
 40
0.5
100
AcDbArc
 50
181.9999999999994
 51
271.9999999999971
  0
ARC
  5
1B2
330
81
100
AcDbEntity
  8
1
  6
Continuous
 62
     2
100
AcDbCircle
 10
113.3303177130306
 20
5.977630199748894
 30
0.0
 40
0.5
100
AcDbArc
 50
181.9999999999996
 51
272.0000000000101
  0
ARC
  5
1B3
330
81
100
AcDbEntity
  8
1
  6
Continuous
 62
     2
100
AcDbCircle
 10
113.3303177130306
 20
5.977630199748894
 30
0.0
 40
0.5
100
AcDbArc
 50
181.9999999999996
 51
272.0000000000101
  0
ARC
  5
1B4
330
81
100
AcDbEntity
  8
1
  6
Continuous
 62
     2
100
AcDbCircle
 10
112.2693625174211
 20
7.705703555206021
 30
0.0
 40
0.5
100
AcDbArc
 50
1.999999999999657
 51
92.00000000001019
  0
ARC
  5
1B5
330
81
100
AcDbEntity
  8
1
  6
Continuous
 62
     2
100
AcDbCircle
 10
112.2693625174211
 20
7.705703555206021
 30
0.0
 40
0.5
100
AcDbArc
 50
1.999999999999657
 51
92.00000000001019
  0
ARC
  5
1B6
330
81
100
AcDbEntity
  8
1
  6
Continuous
 62
     2
100
AcDbCircle
 10
105.7413161956422
 20
7.477739154371733
 30
0.0
 40
0.5
100
AcDbArc
 50
91.99999999999713
 51
181.9999999999996
  0
ARC
  5
1B7
330
81
100
AcDbEntity
  8
1
  6
Continuous
 62
     2
100
AcDbCircle
 10
105.7413161956422
 20
7.477739154371733
 30
0.0
 40
0.5
100
AcDbArc
 50
91.99999999999713
 51
181.9999999999996
  0
ARC
  5
1B8
330
81
100
AcDbEntity
  8
1
  6
Continuous
 62
     2
100
AcDbCircle
 10
104.8034897372136
 20
5.679866805509604
 30
0.0
 40
0.5
100
AcDbArc
 50
272.0000000000036
 51
2.000000000000471
  0
ARC
  5
1B9
330
81
100
AcDbEntity
  8
1
  6
Continuous
 62
     2
100
AcDbCircle
 10
104.8034897372136
 20
5.679866805509604
 30
0.0
 40
0.5
100
AcDbArc
 50
272.0000000000036
 51
2.000000000000471
  0
ARC
  5
1BA
330
81
100
AcDbEntity
  8
1
  6
Continuous
 62
     1
100
AcDbCircle
 10
103.8386383867544
 20
-148.3371505273131
 30
0.0
 40
175.0
100
AcDbArc
 50
102.5686585011657
 51
104.0873504177562
  0
ARC
  5
1BB
330
81
100
AcDbEntity
  8
1
  6
Continuous
 62
     1
100
AcDbCircle
 10
103.8386383867544
 20
-148.3371505273131
 30
0.0
 40
175.0
100
AcDbArc
 50
102.5686585011657
 51
104.0873504177562
  0
ARC
  5
1BC
330
81
100
AcDbEntity
  8
1
  6
Continuous
 62
     1
100
AcDbCircle
 10
5.67430338038227
 20
8.418503404622626
 30
0.0
 40
0.25
100
AcDbArc
 50
19.99999999999342
 51
108.2585459617599
  0
ARC
  5
1BD
330
81
100
AcDbEntity
  8
1
  6
Continuous
 62
     1
100
AcDbCircle
 10
5.67430338038227
 20
8.418503404622626
 30
0.0
 40
0.25
100
AcDbArc
 50
19.99999999999342
 51
108.2585459617599
  0
ARC
  5
1BE
330
81
100
AcDbEntity
  8
1
  6
Continuous
 62
     1
100
AcDbCircle
 10
7.609366345110459
 20
8.949570404135258
 30
0.0
 40
0.25
100
AcDbArc
 50
102.4347466357169
 51
199.9999999999995
  0
ARC
  5
1BF
330
81
100
AcDbEntity
  8
1
  6
Continuous
 62
     1
100
AcDbCircle
 10
7.609366345110459
 20
8.949570404135258
 30
0.0
 40
0.25
100
AcDbArc
 50
102.4347466357169
 51
199.9999999999995
  0
ARC
  5
1C0
330
81
100
AcDbEntity
  8
1
  6
Continuous
 62
     1
100
AcDbCircle
 10
9.452542011832904
 20
3.88548687972704
 30
0.0
 40
0.25
100
AcDbArc
 50
199.9999999999995
 51
270.0
  0
ARC
  5
1C1
330
81
100
AcDbEntity
  8
1
  6
Continuous
 62
     1
100
AcDbCircle
 10
9.452542011832904
 20
3.88548687972704
 30
0.0
 40
0.25
100
AcDbArc
 50
199.9999999999995
 51
270.0
  0
LINE
  5
1C2
330
81
100
AcDbEntity
  8
1
  6
Continuous
 62
     1
100
AcDbLine
 10
129.4297827901909
 20
5.802964878553638
 30
0.0
 11
131.4147753731204
 21
8.031991442071899
 31
0.0
  0
LINE
  5
1C3
330
81
100
AcDbEntity
  8
1
  6
Continuous
 62
     1
100
AcDbLine
 10
131.4147753731204
 20
8.031991442071899
 30
0.0
 11
133.6651935181696
 21
8.162313227246585
 31
0.0
  0
LINE
  5
1C4
330
81
100
AcDbEntity
  8
1
  6
Continuous
 62
     1
100
AcDbLine
 10
118.7286463092877
 20
7.279976318438912
 30
0.0
 11
129.4805735258204
 21
7.906958598256267
 31
0.0
  0
LINE
  5
1C5
330
81
100
AcDbEntity
  8
1
  6
Continuous
 62
     1
100
AcDbLine
 10
118.7286463092877
 20
0.892489384125895
 30
0.0
 11
118.7286463092877
 21
7.279976318438912
 31
0.0
  0
LINE
  5
1C6
330
81
100
AcDbEntity
  8
1
  6
Continuous
 62
     1
100
AcDbLine
 10
129.6015376338358
 20
7.499495078406113
 30
0.0
 11
128.6829786157633
 21
6.468008880900499
 31
0.0
  0
LINE
  5
1C7
330
81
100
AcDbEntity
  8
1
  6
Continuous
 62
     1
100
AcDbLine
 10
129.0563807029771
 20
5.635486879727068
 30
0.0
 11
129.0563807029771
 21
5.635486879727068
 31
0.0
  0
LINE
  5
1C8
330
81
100
AcDbEntity
  8
1
  6
Continuous
 62
     1
100
AcDbLine
 10
115.3966176672943
 20
8.838647015795999
 30
0.0
 11
129.927883588347
 21
9.686015683043365
 31
0.0
  0
ARC
  5
1C9
330
81
100
AcDbEntity
  8
1
  6
Continuous
 62
     1
100
AcDbCircle
 10
129.4148365902288
 20
7.665756078992814
 30
0.0
 40
0.25
100
AcDbArc
 50
318.3142987784165
 51
74.75495709474764
  0
ARC
  5
1CA
330
81
100
AcDbEntity
  8
1
  6
Continuous
 62
     1
100
AcDbCircle
 10
129.4148365902288
 20
7.665756078992814
 30
0.0
 40
0.25
100
AcDbArc
 50
318.3142987784165
 51
74.75495709474764
  0
ARC
  5
1CB
330
81
100
AcDbEntity
  8
1
  6
Continuous
 62
     1
100
AcDbCircle
 10
129.0563807029771
 20
6.135486879727068
 30
0.0
 40
0.500000000000002
100
AcDbArc
 50
138.3142987784167
 51
318.3142987784173
  0
ARC
  5
1CC
330
81
100
AcDbEntity
  8
1
  6
Continuous
 62
     1
100
AcDbCircle
 10
129.0563807029771
 20
6.135486879727068
 30
0.0
 40
0.500000000000002
100
AcDbArc
 50
138.3142987784167
 51
318.3142987784173
  0
LINE
  5
1CD
330
81
100
AcDbEntity
  8
1
  6
Continuous
 62
     1
100
AcDbLine
 10
139.7796586732788
 20
5.760655090847138
 30
0.0
 11
143.1304543100922
 21
6.1490291129995
 31
0.0
  0
ARC
  5
1CE
330
81
100
AcDbEntity
  8
1
  6
Continuous
 62
     1
100
AcDbCircle
 10
143.5876999134538
 20
6.355063283651816
 30
0.0
 40
0.5015213068951968
100
AcDbArc
 50
204.2562545032229
 51
270.0
  0
ARC
  5
1CF
330
81
100
AcDbEntity
  8
1
  6
Continuous
 62
     1
100
AcDbCircle
 10
143.5876999134538
 20
6.355063283651816
 30
0.0
 40
0.5015213068951968
100
AcDbArc
 50
204.2562545032229
 51
270.0
  0
ARC
  5
1D0
330
81
100
AcDbEntity
  8
1
  6
Continuous
 62
     1
100
AcDbCircle
 10
143.5876999134538
 20
6.355063283651816
 30
0.0
 40
0.5015213068951968
100
AcDbArc
 50
204.2562545032229
 51
308.9164129548214
  0
ARC
  5
1D1
330
81
100
AcDbEntity
  8
1
  6
Continuous
 62
     1
100
AcDbCircle
 10
143.5876999134538
 20
6.355063283651816
 30
0.0
 40
0.5015213068951968
100
AcDbArc
 50
204.2562545032229
 51
308.9164129548214
  0
ARC
  5
1D2
330
81
100
AcDbEntity
  8
1
  6
Continuous
 62
     1
100
AcDbCircle
 10
145.0013310170895
 20
4.604157596841787
 30
0.0
 40
1.75
100
AcDbArc
 50
231.0625590164827
 51
128.9164129548213
  0
ARC
  5
1D3
330
81
100
AcDbEntity
  8
1
  6
Continuous
 62
     1
100
AcDbCircle
 10
145.0013310170895
 20
4.604157596841787
 30
0.0
 40
1.75
100
AcDbArc
 50
231.0625590164827
 51
128.9164129548213
  0
ARC
  5
1D4
330
81
100
AcDbEntity
  8
1
  6
Continuous
 62
     1
100
AcDbCircle
 10
143.5872344973301
 20
2.853990013761091
 30
0.0
 40
0.5002554707968072
100
AcDbArc
 50
51.06255901648204
 51
180.0
  0
ARC
  5
1D5
330
81
100
AcDbEntity
  8
1
  6
Continuous
 62
     1
100
AcDbCircle
 10
143.5872344973301
 20
2.853990013761091
 30
0.0
 40
0.5002554707968072
100
AcDbArc
 50
51.06255901648204
 51
180.0
  0
LINE
  5
1D6
330
81
100
AcDbEntity
  8
1
  6
Continuous
 62
     1
100
AcDbLine
 10
143.5869790265333
 20
0.6354868797270683
 30
0.0
 11
143.5874899681269
 21
0.6354868797270683
 31
0.0
  0
ARC
  5
1D7
330
81
100
AcDbEntity
  8
1
  6
Continuous
 62
     1
100
AcDbCircle
 10
145.0013310170895
 20
4.604157596841787
 30
0.0
 40
2.75
100
AcDbArc
 50
250.5912097548767
 51
309.5211963586422
  0
ARC
  5
1D8
330
81
100
AcDbEntity
  8
1
  6
Continuous
 62
     1
100
AcDbCircle
 10
145.0013310170895
 20
4.604157596841787
 30
0.0
 40
2.75
100
AcDbArc
 50
250.5912097548767
 51
309.5211963586422
  0
LINE
  5
1D9
330
81
100
AcDbEntity
  8
1
  6
Continuous
 62
     1
100
AcDbLine
 10
146.7513310170895
 20
2.482837253282156
 30
0.0
 11
146.7513310170895
 21
1.135486879727068
 31
0.0
  0
LINE
  5
1DA
330
81
100
AcDbEntity
  8
1
  6
Continuous
 62
     1
100
AcDbLine
 10
147.2513310170895
 20
0.6354868797270683
 30
0.0
 11
147.7513310170895
 21
0.6354868797270683
 31
0.0
  0
LINE
  5
1DB
330
81
100
AcDbEntity
  8
1
  6
Continuous
 62
     1
100
AcDbLine
 10
148.2513310170895
 20
1.135486879727068
 30
0.0
 11
148.2513310170895
 21
4.604157596841787
 31
0.0
  0
LINE
  5
1DC
330
81
100
AcDbEntity
  8
1
  6
Continuous
 62
     1
100
AcDbLine
 10
148.2513310170895
 20
11.58322576647345
 30
0.0
 11
148.2513310170895
 21
12.13548687972704
 31
0.0
  0
LINE
  5
1DD
330
81
100
AcDbEntity
  8
1
  6
Continuous
 62
     1
100
AcDbLine
 10
148.7513310170895
 20
12.63548687972704
 30
0.0
 11
149.2513310170895
 21
12.63548687972704
 31
0.0
  0
LINE
  5
1DE
330
81
100
AcDbEntity
  8
1
  6
Continuous
 62
     1
100
AcDbLine
 10
149.7513310170895
 20
12.13548687972704
 30
0.0
 11
149.7513310170895
 21
10.13548687972704
 31
0.0
  0
LINE
  5
1DF
330
81
100
AcDbEntity
  8
1
  6
Continuous
 62
     1
100
AcDbLine
 10
150.2513310170895
 20
9.63548687972704
 30
0.0
 11
150.4513310170895
 21
9.63548687972704
 31
0.0
  0
LINE
  5
1E0
330
81
100
AcDbEntity
  8
1
  6
Continuous
 62
     1
100
AcDbLine
 10
150.9513310170895
 20
10.13548687972704
 30
0.0
 11
150.9513310170895
 21
12.13548687972704
 31
0.0
  0
LINE
  5
1E1
330
81
100
AcDbEntity
  8
1
  6
Continuous
 62
     1
100
AcDbLine
 10
148.9513310170895
 20
14.13548687972704
 30
0.0
 11
147.7513310170895
 21
14.13548687972704
 31
0.0
  0
ARC
  5
1E2
330
81
100
AcDbEntity
  8
1
  6
Continuous
 62
     1
100
AcDbCircle
 10
143.5869790265333
 20
1.135486879727068
 30
0.0
 40
0.5
100
AcDbArc
 50
180.0
 51
270.0
  0
ARC
  5
1E3
330
81
100
AcDbEntity
  8
1
  6
Continuous
 62
     1
100
AcDbCircle
 10
143.5869790265333
 20
1.135486879727068
 30
0.0
 40
0.5
100
AcDbArc
 50
180.0
 51
270.0
  0
ARC
  5
1E4
330
81
100
AcDbEntity
  8
1
  6
Continuous
 62
     1
100
AcDbCircle
 10
143.5874899681269
 20
1.135486879727068
 30
0.0
 40
0.5
100
AcDbArc
 50
270.0
 51
0.0
  0
ARC
  5
1E5
330
81
100
AcDbEntity
  8
1
  6
Continuous
 62
     1
100
AcDbCircle
 10
143.5874899681269
 20
1.135486879727068
 30
0.0
 40
0.5
100
AcDbArc
 50
270.0
 51
0.0
  0
ARC
  5
1E6
330
81
100
AcDbEntity
  8
1
  6
Continuous
 62
     1
100
AcDbCircle
 10
147.2513310170895
 20
1.135486879727068
 30
0.0
 40
0.5
100
AcDbArc
 50
180.0
 51
270.0
  0
ARC
  5
1E7
330
81
100
AcDbEntity
  8
1
  6
Continuous
 62
     1
100
AcDbCircle
 10
147.2513310170895
 20
1.135486879727068
 30
0.0
 40
0.5
100
AcDbArc
 50
180.0
 51
270.0
  0
ARC
  5
1E8
330
81
100
AcDbEntity
  8
1
  6
Continuous
 62
     1
100
AcDbCircle
 10
147.7513310170895
 20
1.135486879727068
 30
0.0
 40
0.5
100
AcDbArc
 50
270.0
 51
0.0
  0
ARC
  5
1E9
330
81
100
AcDbEntity
  8
1
  6
Continuous
 62
     1
100
AcDbCircle
 10
147.7513310170895
 20
1.135486879727068
 30
0.0
 40
0.5
100
AcDbArc
 50
270.0
 51
0.0
  0
ARC
  5
1EA
330
81
100
AcDbEntity
  8
1
  6
Continuous
 62
     1
100
AcDbCircle
 10
148.7513310170895
 20
12.13548687972704
 30
0.0
 40
0.5
100
AcDbArc
 50
90.0
 51
180.0
  0
ARC
  5
1EB
330
81
100
AcDbEntity
  8
1
  6
Continuous
 62
     1
100
AcDbCircle
 10
148.7513310170895
 20
12.13548687972704
 30
0.0
 40
0.5
100
AcDbArc
 50
90.0
 51
180.0
  0
ARC
  5
1EC
330
81
100
AcDbEntity
  8
1
  6
Continuous
 62
     1
100
AcDbCircle
 10
149.2513310170895
 20
12.13548687972704
 30
0.0
 40
0.5
100
AcDbArc
 50
0.0
 51
90.0
  0
ARC
  5
1ED
330
81
100
AcDbEntity
  8
1
  6
Continuous
 62
     1
100
AcDbCircle
 10
149.2513310170895
 20
12.13548687972704
 30
0.0
 40
0.5
100
AcDbArc
 50
0.0
 51
90.0
  0
ARC
  5
1EE
330
81
100
AcDbEntity
  8
1
  6
Continuous
 62
     1
100
AcDbCircle
 10
150.2513310170895
 20
10.13548687972704
 30
0.0
 40
0.5
100
AcDbArc
 50
180.0
 51
270.0
  0
ARC
  5
1EF
330
81
100
AcDbEntity
  8
1
  6
Continuous
 62
     1
100
AcDbCircle
 10
150.2513310170895
 20
10.13548687972704
 30
0.0
 40
0.5
100
AcDbArc
 50
180.0
 51
270.0
  0
ARC
  5
1F0
330
81
100
AcDbEntity
  8
1
  6
Continuous
 62
     1
100
AcDbCircle
 10
150.4513310170895
 20
10.13548687972704
 30
0.0
 40
0.5
100
AcDbArc
 50
270.0
 51
0.0
  0
ARC
  5
1F1
330
81
100
AcDbEntity
  8
1
  6
Continuous
 62
     1
100
AcDbCircle
 10
150.4513310170895
 20
10.13548687972704
 30
0.0
 40
0.5
100
AcDbArc
 50
270.0
 51
0.0
  0
ARC
  5
1F2
330
81
100
AcDbEntity
  8
1
  6
Continuous
 62
     1
100
AcDbCircle
 10
148.9513310170895
 20
12.13548687972704
 30
0.0
 40
2.0
100
AcDbArc
 50
0.0
 51
90.0
  0
ARC
  5
1F3
330
81
100
AcDbEntity
  8
1
  6
Continuous
 62
     1
100
AcDbCircle
 10
148.9513310170895
 20
12.13548687972704
 30
0.0
 40
2.0
100
AcDbArc
 50
0.0
 51
90.0
  0
ARC
  5
1F4
330
81
100
AcDbEntity
  8
1
  6
Continuous
 62
     1
100
AcDbCircle
 10
145.7513310170895
 20
11.58322576647345
 30
0.0
 40
2.5
100
AcDbArc
 50
292.1007163205018
 51
0.0
  0
ARC
  5
1F5
330
81
100
AcDbEntity
  8
1
  6
Continuous
 62
     1
100
AcDbCircle
 10
145.7513310170895
 20
11.58322576647345
 30
0.0
 40
2.5
100
AcDbArc
 50
292.1007163205018
 51
0.0
  0
ARC
  5
1F6
330
81
100
AcDbEntity
  8
1
  6
Continuous
 62
     1
100
AcDbCircle
 10
147.0727336340136
 20
8.3291202559804
 30
0.0
 40
1.012166194474177
100
AcDbArc
 50
112.100716320502
 51
240.922141263681
  0
ARC
  5
1F7
330
81
100
AcDbEntity
  8
1
  6
Continuous
 62
     1
100
AcDbCircle
 10
147.0727336340136
 20
8.3291202559804
 30
0.0
 40
1.012166194474177
100
AcDbArc
 50
112.100716320502
 51
240.922141263681
  0
ARC
  5
1F8
330
81
100
AcDbEntity
  8
1
  6
Continuous
 62
     1
100
AcDbCircle
 10
145.0013310170895
 20
4.604157596841787
 30
0.0
 40
3.25
100
AcDbArc
 50
0.0
 51
60.92214126368091
  0
ARC
  5
1F9
330
81
100
AcDbEntity
  8
1
  6
Continuous
 62
     1
100
AcDbCircle
 10
145.0013310170895
 20
4.604157596841787
 30
0.0
 40
3.25
100
AcDbArc
 50
0.0
 51
60.92214126368091
  0
LINE
  5
1FA
330
81
100
AcDbEntity
  8
1
  6
Continuous
 62
     1
100
AcDbLine
 10
143.0869790265333
 20
2.853990013761091
 30
0.0
 11
143.0869790265333
 21
1.135486879727068
 31
0.0
  0
LINE
  5
1FB
330
81
100
AcDbEntity
  8
1
  6
Continuous
 62
     1
100
AcDbLine
 10
144.0874899681269
 20
1.135486879727068
 30
0.0
 11
144.0874899681269
 21
2.010435457284245
 31
0.0
  0
ARC
  5
1FC
330
81
100
AcDbEntity
  8
1
  6
Continuous
 62
     1
100
AcDbCircle
 10
145.7513310170895
 20
11.58322576647345
 30
0.0
 40
1.0
100
AcDbArc
 50
228.9176668595489
 51
0.0
  0
ARC
  5
1FD
330
81
100
AcDbEntity
  8
1
  6
Continuous
 62
     1
100
AcDbCircle
 10
145.7513310170895
 20
11.58322576647345
 30
0.0
 40
1.0
100
AcDbArc
 50
228.9176668595489
 51
0.0
  0
LINE
  5
1FE
330
81
100
AcDbEntity
  8
1
  6
Continuous
 62
     1
100
AcDbLine
 10
146.7513310170895
 20
11.58322576647345
 30
0.0
 11
146.7513310170895
 21
13.13548687972704
 31
0.0
  0
ARC
  5
1FF
330
81
100
AcDbEntity
  8
1
  6
Continuous
 62
     1
100
AcDbCircle
 10
147.7513310170895
 20
13.13548687972704
 30
0.0
 40
1.0
100
AcDbArc
 50
90.0
 51
180.0
  0
ARC
  5
200
330
81
100
AcDbEntity
  8
1
  6
Continuous
 62
     1
100
AcDbCircle
 10
147.7513310170895
 20
13.13548687972704
 30
0.0
 40
1.0
100
AcDbArc
 50
90.0
 51
180.0
  0
ARC
  5
201
330
81
100
AcDbEntity
  8
1
  6
Continuous
 62
     1
100
AcDbCircle
 10
130.9173132595023
 20
9.54100214630435
 30
0.0
 40
1.0
100
AcDbArc
 50
93.00000000000009
 51
171.6619369279554
  0
ARC
  5
202
330
81
100
AcDbEntity
  8
1
  6
Continuous
 62
     1
100
AcDbCircle
 10
130.9173132595023
 20
9.54100214630435
 30
0.0
 40
1.0
100
AcDbArc
 50
93.00000000000009
 51
171.6619369279554
  0
LINE
  5
203
330
81
100
AcDbEntity
  8
1
  6
Continuous
 62
     1
100
AcDbLine
 10
138.2774545505847
 20
10.92810315257734
 30
0.0
 11
139.5621252986899
 21
11.0185367275626
 31
0.0
  0
LINE
  5
204
330
81
100
AcDbEntity
  8
1
  6
Continuous
 62
     1
100
AcDbLine
 10
134.1643572280711
 20
8.191219813301245
 30
0.0
 11
136.4147753731204
 21
8.32154159847596
 31
0.0
  0
LINE
  5
205
330
81
100
AcDbEntity
  8
1
  6
Continuous
 62
     1
100
AcDbLine
 10
140.029761023
 20
7.297883337935062
 30
0.0
 11
143.5061819965198
 21
7.703465900271894
 31
0.0
  0
ARC
  5
206
330
81
100
AcDbEntity
  8
1
  6
Continuous
 62
     1
100
AcDbCircle
 10
139.6428215028617
 20
10.3987680968971
 30
0.0
 40
0.6250000263394418
100
AcDbArc
 50
277.41839220424
 51
97.41839222570401
  0
ARC
  5
207
330
81
100
AcDbEntity
  8
1
  6
Continuous
 62
     1
100
AcDbCircle
 10
139.6428215028617
 20
10.3987680968971
 30
0.0
 40
0.6250000263394418
100
AcDbArc
 50
277.41839220424
 51
97.41839222570401
  0
LINE
  5
208
330
81
100
AcDbEntity
  8
1
  6
Continuous
 62
     1
100
AcDbLine
 10
139.6428215028617
 20
10.3987680968971
 30
0.0
 11
139.6428215028617
 21
10.3987680968971
 31
0.0
  0
LINE
  5
209
330
81
100
AcDbEntity
  8
1
  6
Continuous
 62
     1
100
AcDbLine
 10
139.8849101017748
 20
8.53946225704928
 30
0.0
 11
139.8849101017748
 21
8.53946225704928
 31
0.0
  0
LINE
  5
20A
330
81
100
AcDbEntity
  8
1
  6
Continuous
 62
     1
100
AcDbLine
 10
143.3613310170894
 20
8.945044574818866
 30
0.0
 11
143.3613310170894
 21
8.945044574818866
 31
0.0
  0
LINE
  5
20B
330
81
100
AcDbEntity
  8
1
  6
Continuous
 62
     1
100
AcDbLine
 10
143.1689055585006
 20
10.8101445417519
 30
0.0
 11
143.1689055585006
 21
10.8101445417519
 31
0.0
  0
LINE
  5
20C
330
81
100
AcDbEntity
  8
1
  6
Continuous
 62
     1
100
AcDbLine
 10
136.2801954810755
 20
10.82343124009142
 30
0.0
 11
135.6810177602228
 21
10.79202966634568
 31
0.0
  0
LINE
  5
20D
330
81
100
AcDbEntity
  8
1
  6
Continuous
 62
     1
100
AcDbLine
 10
133.6837586907136
 20
10.68735775385977
 30
0.0
 11
133.0845809698609
 21
10.655956180114
 31
0.0
  0
LINE
  5
20E
330
81
100
AcDbEntity
  8
1
  6
Continuous
 62
     1
100
AcDbLine
 10
131.0873219003518
 20
10.55128426762812
 30
0.0
 11
130.8649773032593
 21
10.53963168105892
 31
0.0
  0
ARC
  5
20F
330
81
100
AcDbEntity
  8
1
  6
Continuous
 62
     1
100
AcDbCircle
 10
132.0859514351063
 20
10.60362022387108
 30
0.0
 40
1.0
100
AcDbArc
 50
183.0
 51
2.999999999999994
  0
ARC
  5
210
330
81
100
AcDbEntity
  8
1
  6
Continuous
 62
     1
100
AcDbCircle
 10
132.0859514351063
 20
10.60362022387108
 30
0.0
 40
1.0
100
AcDbArc
 50
183.0
 51
2.999999999999994
  0
ARC
  5
211
330
81
100
AcDbEntity
  8
1
  6
Continuous
 62
     1
100
AcDbCircle
 10
134.6823882254682
 20
10.73969371010273
 30
0.0
 40
1.0
100
AcDbArc
 50
183.0
 51
3.000000000000095
  0
ARC
  5
212
330
81
100
AcDbEntity
  8
1
  6
Continuous
 62
     1
100
AcDbCircle
 10
134.6823882254682
 20
10.73969371010273
 30
0.0
 40
1.0
100
AcDbArc
 50
183.0
 51
3.000000000000095
  0
ARC
  5
213
330
81
100
AcDbEntity
  8
1
  6
Continuous
 62
     1
100
AcDbCircle
 10
137.2788250158301
 20
10.87576719633438
 30
0.0
 40
1.0
100
AcDbArc
 50
182.9999999999999
 51
3.000000000000106
  0
ARC
  5
214
330
81
100
AcDbEntity
  8
1
  6
Continuous
 62
     1
100
AcDbCircle
 10
137.2788250158301
 20
10.87576719633438
 30
0.0
 40
1.0
100
AcDbArc
 50
182.9999999999999
 51
3.000000000000106
  0
LINE
  5
215
330
81
100
AcDbEntity
  8
1
  6
Continuous
 62
     1
100
AcDbLine
 10
136.4147753731204
 20
8.32154159847596
 30
0.0
 11
138.5462971400663
 21
6.190019831529952
 31
0.0
  0
ARC
  5
216
330
81
100
AcDbEntity
  8
1
  6
Continuous
 62
     1
100
AcDbCircle
 10
139.6069573118462
 20
7.250680003309782
 30
0.0
 40
1.5
100
AcDbArc
 50
224.9999999999998
 51
276.6113679192284
  0
ARC
  5
217
330
81
100
AcDbEntity
  8
1
  6
Continuous
 62
     1
100
AcDbCircle
 10
139.6069573118462
 20
7.250680003309782
 30
0.0
 40
1.5
100
AcDbArc
 50
224.9999999999998
 51
276.6113679192284
  0
LINE
  5
218
330
81
100
AcDbEntity
  8
1
  6
Continuous
 62
     1
100
AcDbLine
 10
133.6651935181696
 20
8.162313227246585
 30
0.0
 11
133.900322080093
 21
8.426348375224677
 31
0.0
  0
LINE
  5
219
330
81
100
AcDbEntity
  8
1
  6
Continuous
 62
     1
100
AcDbLine
 10
133.900322080093
 20
8.426348375224677
 30
0.0
 11
134.1643572280711
 21
8.191219813301245
 31
0.0
  0
ARC
  5
21A
330
81
100
AcDbEntity
  8
1
  6
Continuous
 62
     1
100
AcDbCircle
 10
145.7513310170895
 20
11.58322576647345
 30
0.0
 40
1.0
100
AcDbArc
 50
228.9176668595483
 51
0.0
  0
ARC
  5
21B
330
81
100
AcDbEntity
  8
1
  6
Continuous
 62
     1
100
AcDbCircle
 10
145.7513310170895
 20
11.58322576647345
 30
0.0
 40
1.0
100
AcDbArc
 50
228.9176668595483
 51
0.0
  0
LINE
  5
21C
330
81
100
AcDbEntity
  8
1
  6
Continuous
 62
     1
100
AcDbLine
 10
146.7513310170895
 20
11.58322576647345
 30
0.0
 11
146.7513310170895
 21
13.13548687972704
 31
0.0
  0
ARC
  5
21D
330
81
100
AcDbEntity
  8
1
  6
Continuous
 62
     1
100
AcDbCircle
 10
147.7513310170895
 20
13.13548687972704
 30
0.0
 40
1.0
100
AcDbArc
 50
90.0
 51
180.0
  0
ARC
  5
21E
330
81
100
AcDbEntity
  8
1
  6
Continuous
 62
     1
100
AcDbCircle
 10
147.7513310170895
 20
13.13548687972704
 30
0.0
 40
1.0
100
AcDbArc
 50
90.0
 51
180.0
  0
ARC
  5
21F
330
81
100
AcDbEntity
  8
1
  6
Continuous
 62
     1
100
AcDbCircle
 10
130.9173132595023
 20
9.54100214630435
 30
0.0
 40
1.0
100
AcDbArc
 50
93.00000000000009
 51
180.0
  0
ARC
  5
220
330
81
100
AcDbEntity
  8
1
  6
Continuous
 62
     1
100
AcDbCircle
 10
130.9173132595023
 20
9.54100214630435
 30
0.0
 40
1.0
100
AcDbArc
 50
93.00000000000009
 51
180.0
  0
LINE
  5
221
330
81
100
AcDbEntity
  8
1
  6
Continuous
 62
     1
100
AcDbLine
 10
138.2774545505847
 20
10.92810315257734
 30
0.0
 11
139.5621252986899
 21
11.0185367275626
 31
0.0
  0
LINE
  5
222
330
81
100
AcDbEntity
  8
1
  6
Continuous
 62
     1
100
AcDbLine
 10
134.1643572280711
 20
8.191219813301245
 30
0.0
 11
136.4147753731204
 21
8.32154159847596
 31
0.0
  0
ARC
  5
223
330
81
100
AcDbEntity
  8
1
  6
Continuous
 62
     1
100
AcDbCircle
 10
143.4513310170895
 20
8.945044574818866
 30
0.0
 40
2.5
100
AcDbArc
 50
48.91766685954851
 51
101.7410346608773
  0
ARC
  5
224
330
81
100
AcDbEntity
  8
1
  6
Continuous
 62
     1
100
AcDbCircle
 10
143.4513310170895
 20
8.945044574818866
 30
0.0
 40
2.5
100
AcDbArc
 50
48.91766685954851
 51
101.7410346608773
  0
ARC
  5
225
330
81
100
AcDbEntity
  8
1
  6
Continuous
 62
     1
100
AcDbCircle
 10
143.3613310813993
 20
8.945044819386084
 30
0.0
 40
1.25
100
AcDbArc
 50
276.6544269228391
 51
95.89046225021822
  0
ARC
  5
226
330
81
100
AcDbEntity
  8
1
  6
Continuous
 62
     1
100
AcDbCircle
 10
143.3613310813993
 20
8.945044819386084
 30
0.0
 40
1.25
100
AcDbArc
 50
276.6544269228391
 51
95.89046225021822
  0
ARC
  5
227
330
81
100
AcDbEntity
  8
1
  6
Continuous
 62
     1
100
AcDbCircle
 10
143.1689055585006
 20
10.8101445417519
 30
0.0
 40
0.6249998816620556
100
AcDbArc
 50
111.2275943113439
 51
275.8904622502185
  0
ARC
  5
228
330
81
100
AcDbEntity
  8
1
  6
Continuous
 62
     1
100
AcDbCircle
 10
143.1689055585006
 20
10.8101445417519
 30
0.0
 40
0.6249998816620556
100
AcDbArc
 50
111.2275943113439
 51
275.8904622502185
  0
ARC
  5
229
330
81
100
AcDbEntity
  8
1
  6
Continuous
 62
     1
100
AcDbCircle
 10
139.8849101078798
 20
8.53946225704928
 30
0.0
 40
1.25
100
AcDbArc
 50
97.41839220424028
 51
276.6544269228263
  0
ARC
  5
22A
330
81
100
AcDbEntity
  8
1
  6
Continuous
 62
     1
100
AcDbCircle
 10
139.8849101078798
 20
8.53946225704928
 30
0.0
 40
1.25
100
AcDbArc
 50
97.41839220424028
 51
276.6544269228263
  0
ARC
  5
22B
330
81
100
AcDbEntity
  8
1
  6
Continuous
 62
     1
100
AcDbCircle
 10
139.6428215028617
 20
10.3987680968971
 30
0.0
 40
0.6250000263394418
100
AcDbArc
 50
277.41839220424
 51
97.41839222570401
  0
ARC
  5
22C
330
81
100
AcDbEntity
  8
1
  6
Continuous
 62
     1
100
AcDbCircle
 10
139.6428215028617
 20
10.3987680968971
 30
0.0
 40
0.6250000263394418
100
AcDbArc
 50
277.41839220424
 51
97.41839222570401
  0
LINE
  5
22D
330
81
100
AcDbEntity
  8
1
  6
Continuous
 62
     1
100
AcDbLine
 10
139.6428215028617
 20
10.3987680968971
 30
0.0
 11
139.6428215028617
 21
10.3987680968971
 31
0.0
  0
LINE
  5
22E
330
81
100
AcDbEntity
  8
1
  6
Continuous
 62
     1
100
AcDbLine
 10
139.8849101017748
 20
8.53946225704928
 30
0.0
 11
139.8849101017748
 21
8.53946225704928
 31
0.0
  0
LINE
  5
22F
330
81
100
AcDbEntity
  8
1
  6
Continuous
 62
     1
100
AcDbLine
 10
143.3613310170894
 20
8.945044574818866
 30
0.0
 11
143.3613310170894
 21
8.945044574818866
 31
0.0
  0
LINE
  5
230
330
81
100
AcDbEntity
  8
1
  6
Continuous
 62
     1
100
AcDbLine
 10
143.1689055585006
 20
10.8101445417519
 30
0.0
 11
143.1689055585006
 21
10.8101445417519
 31
0.0
  0
LINE
  5
231
330
81
100
AcDbEntity
  8
1
  6
Continuous
 62
     1
100
AcDbLine
 10
136.2801954810755
 20
10.82343124009142
 30
0.0
 11
135.6810177602228
 21
10.79202966634568
 31
0.0
  0
LINE
  5
232
330
81
100
AcDbEntity
  8
1
  6
Continuous
 62
     1
100
AcDbLine
 10
133.6837586907136
 20
10.68735775385977
 30
0.0
 11
133.0845809698609
 21
10.655956180114
 31
0.0
  0
LINE
  5
233
330
81
100
AcDbEntity
  8
1
  6
Continuous
 62
     1
100
AcDbLine
 10
131.0873219003518
 20
10.55128426762812
 30
0.0
 11
130.8649773032593
 21
10.53963168105892
 31
0.0
  0
ARC
  5
234
330
81
100
AcDbEntity
  8
1
  6
Continuous
 62
     1
100
AcDbCircle
 10
132.0859514351063
 20
10.60362022387108
 30
0.0
 40
1.0
100
AcDbArc
 50
183.0
 51
2.999999999999994
  0
ARC
  5
235
330
81
100
AcDbEntity
  8
1
  6
Continuous
 62
     1
100
AcDbCircle
 10
132.0859514351063
 20
10.60362022387108
 30
0.0
 40
1.0
100
AcDbArc
 50
183.0
 51
2.999999999999994
  0
ARC
  5
236
330
81
100
AcDbEntity
  8
1
  6
Continuous
 62
     1
100
AcDbCircle
 10
134.6823882254682
 20
10.73969371010273
 30
0.0
 40
1.0
100
AcDbArc
 50
183.0
 51
3.000000000000095
  0
ARC
  5
237
330
81
100
AcDbEntity
  8
1
  6
Continuous
 62
     1
100
AcDbCircle
 10
134.6823882254682
 20
10.73969371010273
 30
0.0
 40
1.0
100
AcDbArc
 50
183.0
 51
3.000000000000095
  0
ARC
  5
238
330
81
100
AcDbEntity
  8
1
  6
Continuous
 62
     1
100
AcDbCircle
 10
137.2788250158301
 20
10.87576719633438
 30
0.0
 40
1.0
100
AcDbArc
 50
182.9999999999999
 51
3.000000000000106
  0
ARC
  5
239
330
81
100
AcDbEntity
  8
1
  6
Continuous
 62
     1
100
AcDbCircle
 10
137.2788250158301
 20
10.87576719633438
 30
0.0
 40
1.0
100
AcDbArc
 50
182.9999999999999
 51
3.000000000000106
  0
LINE
  5
23A
330
81
100
AcDbEntity
  8
1
  6
Continuous
 62
     1
100
AcDbLine
 10
136.4147753731204
 20
8.32154159847596
 30
0.0
 11
138.5462971400663
 21
6.190019831529952
 31
0.0
  0
ARC
  5
23B
330
81
100
AcDbEntity
  8
1
  6
Continuous
 62
     1
100
AcDbCircle
 10
139.6069573118462
 20
7.250680003309782
 30
0.0
 40
1.5
100
AcDbArc
 50
224.9999999999998
 51
276.6113679192284
  0
ARC
  5
23C
330
81
100
AcDbEntity
  8
1
  6
Continuous
 62
     1
100
AcDbCircle
 10
139.6069573118462
 20
7.250680003309782
 30
0.0
 40
1.5
100
AcDbArc
 50
224.9999999999998
 51
276.6113679192284
  0
LINE
  5
23D
330
81
100
AcDbEntity
  8
1
  6
Continuous
 62
     1
100
AcDbLine
 10
133.6651935181696
 20
8.162313227246585
 30
0.0
 11
133.900322080093
 21
8.426348375224677
 31
0.0
  0
LINE
  5
23E
330
81
100
AcDbEntity
  8
1
  6
Continuous
 62
     1
100
AcDbLine
 10
133.900322080093
 20
8.426348375224677
 30
0.0
 11
134.1643572280711
 21
8.191219813301245
 31
0.0
  0
LINE
  5
23F
330
81
100
AcDbEntity
  8
1
  6
Continuous
 62
     1
100
AcDbLine
 10
117.7250654177469
 20
1.253207971361405
 30
0.0
 11
117.738211200545
 21
0.876762005551484
 31
0.0
  0
LINE
  5
240
330
81
100
AcDbEntity
  8
1
  6
Continuous
 62
     1
100
AcDbLine
 10
117.9880589072998
 20
0.6354868797270967
 30
0.0
 11
118.4787443986665
 21
0.6354868797271251
 31
0.0
  0
ARC
  5
241
330
81
100
AcDbEntity
  8
1
  6
Continuous
 62
     1
100
AcDbCircle
 10
117.9880589072998
 20
0.8854868797270967
 30
0.0
 40
0.25
100
AcDbArc
 50
182.0000000000004
 51
270.0
  0
ARC
  5
242
330
81
100
AcDbEntity
  8
1
  6
Continuous
 62
     1
100
AcDbCircle
 10
117.9880589072998
 20
0.8854868797270967
 30
0.0
 40
0.25
100
AcDbArc
 50
182.0000000000004
 51
270.0
  0
ARC
  5
243
330
81
100
AcDbEntity
  8
1
  6
Continuous
 62
     1
100
AcDbCircle
 10
118.4787443986665
 20
0.8854868797271251
 30
0.0
 40
0.25
100
AcDbArc
 50
270.0
 51
1.605065717640486
  0
ARC
  5
244
330
81
100
AcDbEntity
  8
1
  6
Continuous
 62
     1
100
AcDbCircle
 10
118.4787443986665
 20
0.8854868797271251
 30
0.0
 40
0.25
100
AcDbArc
 50
270.0
 51
1.605065717640486
  0
ARC
  5
245
330
81
100
AcDbEntity
  8
1
  6
Continuous
 62
     1
100
AcDbCircle
 10
113.6385215388205
 20
6.527050983454558
 30
0.0
 40
0.4
100
AcDbArc
 50
161.9999999999993
 51
302.0000000000004
  0
ARC
  5
246
330
81
100
AcDbEntity
  8
1
  6
Continuous
 62
     1
100
AcDbCircle
 10
113.6385215388205
 20
6.527050983454558
 30
0.0
 40
0.4
100
AcDbArc
 50
161.9999999999993
 51
302.0000000000004
  0
LINE
  5
247
330
81
100
AcDbEntity
  8
1
  6
Continuous
 62
     1
100
AcDbLine
 10
113.8504892445138
 20
6.187831744991996
 30
0.0
 11
115.0316678677453
 21
6.925914065779807
 31
0.0
  0
LINE
  5
248
330
81
100
AcDbEntity
  8
1
  6
Continuous
 62
     1
100
AcDbLine
 10
116.5332649875056
 20
6.728198606593708
 30
0.0
 11
116.6554132259644
 21
3.23033071202687
 31
0.0
  0
LINE
  5
249
330
81
100
AcDbEntity
  8
1
  6
Continuous
 62
     1
100
AcDbLine
 10
115.0316678677453
 20
6.925914065779807
 30
0.0
 11
116.2746924065752
 21
6.969321439172859
 31
0.0
  0
ARC
  5
24A
330
81
100
AcDbEntity
  8
1
  6
Continuous
 62
     1
100
AcDbCircle
 10
116.2834172807509
 20
6.719473732418095
 30
0.0
 40
0.25
100
AcDbArc
 50
2.000000000000414
 51
92.0000000000004
  0
ARC
  5
24B
330
81
100
AcDbEntity
  8
1
  6
Continuous
 62
     1
100
AcDbCircle
 10
116.2834172807509
 20
6.719473732418095
 30
0.0
 40
0.25
100
AcDbArc
 50
2.000000000000414
 51
92.0000000000004
  0
LINE
  5
24C
330
81
100
AcDbEntity
  8
1
  6
Continuous
 62
     1
100
AcDbLine
 10
112.9471841712416
 20
0.5360254323288984
 30
0.0
 11
112.8839027058187
 21
2.348169504293054
 31
0.0
  0
LINE
  5
24D
330
81
100
AcDbEntity
  8
1
  6
Continuous
 62
     1
100
AcDbLine
 10
112.8839027058187
 20
2.348169504293054
 30
0.0
 11
113.4866694390571
 21
3.119675740665883
 31
0.0
  0
LINE
  5
24E
330
81
100
AcDbEntity
  8
1
  6
Continuous
 62
     1
100
AcDbLine
 10
113.4866694390571
 20
3.119675740665883
 30
0.0
 11
113.9455929838378
 21
2.385244545763385
 31
0.0
  0
LINE
  5
24F
330
81
100
AcDbEntity
  8
1
  6
Continuous
 62
     1
100
AcDbLine
 10
113.9455929838378
 20
2.385244545763385
 30
0.0
 11
116.0819533522798
 21
2.459847893741056
 31
0.0
  0
LINE
  5
250
330
81
100
AcDbEntity
  8
1
  6
Continuous
 62
     1
100
AcDbLine
 10
116.0819533522798
 20
2.459847893741056
 30
0.0
 11
116.2043329642213
 21
2.263999575100399
 31
0.0
  0
LINE
  5
251
330
81
100
AcDbEntity
  8
1
  6
Continuous
 62
     1
100
AcDbLine
 10
116.2043329642213
 20
2.263999575100399
 30
0.0
 11
116.438720041077
 21
2.27218455218312
 31
0.0
  0
ARC
  5
252
330
81
100
AcDbEntity
  8
1
  6
Continuous
 62
     1
100
AcDbCircle
 10
116.4299951669013
 20
2.522032258937884
 30
0.0
 40
0.25
100
AcDbArc
 50
272.0000000000004
 51
2.000000000000386
  0
ARC
  5
253
330
81
100
AcDbEntity
  8
1
  6
Continuous
 62
     1
100
AcDbCircle
 10
116.4299951669013
 20
2.522032258937884
 30
0.0
 40
0.25
100
AcDbArc
 50
272.0000000000004
 51
2.000000000000386
  0
LINE
  5
254
330
81
100
AcDbEntity
  8
1
  6
Continuous
 62
     1
100
AcDbLine
 10
116.6798428736561
 20
2.530757133113525
 30
0.0
 11
116.6554132259644
 21
3.23033071202687
 31
0.0
  0
LINE
  5
255
330
81
100
AcDbEntity
  8
1
  6
Continuous
 62
     1
100
AcDbLine
 10
113.205756752172
 20
0.2949025997497472
 30
0.0
 11
113.7554217070325
 21
0.3140973229361066
 31
0.0
  0
ARC
  5
256
330
81
100
AcDbEntity
  8
1
  6
Continuous
 62
     1
100
AcDbCircle
 10
115.8705659312484
 20
-1.813381210625636
 30
0.0
 40
3.0
100
AcDbArc
 50
92.0
 51
134.8334280660673
  0
ARC
  5
257
330
81
100
AcDbEntity
  8
1
  6
Continuous
 62
     1
100
AcDbCircle
 10
115.8705659312484
 20
-1.813381210625636
 30
0.0
 40
3.0
100
AcDbArc
 50
92.0
 51
134.8334280660673
  0
LINE
  5
258
330
81
100
AcDbEntity
  8
1
  6
Continuous
 62
     1
100
AcDbLine
 10
115.7658674411409
 20
1.184791270431646
 30
0.0
 11
117.7250654177469
 21
1.253207971361405
 31
0.0
  0
ARC
  5
259
330
81
100
AcDbEntity
  8
1
  6
Continuous
 62
     1
100
AcDbCircle
 10
113.1970318779964
 20
0.5447503065045112
 30
0.0
 40
0.25
100
AcDbArc
 50
181.9999999999995
 51
272.0000000000004
  0
ARC
  5
25A
330
81
100
AcDbEntity
  8
1
  6
Continuous
 62
     1
100
AcDbCircle
 10
113.1970318779964
 20
0.5447503065045112
 30
0.0
 40
0.25
100
AcDbArc
 50
181.9999999999995
 51
272.0000000000004
  0
ARC
  5
25B
330
81
100
AcDbEntity
  8
1
  6
Continuous
 62
     1
100
AcDbCircle
 10
117.6901659210444
 20
2.25259879838049
 30
0.0
 40
1.0
100
AcDbArc
 50
1.605065717639124
 51
2.000000000000189
  0
ARC
  5
25C
330
81
100
AcDbEntity
  8
1
  6
Continuous
 62
     1
100
AcDbCircle
 10
117.6901659210444
 20
2.25259879838049
 30
0.0
 40
1.0
100
AcDbArc
 50
1.605065717639124
 51
2.000000000000189
  0
LINE
  5
25D
330
81
100
AcDbEntity
  8
1
  6
Continuous
 62
     1
100
AcDbLine
 10
115.3966176672943
 20
8.838647015795999
 30
0.0
 11
114.5776396751573
 21
8.410973368371913
 31
0.0
  0
LINE
  5
25E
330
81
100
AcDbEntity
  8
1
  6
Continuous
 62
     1
100
AcDbLine
 10
113.6396096981741
 20
7.824827184582944
 30
0.0
 11
113.2580989323024
 21
6.650657781204529
 31
0.0
  0
LINE
  5
25F
330
81
100
AcDbEntity
  8
1
  6
Continuous
 62
     1
100
AcDbLine
 10
114.5776396751573
 20
8.410973368371913
 30
0.0
 11
113.6396096981741
 21
7.824827184582944
 31
0.0
  0
ENDBLK
  5
83
330
81
100
AcDbEntity
  8
0
100
AcDbBlockEnd
  0
BLOCK
  5
261
330
260
100
AcDbEntity
  8
0
100
AcDbBlockBegin
  2
GEN_BLOCK00002
 70
     0
 10
0.0
 20
0.0
 30
0.0
  3
GEN_BLOCK00002
  1
GEN_BLOCK00002
  0
LINE
  5
264
330
260
100
AcDbEntity
  8
1
  6
Continuous
 62
     1
100
AcDbLine
 10
3.50695735701445
 20
6.740379637127745
 30
0.0
 11
3.50695735701445
 21
3.259617523594585
 31
0.0
  0
LINE
  5
265
330
260
100
AcDbEntity
  8
1
  6
Continuous
 62
     1
100
AcDbLine
 10
11.00695735701445
 20
8.749998580361165
 30
0.0
 11
11.00695735701445
 21
1.249998580361165
 31
0.0
  0
LINE
  5
266
330
260
100
AcDbEntity
  8
1
  6
Continuous
 62
     1
100
AcDbLine
 10
11.00695735701446
 20
1.249998580361165
 30
0.0
 11
3.50695735701445
 21
3.259617523594585
 31
0.0
  0
LINE
  5
267
330
260
100
AcDbEntity
  8
1
  6
Continuous
 62
     1
100
AcDbLine
 10
11.00695735701445
 20
8.749998580361165
 30
0.0
 11
3.50695735701445
 21
6.740379637127745
 31
0.0
  0
ARC
  5
268
330
260
100
AcDbEntity
  8
1
  6
Continuous
 62
     1
100
AcDbCircle
 10
17.25695735701445
 20
4.999998580361165
 30
0.0
 40
3.75
100
AcDbArc
 50
180.0
 51
0.0
  0
ARC
  5
269
330
260
100
AcDbEntity
  8
1
  6
Continuous
 62
     1
100
AcDbCircle
 10
17.25695735701445
 20
4.999998580361165
 30
0.0
 40
3.75
100
AcDbArc
 50
180.0
 51
0.0
  0
ARC
  5
26A
330
260
100
AcDbEntity
  8
1
  6
Continuous
 62
     1
100
AcDbCircle
 10
17.25695735701445
 20
4.999998580361165
 30
0.0
 40
3.75
100
AcDbArc
 50
0.0
 51
180.0
  0
ARC
  5
26B
330
260
100
AcDbEntity
  8
1
  6
Continuous
 62
     1
100
AcDbCircle
 10
17.25695735701445
 20
4.999998580361165
 30
0.0
 40
3.75
100
AcDbArc
 50
0.0
 51
180.0
  0
ARC
  5
26C
330
260
100
AcDbEntity
  8
1
  6
Continuous
 62
     1
100
AcDbCircle
 10
17.25695735701445
 20
4.999998580361165
 30
0.0
 40
1.740381057
100
AcDbArc
 50
180.0
 51
0.0
  0
ARC
  5
26D
330
260
100
AcDbEntity
  8
1
  6
Continuous
 62
     1
100
AcDbCircle
 10
17.25695735701445
 20
4.999998580361165
 30
0.0
 40
1.740381057
100
AcDbArc
 50
180.0
 51
0.0
  0
ARC
  5
26E
330
260
100
AcDbEntity
  8
1
  6
Continuous
 62
     1
100
AcDbCircle
 10
17.25695735701445
 20
4.999998580361165
 30
0.0
 40
1.740381057
100
AcDbArc
 50
0.0
 51
180.0
  0
ARC
  5
26F
330
260
100
AcDbEntity
  8
1
  6
Continuous
 62
     1
100
AcDbCircle
 10
17.25695735701445
 20
4.999998580361165
 30
0.0
 40
1.740381057
100
AcDbArc
 50
0.0
 51
180.0
  0
LINE
  5
270
330
260
100
AcDbEntity
  8
1
  6
Continuous
 62
     1
100
AcDbLine
 10
17.25695735701445
 20
5.499998580361165
 30
0.0
 11
17.25695735701445
 21
4.499998580361165
 31
0.0
  0
LINE
  5
271
330
260
100
AcDbEntity
  8
1
  6
Continuous
 62
     1
100
AcDbLine
 10
16.75695735701445
 20
4.999998580361165
 30
0.0
 11
17.75695735701445
 21
4.999998580361165
 31
0.0
  0
LINE
  5
272
330
260
100
AcDbEntity
  8
1
  6
DOT
 62
     1
100
AcDbLine
 10
16.25695735701445
 20
4.999998580361165
 30
0.0
 11
0.0000000782722083
 21
4.999998580361165
 31
0.0
  0
LINE
  5
273
330
260
100
AcDbEntity
  8
1
  6
DOT
 62
     1
100
AcDbLine
 10
18.25695735701445
 20
4.999998580361165
 30
0.0
 11
24.26632768155833
 21
4.999998580361165
 31
0.0
  0
LINE
  5
274
330
260
100
AcDbEntity
  8
1
  6
DOT
 62
     1
100
AcDbLine
 10
17.25695735701445
 20
3.999998580361165
 30
0.0
 11
17.25695735701445
 21
-0.0000014196388349
 31
0.0
  0
LINE
  5
275
330
260
100
AcDbEntity
  8
1
  6
DOT
 62
     1
100
AcDbLine
 10
17.25695735701445
 20
5.999998580361165
 30
0.0
 11
17.25695735701445
 21
9.999998580361165
 31
0.0
  0
ENDBLK
  5
262
330
260
100
AcDbEntity
  8
0
100
AcDbBlockEnd
  0
BLOCK
  5
277
330
276
100
AcDbEntity
  8
0
100
AcDbBlockBegin
  2
GEN_BLOCK00003
 70
     0
 10
0.0
 20
0.0
 30
0.0
  3
GEN_BLOCK00003
  1
GEN_BLOCK00003
  0
ARC
  5
27A
330
276
100
AcDbEntity
  8
0
  6
Continuous
 62
     1
100
AcDbCircle
 10
5.098910649889895
 20
-3.878792219773885
 30
0.0
 40
8.177165026246895
100
AcDbArc
 50
103.6709269307649
 51
125.4694993480198
  0
ARC
  5
27B
330
276
100
AcDbEntity
  8
0
  6
Continuous
 62
     1
100
AcDbCircle
 10
5.098910649889895
 20
-3.878792219773885
 30
0.0
 40
8.177165026246895
100
AcDbArc
 50
103.6709269307649
 51
125.4694993480198
  0
ARC
  5
27C
330
276
100
AcDbEntity
  8
0
  6
Continuous
 62
     1
100
AcDbCircle
 10
6.324952828981282
 20
-4.846708173328565
 30
0.0
 40
9.318469936955477
100
AcDbArc
 50
69.1788287345225
 51
88.28074498669302
  0
ARC
  5
27D
330
276
100
AcDbEntity
  8
0
  6
Continuous
 62
     1
100
AcDbCircle
 10
6.324952828981282
 20
-4.846708173328565
 30
0.0
 40
9.318469936955477
100
AcDbArc
 50
69.1788287345225
 51
88.28074498669302
  0
ARC
  5
27E
330
276
100
AcDbEntity
  8
0
  6
Continuous
 62
     1
100
AcDbCircle
 10
6.457949797354821
 20
3.732029608999042
 30
0.0
 40
0.75
100
AcDbArc
 50
78.72978686061559
 51
96.65000000000042
  0
ARC
  5
27F
330
276
100
AcDbEntity
  8
0
  6
Continuous
 62
     1
100
AcDbCircle
 10
6.457949797354821
 20
3.732029608999042
 30
0.0
 40
0.75
100
AcDbArc
 50
78.72978686061559
 51
96.65000000000042
  0
ARC
  5
280
330
276
100
AcDbEntity
  8
0
  6
Continuous
 62
     1
100
AcDbCircle
 10
6.457949797354821
 20
3.732029608999042
 30
0.0
 40
0.75
100
AcDbArc
 50
96.65000000000042
 51
186.6499999999999
  0
ARC
  5
281
330
276
100
AcDbEntity
  8
0
  6
Continuous
 62
     1
100
AcDbCircle
 10
6.457949797354821
 20
3.732029608999042
 30
0.0
 40
0.75
100
AcDbArc
 50
96.65000000000042
 51
186.6499999999999
  0
LINE
  5
282
330
276
100
AcDbEntity
  8
0
  6
Continuous
 62
     1
100
AcDbLine
 10
5.712995733020257
 20
3.645176618080811
 30
0.0
 11
5.834589920305802
 21
2.602240928012442
 31
0.0
  0
ARC
  5
283
330
276
100
AcDbEntity
  8
0
  6
Continuous
 62
     1
100
AcDbCircle
 10
6.231898754617539
 20
2.648562523168849
 30
0.0
 40
0.4
100
AcDbArc
 50
186.6500000000006
 51
276.6499999999996
  0
ARC
  5
284
330
276
100
AcDbEntity
  8
0
  6
Continuous
 62
     1
100
AcDbCircle
 10
6.231898754617539
 20
2.648562523168849
 30
0.0
 40
0.4
100
AcDbArc
 50
186.6500000000006
 51
276.6499999999996
  0
LINE
  5
285
330
276
100
AcDbEntity
  8
0
  6
Continuous
 62
     1
100
AcDbLine
 10
6.278220349773953
 20
2.251253688857084
 30
0.0
 11
7.072838018397476
 21
2.343896879169868
 31
0.0
  0
ARC
  5
286
330
276
100
AcDbEntity
  8
0
  6
Continuous
 62
     1
100
AcDbCircle
 10
7.159691009315701
 20
1.598942814835333
 30
0.0
 40
0.75
100
AcDbArc
 50
6.650000000000412
 51
96.64999999999928
  0
ARC
  5
287
330
276
100
AcDbEntity
  8
0
  6
Continuous
 62
     1
100
AcDbCircle
 10
7.159691009315701
 20
1.598942814835333
 30
0.0
 40
0.75
100
AcDbArc
 50
6.650000000000412
 51
96.64999999999928
  0
LINE
  5
288
330
276
100
AcDbEntity
  8
0
  6
Continuous
 62
     1
100
AcDbLine
 10
7.904645073650265
 20
1.685795805753564
 30
0.0
 11
7.950966668806679
 21
1.288486971441806
 31
0.0
  0
ARC
  5
289
330
276
100
AcDbEntity
  8
0
  6
Continuous
 62
     1
100
AcDbCircle
 10
7.206012604472122
 20
1.201633980523567
 30
0.0
 40
0.75
100
AcDbArc
 50
276.6499999999999
 51
6.650000000000475
  0
ARC
  5
28A
330
276
100
AcDbEntity
  8
0
  6
Continuous
 62
     1
100
AcDbCircle
 10
7.206012604472122
 20
1.201633980523567
 30
0.0
 40
0.75
100
AcDbArc
 50
276.6499999999999
 51
6.650000000000475
  0
LINE
  5
28B
330
276
100
AcDbEntity
  8
0
  6
Continuous
 62
     1
100
AcDbLine
 10
7.292865595390346
 20
0.4566799161890245
 30
0.0
 11
3.419104460850711
 21
0.0050443634141786
 31
0.0
  0
ARC
  5
28C
330
276
100
AcDbEntity
  8
0
  6
Continuous
 62
     1
100
AcDbCircle
 10
3.33225146993248
 20
0.7499984277487215
 30
0.0
 40
0.75
100
AcDbArc
 50
186.6500000000004
 51
276.6500000000004
  0
ARC
  5
28D
330
276
100
AcDbEntity
  8
0
  6
Continuous
 62
     1
100
AcDbCircle
 10
3.33225146993248
 20
0.7499984277487215
 30
0.0
 40
0.75
100
AcDbArc
 50
186.6500000000004
 51
276.6500000000004
  0
ARC
  5
28E
330
276
100
AcDbEntity
  8
0
  6
Continuous
 62
     1
100
AcDbCircle
 10
3.33225146993248
 20
0.7499984277487215
 30
0.0
 40
0.75
100
AcDbArc
 50
186.6500000000004
 51
276.6500000000004
  0
ARC
  5
28F
330
276
100
AcDbEntity
  8
0
  6
Continuous
 62
     1
100
AcDbCircle
 10
3.33225146993248
 20
0.7499984277487215
 30
0.0
 40
0.75
100
AcDbArc
 50
186.6500000000004
 51
276.6500000000004
  0
LINE
  5
290
330
276
100
AcDbEntity
  8
0
  6
Continuous
 62
     1
100
AcDbLine
 10
2.587297405597916
 20
0.663145436830483
 30
0.0
 11
2.540975810441559
 21
1.060454271142227
 31
0.0
  0
ARC
  5
291
330
276
100
AcDbEntity
  8
0
  6
Continuous
 62
     1
100
AcDbCircle
 10
3.285929874776066
 20
1.14730726206048
 30
0.0
 40
0.75
100
AcDbArc
 50
96.65000000000047
 51
186.6500000000004
  0
ARC
  5
292
330
276
100
AcDbEntity
  8
0
  6
Continuous
 62
     1
100
AcDbCircle
 10
3.285929874776066
 20
1.14730726206048
 30
0.0
 40
0.75
100
AcDbArc
 50
96.65000000000047
 51
186.6500000000004
  0
LINE
  5
293
330
276
100
AcDbEntity
  8
0
  6
Continuous
 62
     1
100
AcDbLine
 10
3.199076883857842
 20
1.892261326395023
 30
0.0
 11
3.993694552481365
 21
1.984904516707807
 31
0.0
  0
ARC
  5
294
330
276
100
AcDbEntity
  8
0
  6
Continuous
 62
     1
100
AcDbCircle
 10
3.947372957324944
 20
2.382213351019566
 30
0.0
 40
0.4
100
AcDbArc
 50
276.6500000000007
 51
6.650000000000651
  0
ARC
  5
295
330
276
100
AcDbEntity
  8
0
  6
Continuous
 62
     1
100
AcDbCircle
 10
3.947372957324944
 20
2.382213351019566
 30
0.0
 40
0.4
100
AcDbArc
 50
276.6500000000007
 51
6.650000000000651
  0
LINE
  5
296
330
276
100
AcDbEntity
  8
0
  6
Continuous
 62
     1
100
AcDbLine
 10
4.344681791636738
 20
2.428534946175958
 30
0.0
 11
4.223087604351178
 21
3.47147063624432
 31
0.0
  0
ARC
  5
297
330
276
100
AcDbEntity
  8
0
  6
Continuous
 62
     1
100
AcDbCircle
 10
3.478133540016621
 20
3.384617645326081
 30
0.0
 40
0.75
100
AcDbArc
 50
6.649999999999936
 51
96.65000000000042
  0
ARC
  5
298
330
276
100
AcDbEntity
  8
0
  6
Continuous
 62
     1
100
AcDbCircle
 10
3.478133540016621
 20
3.384617645326081
 30
0.0
 40
0.75
100
AcDbArc
 50
6.649999999999936
 51
96.65000000000042
  0
LINE
  5
299
330
276
100
AcDbEntity
  8
0
  6
Continuous
 62
     1
100
AcDbLine
 10
3.39128054909839
 20
4.129571709660624
 30
0.0
 11
3.1662775074237
 21
4.066706946616897
 31
0.0
  0
ARC
  5
29A
330
276
100
AcDbEntity
  8
0
  6
Continuous
 62
     1
100
AcDbCircle
 10
0.2499992612336257
 20
3.008254684680374
 30
0.0
 40
0.25
100
AcDbArc
 50
276.6499999999981
 51
305.1479393479001
  0
ARC
  5
29B
330
276
100
AcDbEntity
  8
0
  6
Continuous
 62
     1
100
AcDbCircle
 10
0.2499992612336257
 20
3.008254684680374
 30
0.0
 40
0.25
100
AcDbArc
 50
276.6499999999981
 51
305.1479393479001
  0
ARC
  5
29C
330
276
100
AcDbEntity
  8
0
  6
Continuous
 62
     1
100
AcDbCircle
 10
0.2499992612336257
 20
3.008254684680374
 30
0.0
 40
0.25
100
AcDbArc
 50
186.6499999999999
 51
276.6499999999981
  0
ARC
  5
29D
330
276
100
AcDbEntity
  8
0
  6
Continuous
 62
     1
100
AcDbCircle
 10
0.2499992612336257
 20
3.008254684680374
 30
0.0
 40
0.25
100
AcDbArc
 50
186.6499999999999
 51
276.6499999999981
  0
ARC
  5
29E
330
276
100
AcDbEntity
  8
0
  6
Continuous
 62
     1
100
AcDbCircle
 10
0.2499992612336257
 20
3.008254684680374
 30
0.0
 40
0.25
100
AcDbArc
 50
131.7068016610931
 51
186.6499999999999
  0
ARC
  5
29F
330
276
100
AcDbEntity
  8
0
  6
Continuous
 62
     1
100
AcDbCircle
 10
0.2499992612336257
 20
3.008254684680374
 30
0.0
 40
0.25
100
AcDbArc
 50
131.7068016610931
 51
186.6499999999999
  0
ARC
  5
2A0
330
276
100
AcDbEntity
  8
0
  6
Continuous
 62
     1
100
AcDbCircle
 10
5.751290037314959
 20
-3.16478317133317
 30
0.0
 40
8.51862846715127
100
AcDbArc
 50
104.6132131752917
 51
131.7068016610933
  0
ARC
  5
2A1
330
276
100
AcDbEntity
  8
0
  6
Continuous
 62
     1
100
AcDbCircle
 10
5.751290037314959
 20
-3.16478317133317
 30
0.0
 40
8.51862846715127
100
AcDbArc
 50
104.6132131752917
 51
131.7068016610933
  0
ARC
  5
2A2
330
276
100
AcDbEntity
  8
0
  6
Continuous
 62
     1
100
AcDbCircle
 10
3.475957550145985
 20
5.56210181137083
 30
0.0
 40
0.5
100
AcDbArc
 50
284.6132131752911
 51
6.649999999999127
  0
ARC
  5
2A3
330
276
100
AcDbEntity
  8
0
  6
Continuous
 62
     1
100
AcDbCircle
 10
3.475957550145985
 20
5.56210181137083
 30
0.0
 40
0.5
100
AcDbArc
 50
284.6132131752911
 51
6.649999999999127
  0
LINE
  5
2A4
330
276
100
AcDbEntity
  8
0
  6
Continuous
 62
     1
100
AcDbLine
 10
3.972593593035683
 20
5.620003805316315
 30
0.0
 11
3.918176845212727
 21
6.086746251718992
 31
0.0
  0
ARC
  5
2A5
330
276
100
AcDbEntity
  8
0
  6
Continuous
 62
     1
100
AcDbCircle
 10
4.414812888102425
 20
6.144648245664484
 30
0.0
 40
0.5
100
AcDbArc
 50
118.756271338611
 51
186.6499999999999
  0
ARC
  5
2A6
330
276
100
AcDbEntity
  8
0
  6
Continuous
 62
     1
100
AcDbCircle
 10
4.414812888102425
 20
6.144648245664484
 30
0.0
 40
0.5
100
AcDbArc
 50
118.756271338611
 51
186.6499999999999
  0
LINE
  5
2A7
330
276
100
AcDbEntity
  8
0
  6
Continuous
 62
     1
100
AcDbLine
 10
4.174270523797581
 20
6.582985297457533
 30
0.0
 11
6.302890923704972
 21
7.751089571569949
 31
0.0
  0
ARC
  5
2A8
330
276
100
AcDbEntity
  8
0
  6
Continuous
 62
     1
100
AcDbCircle
 10
5.328860915417692
 20
13.41643244534812
 30
0.0
 40
0.5
100
AcDbArc
 50
96.65000000000066
 51
177.4406041440179
  0
ARC
  5
2A9
330
276
100
AcDbEntity
  8
0
  6
Continuous
 62
     1
100
AcDbCircle
 10
5.328860915417692
 20
13.41643244534812
 30
0.0
 40
0.5
100
AcDbArc
 50
96.65000000000066
 51
177.4406041440179
  0
ARC
  5
2AA
330
276
100
AcDbEntity
  8
0
  6
Continuous
 62
     1
100
AcDbCircle
 10
5.328860915417692
 20
13.41643244534812
 30
0.0
 40
0.5
100
AcDbArc
 50
357.4406041440179
 51
96.65000000000066
  0
ARC
  5
2AB
330
276
100
AcDbEntity
  8
0
  6
Continuous
 62
     1
100
AcDbCircle
 10
5.328860915417692
 20
13.41643244534812
 30
0.0
 40
0.5
100
AcDbArc
 50
357.4406041440179
 51
96.65000000000066
  0
ARC
  5
2AC
330
276
100
AcDbEntity
  8
0
  6
Continuous
 62
     1
100
AcDbCircle
 10
14.81938434808737
 20
12.99220965724356
 30
0.0
 40
9.0
100
AcDbArc
 50
177.4406041440178
 51
214.7840402720336
  0
ARC
  5
2AD
330
276
100
AcDbEntity
  8
0
  6
Continuous
 62
     1
100
AcDbCircle
 10
14.81938434808737
 20
12.99220965724356
 30
0.0
 40
9.0
100
AcDbArc
 50
177.4406041440178
 51
214.7840402720336
  0
ARC
  5
2AE
330
276
100
AcDbEntity
  8
0
  6
Continuous
 62
     1
100
AcDbCircle
 10
7.016956928542982
 20
7.572603918562749
 30
0.0
 40
0.5
100
AcDbArc
 50
298.756271338611
 51
34.78404027203424
  0
ARC
  5
2AF
330
276
100
AcDbEntity
  8
0
  6
Continuous
 62
     1
100
AcDbCircle
 10
7.016956928542982
 20
7.572603918562749
 30
0.0
 40
0.5
100
AcDbArc
 50
298.756271338611
 51
34.78404027203424
  0
ARC
  5
2B0
330
276
100
AcDbEntity
  8
0
  6
Continuous
 62
     1
100
AcDbCircle
 10
7.016956928542982
 20
7.572603918562749
 30
0.0
 40
0.5
100
AcDbArc
 50
298.756271338611
 51
34.78404027203424
  0
ARC
  5
2B1
330
276
100
AcDbEntity
  8
0
  6
Continuous
 62
     1
100
AcDbCircle
 10
7.016956928542982
 20
7.572603918562749
 30
0.0
 40
0.5
100
AcDbArc
 50
298.756271338611
 51
34.78404027203424
  0
LINE
  5
2B2
330
276
100
AcDbEntity
  8
0
  6
Continuous
 62
     1
100
AcDbLine
 10
7.257499292847889
 20
7.134266866769693
 30
0.0
 11
5.718614324907001
 21
6.289786512970004
 31
0.0
  0
ARC
  5
2B3
330
276
100
AcDbEntity
  8
0
  6
Continuous
 62
     1
100
AcDbCircle
 10
5.959156689211845
 20
5.851449461176948
 30
0.0
 40
0.5
100
AcDbArc
 50
118.756271338611
 51
268.6500000000002
  0
ARC
  5
2B4
330
276
100
AcDbEntity
  8
0
  6
Continuous
 62
     1
100
AcDbCircle
 10
5.959156689211845
 20
5.851449461176948
 30
0.0
 40
0.5
100
AcDbArc
 50
118.756271338611
 51
268.6500000000002
  0
ARC
  5
2B5
330
276
100
AcDbEntity
  8
0
  6
Continuous
 62
     1
100
AcDbCircle
 10
9.686084076137874
 20
4.108392569644749
 30
0.0
 40
0.25
100
AcDbArc
 50
249.4273055416409
 51
276.6499999999981
  0
ARC
  5
2B6
330
276
100
AcDbEntity
  8
0
  6
Continuous
 62
     1
100
AcDbCircle
 10
9.686084076137874
 20
4.108392569644749
 30
0.0
 40
0.25
100
AcDbArc
 50
249.4273055416409
 51
276.6499999999981
  0
ARC
  5
2B7
330
276
100
AcDbEntity
  8
0
  6
Continuous
 62
     1
100
AcDbCircle
 10
9.686084076137874
 20
4.108392569644749
 30
0.0
 40
0.25
100
AcDbArc
 50
276.6499999999981
 51
61.58657560321497
  0
ARC
  5
2B8
330
276
100
AcDbEntity
  8
0
  6
Continuous
 62
     1
100
AcDbCircle
 10
9.686084076137874
 20
4.108392569644749
 30
0.0
 40
0.25
100
AcDbArc
 50
276.6499999999981
 51
61.58657560321497
  0
ARC
  5
2B9
330
276
100
AcDbEntity
  8
0
  6
Continuous
 62
     1
100
AcDbCircle
 10
5.751290037314959
 20
-3.16478317133317
 30
0.0
 40
8.51862846715127
100
AcDbArc
 50
61.58657560321542
 51
88.67929623151113
  0
ARC
  5
2BA
330
276
100
AcDbEntity
  8
0
  6
Continuous
 62
     1
100
AcDbCircle
 10
5.751290037314959
 20
-3.16478317133317
 30
0.0
 40
8.51862846715127
100
AcDbArc
 50
61.58657560321542
 51
88.67929623151113
  0
ARC
  5
2BB
330
276
100
AcDbEntity
  8
0
  6
Continuous
 62
     1
100
AcDbCircle
 10
14.81938434808737
 20
12.99220965724356
 30
0.0
 40
10.0
100
AcDbArc
 50
177.4406041440178
 51
211.6084833242027
  0
ARC
  5
2BC
330
276
100
AcDbEntity
  8
0
  6
Continuous
 62
     1
100
AcDbCircle
 10
14.81938434808737
 20
12.99220965724356
 30
0.0
 40
10.0
100
AcDbArc
 50
177.4406041440178
 51
211.6084833242027
  0
ENDBLK
  5
278
330
276
100
AcDbEntity
  8
0
100
AcDbBlockEnd
  0
BLOCK
  5
2BE
330
2BD
100
AcDbEntity
  8
0
100
AcDbBlockBegin
  2
_RASTER_[X__IMAGES_LOGO_JPG]
 70
     2
 10
0.0
 20
0.0
 30
0.0
  3
_RASTER_[X__IMAGES_LOGO_JPG]
  1
_RASTER_[X__IMAGES_LOGO_JPG]
  0
ATTDEF
  5
2C0
330
2BD
100
AcDbEntity
  8
1
100
AcDbText
 10
0.0
 20
0.0
 30
0.0
 40
1.0
  1

100
AcDbAttributeDefinition
  3
Enter PAT_NAME
  2
PAT_NAME
 70
     0
280
     0
  0
ENDBLK
  5
2BF
330
2BD
100
AcDbEntity
  8
0
100
AcDbBlockEnd
  0
BLOCK
  5
2C5
330
2C4
100
AcDbEntity
  8
0
100
AcDbBlockBegin
  2
PROTO
 70
     2
 10
0.0
 20
0.0
 30
0.0
  3
PROTO
  1
PROTO
  0
ATTDEF
  5
2C7
330
2C4
100
AcDbEntity
  8
0
100
AcDbText
 10
0.0
 20
0.0
 30
0.0
 40
1.0
  1

100
AcDbAttributeDefinition
  3
Enter PAT_NAME
  2
PAT_NAME
 70
     0
280
     0
  0
TEXT
  5
2CB
330
2C4
100
AcDbEntity
  8
0
  6
Continuous
 62
    15
100
AcDbText
 10
52.71647833874104
 20
12.0
 30
0.0
 40
1.759999990463257
  1
Mountpleasant, Dundalk, Ireland
  7
ARIAL
100
AcDbText
  0
TEXT
  5
2CC
330
2C4
100
AcDbEntity
  8
0
  6
Continuous
 62
    15
100
AcDbText
 10
54.99904189806165
 20
9.007999658584595
 30
0.0
 40
1.759999990463257
  1
Telephone (353/42) 9371244
  7
ARIAL
100
AcDbText
  0
TEXT
  5
2CD
330
2C4
100
AcDbEntity
  8
0
  6
Continuous
 62
    15
100
AcDbText
 10
60.020681728567
 20
6.015999317169189
 30
0.0
 40
1.759999990463257
  1
Fax (353/42) 9371221
  7
ARIAL
100
AcDbText
  0
TEXT
  5
2CE
330
2C4
100
AcDbEntity
  8
0
  6
Continuous
 62
    15
100
AcDbText
 10
115.0000057220459
 20
6.240000009536743
 30
0.0
 40
1.759999990463257
  1
DESCRIPTION
  7
ARIAL
100
AcDbText
  0
TEXT
  5
2CF
330
2C4
100
AcDbEntity
  8
0
  6
Continuous
 62
    15
100
AcDbText
 10
115.0000057220459
 20
15.24000000953674
 30
0.0
 40
1.759999990463257
  1
CODE
  7
ARIAL
100
AcDbText
  0
TEXT
  5
2D0
330
2C4
100
AcDbEntity
  8
0
  6
Continuous
 62
    15
100
AcDbText
 10
185.0000038146973
 20
15.24000000953674
 30
0.0
 40
1.759999990463257
  1
TOLERANCE
  7
ARIAL
100
AcDbText
  0
TEXT
  5
2D1
330
2C4
100
AcDbEntity
  8
0
  6
Continuous
 62
    15
100
AcDbText
 10
185.0000038146973
 20
6.240000009536743
 30
0.0
 40
1.759999990463257
  1
DRAWN
  7
ARIAL
100
AcDbText
  0
TEXT
  5
2D2
330
2C4
100
AcDbEntity
  8
0
  6
Continuous
 62
    15
100
AcDbText
 10
216.4249877929688
 20
6.240000009536743
 30
0.0
 40
1.759999990463257
  1
DRAWING No
  7
ARIAL
100
AcDbText
  0
TEXT
  5
2D3
330
2C4
100
AcDbEntity
  8
0
  6
Continuous
 62
    15
100
AcDbText
 10
216.4249877929688
 20
15.24000000953674
 30
0.0
 40
1.759999990463257
  1
SCALE
  7
ARIAL
100
AcDbText
  0
TEXT
  5
2D4
330
2C4
100
AcDbEntity
  8
0
  6
Continuous
 62
    15
100
AcDbText
 10
247.8499755859375
 20
15.24000000953674
 30
0.0
 40
1.759999990463257
  1
APPROVED
  7
ARIAL
100
AcDbText
  0
TEXT
  5
2D5
330
2C4
100
AcDbEntity
  8
0
  6
Continuous
 62
    15
100
AcDbText
 10
247.8499755859375
 20
6.240000009536743
 30
0.0
 40
1.759999990463257
  1
DATE
  7
ARIAL
100
AcDbText
  0
TEXT
  5
2D6
330
2C4
100
AcDbEntity
  8
0
  6
Continuous
 62
    15
100
AcDbText
 10
140.1374816894531
 20
193.7072894573212
 30
0.0
 40
1.059999942779541
  1
DATE
  7
ARIAL
100
AcDbText
  0
TEXT
  5
2D7
330
2C4
100
AcDbEntity
  8
0
  6
Continuous
 62
    15
100
AcDbText
 10
148.1374816894531
 20
193.7072894573212
 30
0.0
 40
1.059999942779541
  1
ISSUE
  7
ARIAL
100
AcDbText
  0
TEXT
  5
2D8
330
2C4
100
AcDbEntity
  8
0
  6
Continuous
 62
    15
100
AcDbText
 10
203.2823695658042
 20
193.7072894573212
 30
0.0
 40
1.059999942779541
  1
CHANGE
  7
ARIAL
100
AcDbText
  0
TEXT
  5
2D9
330
2C4
100
AcDbEntity
  8
0
  6
Continuous
 62
    15
100
AcDbText
 10
261.7749557495117
 20
193.7232959270477
 30
0.0
 40
1.059999942779541
  1
SIGNED
  7
ARIAL
100
AcDbText
  0
TEXT
  5
2DA
330
2C4
100
AcDbEntity
  8
0
  6
Continuous
 62
    15
100
AcDbText
 10
2.0
 20
192.2072894573212
 30
0.0
 40
1.059999942779541
  1
THIS DRAWING  IS  THE PROPERTY OF  EXITEX  LTD  AND  MUST
  7
ARIAL
100
AcDbText
  0
TEXT
  5
2DB
330
2C4
100
AcDbEntity
  8
0
  6
Continuous
 62
    15
100
AcDbText
 10
2.0
 20
190.4052892923355
 30
0.0
 40
1.059999942779541
  1
NOT BE REPRODUCED IN WHOLE OR IN PART WITHOUT CONSENT
  7
ARIAL
100
AcDbText
  0
TEXT
  5
2DC
330
2C4
100
AcDbEntity
  8
0
  6
Continuous
 62
    15
100
AcDbText
 10
2.0
 20
188.6032891273499
 30
0.0
 40
1.059999942779541
  1
C  COPYRIGHT EXITEX.
  7
ARIAL
100
AcDbText
  0
TEXT
  5
2DD
330
2C4
100
AcDbEntity
  8
0
  6
Continuous
 62
    15
100
AcDbText
 10
115.0000057220459
 20
11.12000000476837
 30
0.0
 40
1.759999990463257
  1
MDS 150-58 RITB
  7
ARIAL
100
AcDbText
  0
TEXT
  5
2DE
330
2C4
100
AcDbEntity
  8
0
  6
Continuous
 62
    15
100
AcDbText
 10
115.0000057220459
 20
2.120000004768372
 30
0.0
 40
1.759999990463257
  1
XX
  7
ARIAL
100
AcDbText
  0
TEXT
  5
2DF
330
2C4
100
AcDbEntity
  8
0
  6
Continuous
 62
    15
100
AcDbText
 10
216.4249877929688
 20
11.12000000476837
 30
0.0
 40
1.759999990463257
  1
1:1
  7
ARIAL
100
AcDbText
  0
TEXT
  5
2E0
330
2C4
100
AcDbEntity
  8
0
  6
Continuous
 62
    15
100
AcDbText
 10
185.0000038146973
 20
2.120000004768372
 30
0.0
 40
1.759999990463257
  1
SBG
  7
ARIAL
100
AcDbText
  0
TEXT
  5
2E1
330
2C4
100
AcDbEntity
  8
0
  6
Continuous
 62
    15
100
AcDbText
 10
247.8499755859375
 20
2.120000004768372
 30
0.0
 40
1.759999990463257
  1
07/09/17
  7
ARIAL
100
AcDbText
  0
TEXT
  5
2E2
330
2C4
100
AcDbEntity
  8
0
  6
Continuous
 62
    15
100
AcDbText
 10
116.1468467712402
 20
190.2093570232391
 30
0.0
 40
1.059999942779541
  1
First angle
  7
ARIAL
100
AcDbText
  0
TEXT
  5
2E3
330
2C4
100
AcDbEntity
  8
0
  6
Continuous
 62
    15
100
AcDbText
 10
116.1468467712402
 20
188.4073568582535
 30
0.0
 40
1.059999942779541
  1
projection
  7
ARIAL
100
AcDbText
  0
TEXT
  5
2E4
330
2C4
100
AcDbEntity
  8
0
  6
Continuous
 62
    15
100
AcDbText
 10
185.0000038146973
 20
11.12000000476837
 30
0.0
 40
1.759999990463257
  1
XX
  7
ARIAL
100
AcDbText
  0
TEXT
  5
2E5
330
2C4
100
AcDbEntity
  8
0
  6
Continuous
 62
    15
100
AcDbText
 10
247.8499755859375
 20
11.12000000476837
 30
0.0
 40
1.759999990463257
  1
XX
  7
ARIAL
100
AcDbText
  0
TEXT
  5
2E6
330
2C4
100
AcDbEntity
  8
0
  6
Continuous
 62
    15
100
AcDbText
 10
216.4249877929688
 20
2.120000004768372
 30
0.0
 40
1.759999990463257
  1
XX
  7
ARIAL
100
AcDbText
  0
LINE
  5
2E7
330
2C4
100
AcDbEntity
  8
0
  6
Continuous
 62
     9
100
AcDbLine
 10
0.0000056894531326
 20
0.0000014196390055
 30
0.0
 11
278.274956387857
 21
0.000001419638977
 31
0.0
  0
LINE
  5
2E8
330
2C4
100
AcDbEntity
  8
0
  6
Continuous
 62
     9
100
AcDbLine
 10
0.0000056894531326
 20
18.00000141963902
 30
0.0
 11
278.274956387857
 21
18.00000141963899
 31
0.0
  0
LINE
  5
2E9
330
2C4
100
AcDbEntity
  8
0
  6
Continuous
 62
     9
100
AcDbLine
 10
114.0000056894531
 20
18.00000141963899
 30
0.0
 11
114.0000056894531
 21
0.000001419638977
 31
0.0
  0
LINE
  5
2EA
330
2C4
100
AcDbEntity
  8
0
  6
Continuous
 62
     9
100
AcDbLine
 10
0.0000056894531326
 20
195.7372880090721
 30
0.0
 11
278.274956387857
 21
195.7372880090721
 31
0.0
  0
LINE
  5
2EB
330
2C4
100
AcDbEntity
  8
0
  6
Continuous
 62
     9
100
AcDbLine
 10
114.0000056894531
 20
9.000001419639005
 30
0.0
 11
278.274956387857
 21
9.000001419638991
 31
0.0
  0
LINE
  5
2EC
330
2C4
100
AcDbEntity
  8
0
  6
Continuous
 62
     9
100
AcDbLine
 10
278.274956387857
 20
0.000001419638977
 30
0.0
 11
278.274956387857
 21
195.7372880090721
 31
0.0
  0
LINE
  5
2ED
330
2C4
100
AcDbEntity
  8
0
  6
Continuous
 62
     9
100
AcDbLine
 10
246.8499736894531
 20
0.000001419638977
 30
0.0
 11
246.8499736894531
 21
18.00000141963899
 31
0.0
  0
LINE
  5
2EE
330
2C4
100
AcDbEntity
  8
0
  6
Continuous
 62
     9
100
AcDbLine
 10
215.4249896894531
 20
0.000001419638977
 30
0.0
 11
215.4249896894531
 21
18.00000141963899
 31
0.0
  0
LINE
  5
2EF
330
2C4
100
AcDbEntity
  8
0
  6
Continuous
 62
     9
100
AcDbLine
 10
184.0000056894531
 20
18.00000141963899
 30
0.0
 11
184.0000056894531
 21
0.000001419638977
 31
0.0
  0
LINE
  5
2F0
330
2C4
100
AcDbEntity
  8
0
  6
Continuous
 62
     9
100
AcDbLine
 10
0.0000056894531326
 20
0.000001419638977
 30
0.0
 11
0.0000056894531326
 21
195.7372880090721
 31
0.0
  0
CIRCLE
  5
2F1
330
2C4
100
AcDbEntity
  8
0
  6
Continuous
 62
     1
100
AcDbCircle
 10
2.800005689453144
 20
189.1550218086122
 30
0.0
 40
1.0
  0
ARC
  5
2F2
330
2C4
100
AcDbEntity
  8
0
  6
Continuous
 62
     1
100
AcDbCircle
 10
2.800005689453144
 20
189.1550218086122
 30
0.0
 40
1.0
100
AcDbArc
 50
0.0
 51
0.0
  0
ENDBLK
  5
2C6
330
2C4
100
AcDbEntity
  8
0
100
AcDbBlockEnd
  0
BLOCK
  5
2F4
330
2F3
100
AcDbEntity
  8
0
100
AcDbBlockBegin
  2
GEN_BLOCK00004
 70
     0
 10
0.0
 20
0.0
 30
0.0
  3
GEN_BLOCK00004
  1
GEN_BLOCK00004
  0
LINE
  5
2F7
330
2F3
100
AcDbEntity
  8
1
  6
Continuous
 62
     1
100
AcDbLine
 10
8.999999905357924
 20
10.39347635902342
 30
0.0
 11
8.999999905357924
 21
9.299999514026496
 31
0.0
  0
ARC
  5
2F8
330
2F3
100
AcDbEntity
  8
1
  6
Continuous
 62
     1
100
AcDbCircle
 10
8.299999905357879
 20
9.299999514026496
 30
0.0
 40
0.7
100
AcDbArc
 50
270.0
 51
0.0
  0
ARC
  5
2F9
330
2F3
100
AcDbEntity
  8
1
  6
Continuous
 62
     1
100
AcDbCircle
 10
8.299999905357879
 20
9.299999514026496
 30
0.0
 40
0.7
100
AcDbArc
 50
270.0
 51
0.0
  0
ARC
  5
2FA
330
2F3
100
AcDbEntity
  8
1
  6
Continuous
 62
     1
100
AcDbCircle
 10
8.299999905357879
 20
9.299999514026496
 30
0.0
 40
0.7
100
AcDbArc
 50
270.0
 51
0.0
  0
ARC
  5
2FB
330
2F3
100
AcDbEntity
  8
1
  6
Continuous
 62
     1
100
AcDbCircle
 10
8.299999905357879
 20
9.299999514026496
 30
0.0
 40
0.7
100
AcDbArc
 50
270.0
 51
0.0
  0
LINE
  5
2FC
330
2F3
100
AcDbEntity
  8
1
  6
Continuous
 62
     1
100
AcDbLine
 10
8.299999905357879
 20
8.599999514026496
 30
0.0
 11
5.999999905357924
 21
8.599999514026496
 31
0.0
  0
LINE
  5
2FD
330
2F3
100
AcDbEntity
  8
1
  6
Continuous
 62
     1
100
AcDbLine
 10
5.999999905357924
 20
8.599999514026496
 30
0.0
 11
5.999999905357924
 21
7.599999514026496
 31
0.0
  0
LINE
  5
2FE
330
2F3
100
AcDbEntity
  8
1
  6
Continuous
 62
     1
100
AcDbLine
 10
5.999999905357924
 20
7.599999514026496
 30
0.0
 11
-0.0000000946420755
 21
7.599999514026496
 31
0.0
  0
LINE
  5
2FF
330
2F3
100
AcDbEntity
  8
1
  6
Continuous
 62
     1
100
AcDbLine
 10
-0.0000000946420755
 20
7.599999514026496
 30
0.0
 11
-0.0000000946420755
 21
4.999999514026499
 31
0.0
  0
LINE
  5
300
330
2F3
100
AcDbEntity
  8
1
  6
Continuous
 62
     1
100
AcDbLine
 10
-0.0000000946420755
 20
4.999999514026499
 30
0.0
 11
4.629179512107953
 21
4.999999514026499
 31
0.0
  0
ARC
  5
301
330
2F3
100
AcDbEntity
  8
1
  6
Continuous
 62
     1
100
AcDbCircle
 10
5.299999905357879
 20
4.799999514026499
 30
0.0
 40
0.7
100
AcDbArc
 50
0.0
 51
163.3984504009798
  0
ARC
  5
302
330
2F3
100
AcDbEntity
  8
1
  6
Continuous
 62
     1
100
AcDbCircle
 10
5.299999905357879
 20
4.799999514026499
 30
0.0
 40
0.7
100
AcDbArc
 50
0.0
 51
163.3984504009798
  0
LINE
  5
303
330
2F3
100
AcDbEntity
  8
1
  6
Continuous
 62
     1
100
AcDbLine
 10
5.999999905357924
 20
4.799999514026499
 30
0.0
 11
5.999999905357924
 21
-0.0000004859735014
 31
0.0
  0
LINE
  5
304
330
2F3
100
AcDbEntity
  8
1
  6
Continuous
 62
     1
100
AcDbLine
 10
5.999999905357924
 20
-0.0000004859735014
 30
0.0
 11
12.16754437332423
 21
-0.0000004859735014
 31
0.0
  0
ARC
  5
305
330
2F3
100
AcDbEntity
  8
1
  6
Continuous
 62
     1
100
AcDbCircle
 10
7.284252387173979
 20
25.29502696471026
 30
0.0
 40
15.0
100
AcDbArc
 50
276.5680484059326
 51
308.8301373201554
  0
ARC
  5
306
330
2F3
100
AcDbEntity
  8
1
  6
Continuous
 62
     1
100
AcDbCircle
 10
7.284252387173979
 20
25.29502696471026
 30
0.0
 40
15.0
100
AcDbArc
 50
276.5680484059326
 51
308.8301373201554
  0
ARC
  5
307
330
2F3
100
AcDbEntity
  8
1
  6
Continuous
 62
     1
100
AcDbCircle
 10
16.99999990535792
 20
13.22408146667474
 30
0.0
 40
0.5
100
AcDbArc
 50
317.7116985694071
 51
128.8301373201554
  0
ARC
  5
308
330
2F3
100
AcDbEntity
  8
1
  6
Continuous
 62
     1
100
AcDbCircle
 10
16.99999990535792
 20
13.22408146667474
 30
0.0
 40
0.5
100
AcDbArc
 50
317.7116985694071
 51
128.8301373201554
  0
LINE
  5
309
330
2F3
100
AcDbEntity
  8
1
  6
Continuous
 62
     1
100
AcDbLine
 10
17.36988415249903
 20
12.88765072533732
 30
0.0
 11
14.4023252020873
 21
9.625008007681949
 31
0.0
  0
ARC
  5
30A
330
2F3
100
AcDbEntity
  8
1
  6
Continuous
 62
     1
100
AcDbCircle
 10
14.7722094492284
 20
9.288577266344525
 30
0.0
 40
0.5
100
AcDbArc
 50
137.711698569407
 51
207.3729891674974
  0
ARC
  5
30B
330
2F3
100
AcDbEntity
  8
1
  6
Continuous
 62
     1
100
AcDbCircle
 10
14.7722094492284
 20
9.288577266344525
 30
0.0
 40
0.5
100
AcDbArc
 50
137.711698569407
 51
207.3729891674974
  0
ARC
  5
30C
330
2F3
100
AcDbEntity
  8
1
  6
Continuous
 62
     1
100
AcDbCircle
 10
8.999999905357924
 20
6.299999514026496
 30
0.0
 40
6.0
100
AcDbArc
 50
338.2271797033849
 51
27.37298916749737
  0
ARC
  5
30D
330
2F3
100
AcDbEntity
  8
1
  6
Continuous
 62
     1
100
AcDbCircle
 10
8.999999905357924
 20
6.299999514026496
 30
0.0
 40
6.0
100
AcDbArc
 50
338.2271797033849
 51
27.37298916749737
  0
ARC
  5
30E
330
2F3
100
AcDbEntity
  8
1
  6
Continuous
 62
     1
100
AcDbCircle
 10
15.03630219125711
 20
3.88897178435441
 30
0.0
 40
0.5
100
AcDbArc
 50
158.2271797033848
 51
299.9999999999998
  0
ARC
  5
30F
330
2F3
100
AcDbEntity
  8
1
  6
Continuous
 62
     1
100
AcDbCircle
 10
15.03630219125711
 20
3.88897178435441
 30
0.0
 40
0.5
100
AcDbArc
 50
158.2271797033848
 51
299.9999999999998
  0
LINE
  5
310
330
2F3
100
AcDbEntity
  8
1
  6
Continuous
 62
     1
100
AcDbLine
 10
15.28630219125711
 20
3.455959082462194
 30
0.0
 11
16.59999990535789
 21
4.214422811332071
 31
0.0
  0
ARC
  5
311
330
2F3
100
AcDbEntity
  8
1
  6
Continuous
 62
     1
100
AcDbCircle
 10
16.8999999053579
 20
3.694807569061403
 30
0.0
 40
0.6000000000000005
100
AcDbArc
 50
300.0000000000001
 51
119.9999999999999
  0
ARC
  5
312
330
2F3
100
AcDbEntity
  8
1
  6
Continuous
 62
     1
100
AcDbCircle
 10
16.8999999053579
 20
3.694807569061403
 30
0.0
 40
0.6000000000000005
100
AcDbArc
 50
300.0000000000001
 51
119.9999999999999
  0
LINE
  5
313
330
2F3
100
AcDbEntity
  8
1
  6
Continuous
 62
     1
100
AcDbLine
 10
17.19999990535791
 20
3.175192326790743
 30
0.0
 11
13.43245543739158
 21
0.9999995140264986
 31
0.0
  0
LINE
  5
314
330
2F3
100
AcDbEntity
  8
1
  6
Continuous
 62
     1
100
AcDbLine
 10
13.43245543739158
 20
0.9999995140264986
 30
0.0
 11
12.79999990535788
 21
0.9999995140264986
 31
0.0
  0
LINE
  5
315
330
2F3
100
AcDbEntity
  8
1
  6
Continuous
 62
     1
100
AcDbLine
 10
8.947484351717605
 20
6.333362388043081
 30
0.0
 11
11.05414726118852
 21
8.593237145475534
 31
0.0
  0
LINE
  5
316
330
2F3
100
AcDbEntity
  8
1
  6
Continuous
 62
     1
100
AcDbLine
 10
11.05414726118852
 20
8.593237145475534
 30
0.0
 11
11.36057095711158
 21
8.708146031446677
 31
0.0
  0
LINE
  5
317
330
2F3
100
AcDbEntity
  8
1
  6
Continuous
 62
     1
100
AcDbLine
 10
11.36057095711158
 20
8.708146031446677
 30
0.0
 11
11.74360057701534
 21
8.82305491741782
 31
0.0
  0
LINE
  5
318
330
2F3
100
AcDbEntity
  8
1
  6
Continuous
 62
     1
100
AcDbLine
 10
11.74360057701534
 20
8.82305491741782
 30
0.0
 11
12.01172131094802
 21
8.82305491741782
 31
0.0
  0
LINE
  5
319
330
2F3
100
AcDbEntity
  8
1
  6
Continuous
 62
     1
100
AcDbLine
 10
12.01172131094802
 20
8.82305491741782
 30
0.0
 11
12.2798420448807
 21
8.82305491741782
 31
0.0
  0
LINE
  5
31A
330
2F3
100
AcDbEntity
  8
1
  6
Continuous
 62
     1
100
AcDbLine
 10
12.2798420448807
 20
8.82305491741782
 30
0.0
 11
12.58626574080375
 21
8.74644899343706
 31
0.0
  0
LINE
  5
31B
330
2F3
100
AcDbEntity
  8
1
  6
Continuous
 62
     1
100
AcDbLine
 10
12.58626574080375
 20
8.74644899343706
 30
0.0
 11
13.0075983226979
 21
8.593237145475534
 31
0.0
  0
LINE
  5
31C
330
2F3
100
AcDbEntity
  8
1
  6
Continuous
 62
     1
100
AcDbLine
 10
13.0075983226979
 20
8.593237145475534
 30
0.0
 11
13.2374160946402
 21
8.478328259504394
 31
0.0
  0
ARC
  5
31D
330
2F3
100
AcDbEntity
  8
1
  6
Continuous
 62
     1
100
AcDbCircle
 10
8.999999905357924
 20
6.299999514026496
 30
0.0
 40
4.8
100
AcDbArc
 50
344.2861389519917
 51
22.56747273031356
  0
ARC
  5
31E
330
2F3
100
AcDbEntity
  8
1
  6
Continuous
 62
     1
100
AcDbCircle
 10
8.999999905357924
 20
6.299999514026496
 30
0.0
 40
4.8
100
AcDbArc
 50
344.2861389519917
 51
22.56747273031356
  0
ARC
  5
31F
330
2F3
100
AcDbEntity
  8
1
  6
Continuous
 62
     1
100
AcDbCircle
 10
8.999999905357924
 20
6.299999514026496
 30
0.0
 40
4.8
100
AcDbArc
 50
337.4325272696864
 51
344.2861389519917
  0
ARC
  5
320
330
2F3
100
AcDbEntity
  8
1
  6
Continuous
 62
     1
100
AcDbCircle
 10
8.999999905357924
 20
6.299999514026496
 30
0.0
 40
4.8
100
AcDbArc
 50
337.4325272696864
 51
344.2861389519917
  0
LINE
  5
321
330
2F3
100
AcDbEntity
  8
1
  6
Continuous
 62
     1
100
AcDbLine
 10
8.999999905357924
 20
6.299999514026496
 30
0.0
 11
8.999999905357924
 21
1.499999514026499
 31
0.0
  0
LINE
  5
322
330
2F3
100
AcDbEntity
  8
1
  6
Continuous
 62
     1
100
AcDbLine
 10
8.999999905357924
 20
1.499999514026499
 30
0.0
 11
10.74772356526546
 21
1.583795101235886
 31
0.0
  0
LINE
  5
323
330
2F3
100
AcDbEntity
  8
1
  6
Continuous
 62
     1
100
AcDbLine
 10
10.74772356526546
 20
1.583795101235886
 30
0.0
 11
12.77778055075566
 21
2.694580998956923
 31
0.0
  0
LINE
  5
324
330
2F3
100
AcDbEntity
  8
1
  6
Continuous
 62
     1
100
AcDbLine
 10
12.77778055075566
 20
2.694580998956923
 30
0.0
 11
13.12250720866905
 21
3.154216542841496
 31
0.0
  0
LINE
  5
325
330
2F3
100
AcDbEntity
  8
1
  6
Continuous
 62
     1
100
AcDbLine
 10
13.12250720866905
 20
3.154216542841496
 30
0.0
 11
13.27571905663058
 21
3.69045801070682
 31
0.0
  0
LINE
  5
326
330
2F3
100
AcDbEntity
  8
1
  6
Continuous
 62
     1
100
AcDbLine
 10
13.27571905663058
 20
3.69045801070682
 30
0.0
 11
13.43245543739158
 21
4.457898008532275
 31
0.0
  0
LINE
  5
327
330
2F3
100
AcDbEntity
  8
1
  6
Continuous
 62
     1
100
AcDbLine
 10
13.2374160946402
 20
8.478328259504394
 30
0.0
 11
13.43245543739158
 21
8.142101019520716
 31
0.0
  0
LINE
  5
328
330
2F3
100
AcDbEntity
  8
1
  6
Continuous
 62
     1
100
AcDbLine
 10
12.79999990535788
 20
0.9999995140264986
 30
0.0
 11
12.16754437332423
 21
0.9999995140264986
 31
0.0
  0
LINE
  5
329
330
2F3
100
AcDbEntity
  8
1
  6
Continuous
 62
     1
100
AcDbLine
 10
12.16754437332423
 20
0.9999995140264986
 30
0.0
 11
12.16754437332423
 21
-0.0000004859735014
 31
0.0
  0
ENDBLK
  5
2F5
330
2F3
100
AcDbEntity
  8
0
100
AcDbBlockEnd
  0
BLOCK
  5
32B
330
32A
100
AcDbEntity
  8
0
100
AcDbBlockBegin
  2
GEN_BLOCK00005
 70
     0
 10
0.0
 20
0.0
 30
0.0
  3
GEN_BLOCK00005
  1
GEN_BLOCK00005
  0
LINE
  5
32E
330
32A
100
AcDbEntity
  8
1
  6
HIDDEN
 62
     1
100
AcDbLine
 10
22.57759952545166
 20
42.18415641784668
 30
0.0
 11
36.31510066986084
 21
42.18415641784668
 31
0.0
  0
LINE
  5
32F
330
32A
100
AcDbEntity
  8
1
  6
HIDDEN
 62
     1
100
AcDbLine
 10
36.31510066986084
 20
42.18415641784668
 30
0.0
 11
36.31510066986084
 21
51.87165641784668
 31
0.0
  0
LINE
  5
330
330
32A
100
AcDbEntity
  8
1
  6
HIDDEN
 62
     1
100
AcDbLine
 10
36.31510066986084
 20
51.87165641784668
 30
0.0
 11
22.57759952545166
 21
51.87165641784668
 31
0.0
  0
LINE
  5
331
330
32A
100
AcDbEntity
  8
1
  6
HIDDEN
 62
     1
100
AcDbLine
 10
22.57759952545166
 20
51.87165641784668
 30
0.0
 11
22.57759952545166
 21
42.18415641784668
 31
0.0
  0
TEXT
  5
332
330
32A
100
AcDbEntity
  8
1
  6
Continuous
 62
     4
100
AcDbText
 10
23.95135021209717
 20
48.27790641784668
 30
0.0
 40
2.5
  1
58mm
100
AcDbText
  0
TEXT
  5
333
330
32A
100
AcDbEntity
  8
1
  6
Continuous
 62
     4
100
AcDbText
 10
23.95135021209717
 20
43.27790641784668
 30
0.0
 40
2.5
  1
DOOR
100
AcDbText
  0
LINE
  5
334
330
32A
100
AcDbEntity
  8
1
  6
HIDDEN
 62
     1
100
AcDbLine
 10
0.0000002111592039
 20
99.99999961021636
 30
0.0
 11
17.18078780390039
 21
95.57525570079135
 31
0.0
  0
LINE
  5
335
330
32A
100
AcDbEntity
  8
1
  6
HIDDEN
 62
     1
100
AcDbLine
 10
17.18078780390039
 20
95.57525570079135
 30
0.0
 11
17.18078780390039
 21
92.00878064805819
 31
0.0
  0
LINE
  5
336
330
32A
100
AcDbEntity
  8
1
  6
HIDDEN
 62
     1
100
AcDbLine
 10
17.18078780390039
 20
92.00878064805819
 30
0.0
 11
58.0000002111592
 21
95.57525570079135
 31
0.0
  0
LINE
  5
337
330
32A
100
AcDbEntity
  8
1
  6
HIDDEN
 62
     1
100
AcDbLine
 10
0.0000002111592039
 20
99.99999961021636
 30
0.0
 11
0.0000002111592039
 21
-0.0000003897836329
 31
0.0
  0
LINE
  5
338
330
32A
100
AcDbEntity
  8
1
  6
HIDDEN
 62
     1
100
AcDbLine
 10
0.0000002111592039
 20
-0.0000003897836329
 30
0.0
 11
58.0000002111592
 21
-0.00000038978364
 31
0.0
  0
LINE
  5
339
330
32A
100
AcDbEntity
  8
1
  6
HIDDEN
 62
     1
100
AcDbLine
 10
58.0000002111592
 20
-0.00000038978364
 30
0.0
 11
58.0000002111592
 21
95.57525570079135
 31
0.0
  0
ENDBLK
  5
32C
330
32A
100
AcDbEntity
  8
0
100
AcDbBlockEnd
  0
BLOCK
  5
33B
330
33A
100
AcDbEntity
  8
0
100
AcDbBlockBegin
  2
GEN_BLOCK00006
 70
     0
 10
0.0
 20
0.0
 30
0.0
  3
GEN_BLOCK00006
  1
GEN_BLOCK00006
  0
LINE
  5
33E
330
33A
100
AcDbEntity
  8
0
  6
Continuous
 62
     2
100
AcDbLine
 10
0.0000000048530353
 20
11.99999858036115
 30
0.0
 11
0.0000000048530353
 21
-0.0000014196388207
 31
0.0
  0
LINE
  5
33F
330
33A
100
AcDbEntity
  8
0
  6
Continuous
 62
     2
100
AcDbLine
 10
139.137475354055
 20
8.999998580361137
 30
0.0
 11
0.0000000048530353
 21
8.99999858036115
 31
0.0
  0
LINE
  5
340
330
33A
100
AcDbEntity
  8
0
  6
Continuous
 62
     2
100
AcDbLine
 10
8.000000004853035
 20
11.99999858036115
 30
0.0
 11
8.000000004853035
 21
-0.0000014196388207
 31
0.0
  0
LINE
  5
341
330
33A
100
AcDbEntity
  8
0
  6
Continuous
 62
     2
100
AcDbLine
 10
16.00000000485304
 20
11.99999858036115
 30
0.0
 11
16.00000000485304
 21
8.99999858036115
 31
0.0
  0
LINE
  5
342
330
33A
100
AcDbEntity
  8
0
  6
Continuous
 62
     2
100
AcDbLine
 10
119.137475354055
 20
11.99999858036115
 30
0.0
 11
119.137475354055
 21
-0.0000014196388207
 31
0.0
  0
ENDBLK
  5
33C
330
33A
100
AcDbEntity
  8
0
100
AcDbBlockEnd
  0
BLOCK
  5
345
330
344
100
AcDbEntity
  8
0
100
AcDbBlockBegin
  2
GEN_BLOCK00007
 70
     0
 10
0.0
 20
0.0
 30
0.0
  3
GEN_BLOCK00007
  1
GEN_BLOCK00007
  0
TEXT
  5
348
330
344
100
AcDbEntity
  8
GEN_LAYER
  6
Continuous
 62
     4
100
AcDbText
 10
58.6653938293457
 20
6.09375
 30
0.0
 40
2.5
  1
SILL OF WOOD STONE 
100
AcDbText
  0
TEXT
  5
349
330
344
100
AcDbEntity
  8
GEN_LAYER
  6
Continuous
 62
     4
100
AcDbText
 10
58.6653938293457
 20
1.09375
 30
0.0
 40
2.5
  1
CONCRETE ETC.
100
AcDbText
  0
TEXT
  5
34A
330
344
100
AcDbEntity
  8
GEN_LAYER
  6
Continuous
 62
     4
100
AcDbText
 10
79.8232593536377
 20
107.8700675964355
 30
0.0
 40
2.5
  1
DOOR
100
AcDbText
  0
TEXT
  5
34B
330
344
100
AcDbEntity
  8
GEN_LAYER
  6
Continuous
 62
     4
100
AcDbText
 10
79.8232593536377
 20
102.8700675964355
 30
0.0
 40
2.5
  1
FRAME
100
AcDbText
  0
LINE
  5
34C
330
344
100
AcDbEntity
  8
GEN_LAYER
  6
DASHED
 62
     1
100
AcDbLine
 10
-0.000000754426523
 20
18.01725033797902
 30
0.0
 11
181.1231194244638
 21
18.01725033797902
 31
0.0
  0
LINE
  5
34D
330
344
100
AcDbEntity
  8
GEN_LAYER
  6
Continuous
 62
     1
100
AcDbLine
 10
101.3780643667378
 20
42.80924089475356
 30
0.0
 11
101.3780643667378
 21
141.0918408995483
 31
0.0
  0
LINE
  5
34E
330
344
100
AcDbEntity
  8
GEN_LAYER
  6
Continuous
 62
     1
100
AcDbLine
 10
101.3780643667378
 20
137.6905884923895
 30
0.0
 11
165.4763073030991
 21
141.0918408995483
 31
0.0
  0
LINE
  5
34F
330
344
100
AcDbEntity
  8
GEN_LAYER
  6
Continuous
 62
     1
100
AcDbLine
 10
165.4763073030991
 20
141.0918408995483
 30
0.0
 11
165.4763073030991
 21
18.51725033797902
 31
0.0
  0
LINE
  5
350
330
344
100
AcDbEntity
  8
GEN_LAYER
  6
Continuous
 62
     1
100
AcDbLine
 10
72.37806436673782
 20
137.6905884923895
 30
0.0
 11
72.37806436673782
 21
38.95314177879946
 31
0.0
  0
LINE
  5
351
330
344
100
AcDbEntity
  8
GEN_LAYER
  6
Continuous
 62
     1
100
AcDbLine
 10
101.3780643667378
 20
141.0918408995483
 30
0.0
 11
72.37806436673782
 21
137.6905884923895
 31
0.0
  0
ENDBLK
  5
346
330
344
100
AcDbEntity
  8
0
100
AcDbBlockEnd
  0
BLOCK
  5
353
330
352
100
AcDbEntity
  8
0
100
AcDbBlockBegin
  2
GEN_BLOCK00008
 70
     0
 10
0.0
 20
0.0
 30
0.0
  3
GEN_BLOCK00008
  1
GEN_BLOCK00008
  0
ENDBLK
  5
354
330
352
100
AcDbEntity
  8
0
100
AcDbBlockEnd
  0
ENDSEC
  0
SECTION
  2
ENTITIES
  0
INSERT
  5
77
330
1F
100
AcDbEntity
  8
1
100
AcDbBlockReference
  2
GEN_BLOCK
 10
-75.48514556884766
 20
-31.69775199890137
 30
0.0
  0
INSERT
  5
80
330
1F
100
AcDbEntity
  8
0
100
AcDbBlockReference
  2
GEN_BLOCK00000
 10
-139.6374816894531
 20
-97.86864471435547
 30
0.0
  0
INSERT
  5
84
330
1F
100
AcDbEntity
  8
1
100
AcDbBlockReference
  2
GEN_BLOCK00001
 10
-84.44995880126953
 20
-50.83185958862305
 30
0.0
  0
INSERT
  5
263
330
1F
100
AcDbEntity
  8
1
100
AcDbBlockReference
  2
GEN_BLOCK00002
 10
-47.7569580078125
 20
86.86864471435547
 30
0.0
  0
INSERT
  5
279
330
1F
100
AcDbEntity
  8
0
100
AcDbBlockReference
  2
GEN_BLOCK00003
 10
51.99139022827148
 20
-43.34810638427734
 30
0.0
  0
INSERT
  5
2C1
330
1F
100
AcDbEntity
  8
1
100
AcDbBlockReference
 66
     1
  2
_RASTER_[X__IMAGES_LOGO_JPG]
 10
-127.7502288818359
 20
-96.5584945678711
 30
0.0
  0
ATTRIB
  5
2C2
330
2C1
100
AcDbEntity
  8
1
100
AcDbText
 10
0.0
 20
0.0
 30
0.0
 40
1.0
  1
_RASTER_[X:\IMAGES\LOGO.JPG]
100
AcDbAttribute
  2
PAT_NAME
 70
     1
280
     0
  0
SEQEND
  5
2C3
330
2C1
100
AcDbEntity
  8
1
  0
INSERT
  5
2C8
330
1F
100
AcDbEntity
  8
0
100
AcDbBlockReference
 66
     1
  2
PROTO
 10
-139.6374816894531
 20
-97.86864471435547
 30
0.0
  0
ATTRIB
  5
2C9
330
2C8
100
AcDbEntity
  8
0
100
AcDbText
 10
0.0
 20
0.0
 30
0.0
 40
1.0
  1
PROTO
100
AcDbAttribute
  2
PAT_NAME
 70
     1
280
     0
  0
SEQEND
  5
2CA
330
2C8
100
AcDbEntity
  8
0
  0
INSERT
  5
2F6
330
1F
100
AcDbEntity
  8
1
100
AcDbBlockReference
  2
GEN_BLOCK00004
 10
-5.748912334442139
 20
-36.49637222290039
 30
0.0
  0
INSERT
  5
32D
330
1F
100
AcDbEntity
  8
1
100
AcDbBlockReference
  2
GEN_BLOCK00005
 10
8.5053071975708
 20
-31.65924644470215
 30
0.0
  0
INSERT
  5
33D
330
1F
100
AcDbEntity
  8
0
100
AcDbBlockReference
  2
GEN_BLOCK00006
 10
-0.5000006556510925
 20
85.86864471435547
 30
0.0
  0
INSERT
  5
347
330
1F
100
AcDbEntity
  8
GEN_LAYER
100
AcDbBlockReference
  2
GEN_BLOCK00007
 10
-96.87275695800781
 20
-68.713623046875
 30
0.0
  0
INSERT
  5
355
330
1F
100
AcDbEntity
  8
0
100
AcDbBlockReference
  2
GEN_BLOCK00008
 10
-139.6374816894531
 20
-97.86864471435547
 30
0.0
  0
ENDSEC
  0
SECTION
  2
OBJECTS
  0
DICTIONARY
  5
C
330
0
100
AcDbDictionary
281
     1
  3
ACAD_DETAILVIEWSTYLE
350
38A
  3
ACAD_GROUP
350
D
  3
ACAD_LAYOUT
350
1A
  3
ACAD_MATERIAL
350
43
  3
ACAD_MLEADERSTYLE
350
389
  3
ACAD_MLINESTYLE
350
17
  3
ACAD_PLOTSETTINGS
350
19
  3
ACAD_PLOTSTYLENAME
350
E
  3
ACAD_SCALELIST
350
47
  3
ACAD_SECTIONVIEWSTYLE
350
38B
  3
ACAD_TABLESTYLE
350
388
  3
ACAD_VISUALSTYLE
350
2A
  3
AcDbVariableDictionary
350
356
  0
SUN
  5
69
330
29
100
AcDbSun
 90
        1
290
     0
 63
     7
421
 16777215
 40
1.0
291
     1
 91
  2455826
 92
 54000000
292
     0
 70
     2
 71
   256
280
     1
  0
DICTIONARY
  5
38A
102
{ACAD_REACTORS
330
C
102
}
330
C
100
AcDbDictionary
281
     1
  0
DICTIONARY
  5
D
102
{ACAD_REACTORS
330
C
102
}
330
C
100
AcDbDictionary
281
     1
  0
DICTIONARY
  5
1A
102
{ACAD_REACTORS
330
C
102
}
330
C
100
AcDbDictionary
281
     1
  3
Layout1
350
1E
  3
Layout2
350
26
  3
Model
350
22
  0
DICTIONARY
  5
43
102
{ACAD_REACTORS
330
C
102
}
330
C
100
AcDbDictionary
281
     1
  3
ByBlock
350
45
  3
ByLayer
350
44
  3
Global
350
46
  0
DICTIONARY
  5
389
102
{ACAD_REACTORS
330
C
102
}
330
C
100
AcDbDictionary
281
     1
  0
DICTIONARY
  5
17
102
{ACAD_REACTORS
330
C
102
}
330
C
100
AcDbDictionary
281
     1
  3
Standard
350
18
  0
DICTIONARY
  5
19
102
{ACAD_REACTORS
330
C
102
}
330
C
100
AcDbDictionary
281
     1
  0
ACDBDICTIONARYWDFLT
  5
E
102
{ACAD_REACTORS
330
C
102
}
330
C
100
AcDbDictionary
281
     1
  3
Normal
350
F
100
AcDbDictionaryWithDefault
340
F
  0
DICTIONARY
  5
47
102
{ACAD_REACTORS
330
C
102
}
330
C
100
AcDbDictionary
281
     1
  3
A0
350
48
  3
A1
350
49
  3
A2
350
4A
  3
A3
350
4B
  3
A4
350
4C
  3
A5
350
4D
  3
A6
350
4E
  3
A7
350
4F
  3
A8
350
50
  3
A9
350
51
  3
B0
350
52
  3
B1
350
53
  3
B2
350
54
  3
B3
350
55
  3
B4
350
56
  3
B5
350
57
  3
B6
350
58
  3
B7
350
59
  3
B8
350
5A
  3
B9
350
5B
  3
C0
350
5C
  3
C1
350
5D
  3
C2
350
5E
  3
C3
350
5F
  3
C4
350
60
  3
C5
350
61
  3
C6
350
62
  3
C7
350
63
  3
C8
350
64
  3
C9
350
65
  3
D0
350
66
  3
D1
350
67
  3
D2
350
68
  0
DICTIONARY
  5
38B
102
{ACAD_REACTORS
330
C
102
}
330
C
100
AcDbDictionary
281
     1
  0
DICTIONARY
  5
388
102
{ACAD_REACTORS
330
C
102
}
330
C
100
AcDbDictionary
281
     1
  0
DICTIONARY
  5
2A
102
{ACAD_REACTORS
330
C
102
}
330
C
100
AcDbDictionary
281
     1
  3
2dWireframe
350
2F
  3
Basic
350
32
  3
Brighten
350
36
  3
ColorChange
350
3A
  3
Conceptual
350
34
  3
Dim
350
35
  3
EdgeColorOff
350
3D
  3
Facepattern
350
39
  3
Flat
350
2B
  3
FlatWithEdges
350
2C
  3
Gouraud
350
2D
  3
GouraudWithEdges
350
2E
  3
Hidden
350
31
  3
JitterOff
350
3B
  3
Linepattern
350
38
  3
OverhangOff
350
3C
  3
Realistic
350
33
  3
Shaded
350
42
  3
Shaded with edges
350
41
  3
Shades of Gray
350
3E
  3
Sketchy
350
3F
  3
Thicken
350
37
  3
Wireframe
350
30
  3
X-Ray
350
40
  0
DICTIONARY
  5
356
102
{ACAD_REACTORS
330
C
102
}
330
C
100
AcDbDictionary
281
     1
  3
CANNOSCALE
350
357
  0
LAYOUT
  5
1E
102
{ACAD_REACTORS
330
1A
102
}
330
1A
100
AcDbPlotSettings
  1

  2
none_device
  4

  6

 40
0.0
 41
0.0
 42
0.0
 43
0.0
 44
0.0
 45
0.0
 46
0.0
 47
0.0
 48
0.0
 49
0.0
140
0.0
141
0.0
142
1.0
143
1.0
 70
   688
 72
     1
 73
     0
 74
     5
  7

 75
    16
 76
     0
 77
     2
 78
   300
147
1.0
148
0.0
149
0.0
100
AcDbLayout
  1
Layout1
 70
     1
 71
     1
 10
0.0
 20
0.0
 11
420.0
 21
297.0
 12
0.0
 22
0.0
 32
0.0
 14
1.000000000000000E+20
 24
1.000000000000000E+20
 34
1.000000000000000E+20
 15
-1.000000000000000E+20
 25
-1.000000000000000E+20
 35
-1.000000000000000E+20
146
0.0
 13
0.0
 23
0.0
 33
0.0
 16
1.0
 26
0.0
 36
0.0
 17
0.0
 27
1.0
 37
0.0
 76
     0
330
1B
  0
LAYOUT
  5
26
102
{ACAD_REACTORS
330
1A
102
}
330
1A
100
AcDbPlotSettings
  1

  2
none_device
  4

  6

 40
0.0
 41
0.0
 42
0.0
 43
0.0
 44
0.0
 45
0.0
 46
0.0
 47
0.0
 48
0.0
 49
0.0
140
0.0
141
0.0
142
1.0
143
1.0
 70
   688
 72
     1
 73
     0
 74
     5
  7

 75
    16
 76
     0
 77
     2
 78
   300
147
1.0
148
0.0
149
0.0
100
AcDbLayout
  1
Layout2
 70
     1
 71
     2
 10
0.0
 20
0.0
 11
0.0
 21
0.0
 12
0.0
 22
0.0
 32
0.0
 14
0.0
 24
0.0
 34
0.0
 15
0.0
 25
0.0
 35
0.0
146
0.0
 13
0.0
 23
0.0
 33
0.0
 16
1.0
 26
0.0
 36
0.0
 17
0.0
 27
1.0
 37
0.0
 76
     0
330
23
  0
LAYOUT
  5
22
102
{ACAD_REACTORS
330
1A
102
}
330
1A
100
AcDbPlotSettings
  1

  2
none_device
  4
Letter_(8.50_x_11.00_Inches)
  6

 40
6.35
 41
6.35
 42
6.35000508
 43
6.35000508
 44
215.9
 45
279.4
 46
0.0
 47
0.0
 48
0.0
 49
0.0
140
0.0
141
0.0
142
1.0
143
1.0
 70
  1712
 72
     1
 73
     0
 74
     0
  7

 75
     0
 76
     0
 77
     2
 78
   300
147
1.0
148
0.0
149
0.0
100
AcDbLayout
  1
Model
 70
     1
 71
     0
 10
0.0
 20
0.0
 11
420.0
 21
297.0
 12
0.0
 22
0.0
 32
0.0
 14
-139.637476
 24
-97.86864329471652
 34
0.0
 15
138.6374746984039
 25
97.86864329471665
 35
0.0
146
0.0
 13
0.0
 23
0.0
 33
0.0
 16
1.0
 26
0.0
 36
0.0
 17
0.0
 27
1.0
 37
0.0
 76
     0
330
1F
331
29
  0
MATERIAL
  5
45
102
{ACAD_REACTORS
330
43
102
}
330
43
100
AcDbMaterial
  1
ByBlock
 72
     1
 94
      127
  0
MATERIAL
  5
44
102
{ACAD_REACTORS
330
43
102
}
330
43
100
AcDbMaterial
  1
ByLayer
 72
     1
 94
      127
  0
MATERIAL
  5
46
102
{ACAD_REACTORS
330
43
102
}
330
43
100
AcDbMaterial
  1
Global
 72
     1
 94
      127
  0
MLINESTYLE
  5
18
102
{ACAD_REACTORS
330
17
102
}
330
17
100
AcDbMlineStyle
  2
Standard
 70
     0
  3

 62
   256
 51
90.0
 52
90.0
 71
     2
 49
0.5
 62
   256
  6
BYLAYER
 49
-0.5
 62
   256
  6
BYLAYER
  0
ACDBPLACEHOLDER
  5
F
102
{ACAD_REACTORS
330
E
102
}
330
E
  0
SCALE
  5
48
102
{ACAD_REACTORS
330
47
102
}
330
47
100
AcDbScale
 70
     0
300
1:1
140
1.0
141
1.0
290
     1
  0
SCALE
  5
49
102
{ACAD_REACTORS
330
47
102
}
330
47
100
AcDbScale
 70
     0
300
1:2
140
1.0
141
2.0
290
     0
  0
SCALE
  5
4A
102
{ACAD_REACTORS
330
47
102
}
330
47
100
AcDbScale
 70
     0
300
1:4
140
1.0
141
4.0
290
     0
  0
SCALE
  5
4B
102
{ACAD_REACTORS
330
47
102
}
330
47
100
AcDbScale
 70
     0
300
1:5
140
1.0
141
5.0
290
     0
  0
SCALE
  5
4C
102
{ACAD_REACTORS
330
47
102
}
330
47
100
AcDbScale
 70
     0
300
1:8
140
1.0
141
8.0
290
     0
  0
SCALE
  5
4D
102
{ACAD_REACTORS
330
47
102
}
330
47
100
AcDbScale
 70
     0
300
1:10
140
1.0
141
10.0
290
     0
  0
SCALE
  5
4E
102
{ACAD_REACTORS
330
47
102
}
330
47
100
AcDbScale
 70
     0
300
1:16
140
1.0
141
16.0
290
     0
  0
SCALE
  5
4F
102
{ACAD_REACTORS
330
47
102
}
330
47
100
AcDbScale
 70
     0
300
1:20
140
1.0
141
20.0
290
     0
  0
SCALE
  5
50
102
{ACAD_REACTORS
330
47
102
}
330
47
100
AcDbScale
 70
     0
300
1:30
140
1.0
141
30.0
290
     0
  0
SCALE
  5
51
102
{ACAD_REACTORS
330
47
102
}
330
47
100
AcDbScale
 70
     0
300
1:40
140
1.0
141
40.0
290
     0
  0
SCALE
  5
52
102
{ACAD_REACTORS
330
47
102
}
330
47
100
AcDbScale
 70
     0
300
1:50
140
1.0
141
50.0
290
     0
  0
SCALE
  5
53
102
{ACAD_REACTORS
330
47
102
}
330
47
100
AcDbScale
 70
     0
300
1:100
140
1.0
141
100.0
290
     0
  0
SCALE
  5
54
102
{ACAD_REACTORS
330
47
102
}
330
47
100
AcDbScale
 70
     0
300
2:1
140
2.0
141
1.0
290
     0
  0
SCALE
  5
55
102
{ACAD_REACTORS
330
47
102
}
330
47
100
AcDbScale
 70
     0
300
4:1
140
4.0
141
1.0
290
     0
  0
SCALE
  5
56
102
{ACAD_REACTORS
330
47
102
}
330
47
100
AcDbScale
 70
     0
300
8:1
140
8.0
141
1.0
290
     0
  0
SCALE
  5
57
102
{ACAD_REACTORS
330
47
102
}
330
47
100
AcDbScale
 70
     0
300
10:1
140
10.0
141
1.0
290
     0
  0
SCALE
  5
58
102
{ACAD_REACTORS
330
47
102
}
330
47
100
AcDbScale
 70
     0
300
100:1
140
100.0
141
1.0
290
     0
  0
SCALE
  5
59
102
{ACAD_REACTORS
330
47
102
}
330
47
100
AcDbScale
 70
     0
300
1/128" = 1'-0"
140
0.0078125
141
12.0
290
     0
  0
SCALE
  5
5A
102
{ACAD_REACTORS
330
47
102
}
330
47
100
AcDbScale
 70
     0
300
1/64" = 1'-0"
140
0.015625
141
12.0
290
     0
  0
SCALE
  5
5B
102
{ACAD_REACTORS
330
47
102
}
330
47
100
AcDbScale
 70
     0
300
1/32" = 1'-0"
140
0.03125
141
12.0
290
     0
  0
SCALE
  5
5C
102
{ACAD_REACTORS
330
47
102
}
330
47
100
AcDbScale
 70
     0
300
1/16" = 1'-0"
140
0.0625
141
12.0
290
     0
  0
SCALE
  5
5D
102
{ACAD_REACTORS
330
47
102
}
330
47
100
AcDbScale
 70
     0
300
3/32" = 1'-0"
140
0.09375
141
12.0
290
     0
  0
SCALE
  5
5E
102
{ACAD_REACTORS
330
47
102
}
330
47
100
AcDbScale
 70
     0
300
1/8" = 1'-0"
140
0.125
141
12.0
290
     0
  0
SCALE
  5
5F
102
{ACAD_REACTORS
330
47
102
}
330
47
100
AcDbScale
 70
     0
300
3/16" = 1'-0"
140
0.1875
141
12.0
290
     0
  0
SCALE
  5
60
102
{ACAD_REACTORS
330
47
102
}
330
47
100
AcDbScale
 70
     0
300
1/4" = 1'-0"
140
0.25
141
12.0
290
     0
  0
SCALE
  5
61
102
{ACAD_REACTORS
330
47
102
}
330
47
100
AcDbScale
 70
     0
300
3/8" = 1'-0"
140
0.375
141
12.0
290
     0
  0
SCALE
  5
62
102
{ACAD_REACTORS
330
47
102
}
330
47
100
AcDbScale
 70
     0
300
1/2" = 1'-0"
140
0.5
141
12.0
290
     0
  0
SCALE
  5
63
102
{ACAD_REACTORS
330
47
102
}
330
47
100
AcDbScale
 70
     0
300
3/4" = 1'-0"
140
0.75
141
12.0
290
     0
  0
SCALE
  5
64
102
{ACAD_REACTORS
330
47
102
}
330
47
100
AcDbScale
 70
     0
300
1" = 1'-0"
140
1.0
141
12.0
290
     0
  0
SCALE
  5
65
102
{ACAD_REACTORS
330
47
102
}
330
47
100
AcDbScale
 70
     0
300
1-1/2" = 1'-0"
140
1.5
141
12.0
290
     0
  0
SCALE
  5
66
102
{ACAD_REACTORS
330
47
102
}
330
47
100
AcDbScale
 70
     0
300
3" = 1'-0"
140
3.0
141
12.0
290
     0
  0
SCALE
  5
67
102
{ACAD_REACTORS
330
47
102
}
330
47
100
AcDbScale
 70
     0
300
6" = 1'-0"
140
6.0
141
12.0
290
     0
  0
SCALE
  5
68
102
{ACAD_REACTORS
330
47
102
}
330
47
100
AcDbScale
 70
     0
300
1'-0" = 1'-0"
140
12.0
141
12.0
290
     0
  0
VISUALSTYLE
  5
2F
102
{ACAD_REACTORS
330
2A
102
}
102
{ACAD_XDICTIONARY
360
360
102
}
330
2A
100
AcDbVisualStyle
  2
2dWireframe
 70
     4
177
     2
291
     0
 71
     0
176
     1
 72
     2
176
     1
 73
     0
176
     1
 90
        0
176
     1
 40
0.6
176
     1
 41
30.0
176
     1
 62
     5
 63
     7
421
 16777215
176
     1
 74
     1
176
     1
 91
        4
176
     1
 64
     7
176
     1
 65
   257
176
     1
 75
     1
176
     1
175
     1
176
     1
 42
1.0
176
     1
 92
        0
176
     1
 66
   257
176
     1
 43
1.0
176
     1
 76
     1
176
     1
 77
     6
176
     1
 78
     2
176
     1
 67
     7
176
     1
 79
     5
176
     1
170
     0
176
     1
171
     0
176
     1
290
     0
176
     1
 93
        1
176
     1
 44
0.0
176
     1
173
     0
176
     1
  0
VISUALSTYLE
  5
32
102
{ACAD_REACTORS
330
2A
102
}
102
{ACAD_XDICTIONARY
360
366
102
}
330
2A
100
AcDbVisualStyle
  2
Basic
 70
     7
177
     2
291
     1
 71
     1
176
     1
 72
     0
176
     1
 73
     1
176
     1
 90
        0
176
     1
 40
0.6
176
     1
 41
30.0
176
     1
 62
     5
 63
     7
421
 16777215
176
     1
 74
     0
176
     1
 91
        4
176
     1
 64
     7
176
     1
 65
   257
176
     1
 75
     1
176
     1
175
     1
176
     1
 42
1.0
176
     1
 92
        8
176
     1
 66
     7
176
     1
 43
1.0
176
     1
 76
     1
176
     1
 77
     6
176
     1
 78
     2
176
     1
 67
     7
176
     1
 79
     5
176
     1
170
     0
176
     1
171
     0
176
     1
290
     0
176
     1
 93
        1
176
     1
 44
0.0
176
     1
173
     0
176
     1
  0
VISUALSTYLE
  5
36
102
{ACAD_REACTORS
330
2A
102
}
102
{ACAD_XDICTIONARY
360
36E
102
}
330
2A
100
AcDbVisualStyle
  2
Brighten
 70
    12
177
     2
291
     1
 71
     2
176
     1
 72
     2
176
     1
 73
     0
176
     1
 90
        0
176
     1
 40
0.6
176
     1
 41
30.0
176
     1
 62
     5
 63
     7
421
 16777215
176
     1
 74
     1
176
     1
 91
        4
176
     1
 64
     7
176
     1
 65
   257
176
     1
 75
     1
176
     1
175
     1
176
     1
 42
1.0
176
     1
 92
        8
176
     1
 66
     7
176
     1
 43
1.0
176
     1
 76
     1
176
     1
 77
     6
176
     1
 78
     2
176
     1
 67
     7
176
     1
 79
     5
176
     1
170
     0
176
     1
171
     0
176
     1
290
     0
176
     1
 93
        1
176
     1
 44
50.0
176
     1
173
     0
176
     1
  0
VISUALSTYLE
  5
3A
102
{ACAD_REACTORS
330
2A
102
}
102
{ACAD_XDICTIONARY
360
376
102
}
330
2A
100
AcDbVisualStyle
  2
ColorChange
 70
    16
177
     2
291
     1
 71
     2
176
     1
 72
     2
176
     1
 73
     3
176
     1
 90
        0
176
     1
 40
0.6
176
     1
 41
30.0
176
     1
 62
     5
 63
     8
421
  8421504
176
     1
 74
     1
176
     1
 91
        4
176
     1
 64
     7
176
     1
 65
   257
176
     1
 75
     1
176
     1
175
     1
176
     1
 42
1.0
176
     1
 92
        8
176
     1
 66
     8
424
  8421504
176
     1
 43
1.0
176
     1
 76
     1
176
     1
 77
     6
176
     1
 78
     2
176
     1
 67
     7
176
     1
 79
     5
176
     1
170
     0
176
     1
171
     0
176
     1
290
     0
176
     1
 93
        1
176
     1
 44
0.0
176
     1
173
     0
176
     1
  0
VISUALSTYLE
  5
34
102
{ACAD_REACTORS
330
2A
102
}
102
{ACAD_XDICTIONARY
360
36A
102
}
330
2A
100
AcDbVisualStyle
  2
Conceptual
 70
     9
177
     2
291
     0
 71
     3
176
     1
 72
     2
176
     1
 73
     0
176
     1
 90
        0
176
     1
 40
0.6
176
     1
 41
30.0
176
     1
 62
     5
 63
     7
421
 16777215
176
     1
 74
     2
176
     1
 91
        2
176
     1
 64
     7
176
     1
 65
   257
176
     1
 75
     1
176
     1
175
     1
176
     1
 42
179.0
176
     1
 92
        8
176
     1
 66
     7
176
     1
 43
1.0
176
     1
 76
     1
176
     1
 77
     6
176
     1
 78
     2
176
     1
 67
     7
176
     1
 79
     3
176
     1
170
     0
176
     1
171
     0
176
     1
290
     0
176
     1
 93
        1
176
     1
 44
0.0
176
     1
173
     0
176
     1
  0
VISUALSTYLE
  5
35
102
{ACAD_REACTORS
330
2A
102
}
102
{ACAD_XDICTIONARY
360
36C
102
}
330
2A
100
AcDbVisualStyle
  2
Dim
 70
    11
177
     2
291
     1
 71
     2
176
     1
 72
     2
176
     1
 73
     0
176
     1
 90
        0
176
     1
 40
0.6
176
     1
 41
30.0
176
     1
 62
     5
 63
     7
421
 16777215
176
     1
 74
     1
176
     1
 91
        4
176
     1
 64
     7
176
     1
 65
   257
176
     1
 75
     1
176
     1
175
     1
176
     1
 42
1.0
176
     1
 92
        8
176
     1
 66
     7
176
     1
 43
1.0
176
     1
 76
     1
176
     1
 77
     6
176
     1
 78
     2
176
     1
 67
     7
176
     1
 79
     5
176
     1
170
     0
176
     1
171
     0
176
     1
290
     0
176
     1
 93
        1
176
     1
 44
-50.0
176
     1
173
     0
176
     1
  0
VISUALSTYLE
  5
3D
102
{ACAD_REACTORS
330
2A
102
}
102
{ACAD_XDICTIONARY
360
37C
102
}
330
2A
100
AcDbVisualStyle
  2
EdgeColorOff
 70
    22
177
     2
291
     1
 71
     2
176
     0
 72
     2
176
     0
 73
     0
176
     0
 90
        0
176
     0
 40
0.6
176
     0
 41
30.0
176
     0
 62
     5
 63
     7
421
 16777215
176
     0
 74
     1
176
     0
 91
        4
176
     0
 64
     7
176
     0
 65
   257
176
     0
 75
     1
176
     0
175
     1
176
     0
 42
1.0
176
     0
 92
        8
176
     2
 66
     7
176
     0
 43
1.0
176
     0
 76
     1
176
     0
 77
     6
176
     0
 78
     2
176
     0
 67
     7
176
     0
 79
     5
176
     0
170
     0
176
     0
171
     0
176
     0
290
     0
176
     0
 93
        1
176
     0
 44
0.0
176
     0
173
     0
176
     0
  0
VISUALSTYLE
  5
39
102
{ACAD_REACTORS
330
2A
102
}
102
{ACAD_XDICTIONARY
360
374
102
}
330
2A
100
AcDbVisualStyle
  2
Facepattern
 70
    15
177
     2
291
     1
 71
     2
176
     1
 72
     2
176
     1
 73
     0
176
     1
 90
        0
176
     1
 40
0.6
176
     1
 41
30.0
176
     1
 62
     5
 63
     7
421
 16777215
176
     1
 74
     1
176
     1
 91
        4
176
     1
 64
     7
176
     1
 65
   257
176
     1
 75
     1
176
     1
175
     1
176
     1
 42
1.0
176
     1
 92
        8
176
     1
 66
     7
176
     1
 43
1.0
176
     1
 76
     1
176
     1
 77
     6
176
     1
 78
     2
176
     1
 67
     7
176
     1
 79
     5
176
     1
170
     0
176
     1
171
     0
176
     1
290
     0
176
     1
 93
        1
176
     1
 44
0.0
176
     1
173
     0
176
     1
  0
VISUALSTYLE
  5
2B
102
{ACAD_REACTORS
330
2A
102
}
102
{ACAD_XDICTIONARY
360
358
102
}
330
2A
100
AcDbVisualStyle
  2
Flat
 70
     0
177
     2
291
     1
 71
     2
176
     1
 72
     1
176
     1
 73
     1
176
     1
 90
        2
176
     1
 40
0.6
176
     1
 41
30.0
176
     1
 62
     5
 63
     7
421
 16777215
176
     1
 74
     0
176
     1
 91
        0
176
     1
 64
     7
176
     1
 65
   257
176
     1
 75
     1
176
     1
175
     1
176
     1
 42
1.0
176
     1
 92
        8
176
     1
 66
     7
176
     1
 43
1.0
176
     1
 76
     1
176
     1
 77
     6
176
     1
 78
     2
176
     1
 67
     7
176
     1
 79
     5
176
     1
170
     0
176
     1
171
     0
176
     1
290
     0
176
     1
 93
       13
176
     1
 44
0.0
176
     1
173
     0
176
     1
  0
VISUALSTYLE
  5
2C
102
{ACAD_REACTORS
330
2A
102
}
102
{ACAD_XDICTIONARY
360
35A
102
}
330
2A
100
AcDbVisualStyle
  2
FlatWithEdges
 70
     1
177
     2
291
     1
 71
     2
176
     1
 72
     1
176
     1
 73
     1
176
     1
 90
        2
176
     1
 40
0.6
176
     1
 41
30.0
176
     1
 62
     5
 63
     7
421
 16777215
176
     1
 74
     1
176
     1
 91
        0
176
     1
 64
     7
176
     1
 65
   257
176
     1
 75
     1
176
     1
175
     1
176
     1
 42
1.0
176
     1
 92
        0
176
     1
 66
   257
176
     1
 43
1.0
176
     1
 76
     1
176
     1
 77
     6
176
     1
 78
     2
176
     1
 67
     7
176
     1
 79
     5
176
     1
170
     0
176
     1
171
     0
176
     1
290
     0
176
     1
 93
       13
176
     1
 44
0.0
176
     1
173
     0
176
     1
  0
VISUALSTYLE
  5
2D
102
{ACAD_REACTORS
330
2A
102
}
102
{ACAD_XDICTIONARY
360
35C
102
}
330
2A
100
AcDbVisualStyle
  2
Gouraud
 70
     2
177
     2
291
     1
 71
     2
176
     1
 72
     2
176
     1
 73
     1
176
     1
 90
        2
176
     1
 40
0.6
176
     1
 41
30.0
176
     1
 62
     5
 63
     7
421
 16777215
176
     1
 74
     0
176
     1
 91
        0
176
     1
 64
     7
176
     1
 65
   257
176
     1
 75
     1
176
     1
175
     1
176
     1
 42
1.0
176
     1
 92
        0
176
     1
 66
     7
176
     1
 43
1.0
176
     1
 76
     1
176
     1
 77
     6
176
     1
 78
     2
176
     1
 67
     7
176
     1
 79
     5
176
     1
170
     0
176
     1
171
     0
176
     1
290
     0
176
     1
 93
       13
176
     1
 44
0.0
176
     1
173
     0
176
     1
  0
VISUALSTYLE
  5
2E
102
{ACAD_REACTORS
330
2A
102
}
102
{ACAD_XDICTIONARY
360
35E
102
}
330
2A
100
AcDbVisualStyle
  2
GouraudWithEdges
 70
     3
177
     2
291
     1
 71
     2
176
     1
 72
     2
176
     1
 73
     1
176
     1
 90
        2
176
     1
 40
0.6
176
     1
 41
30.0
176
     1
 62
     5
 63
     7
421
 16777215
176
     1
 74
     1
176
     1
 91
        0
176
     1
 64
     7
176
     1
 65
   257
176
     1
 75
     1
176
     1
175
     1
176
     1
 42
1.0
176
     1
 92
        0
176
     1
 66
   257
176
     1
 43
1.0
176
     1
 76
     1
176
     1
 77
     6
176
     1
 78
     2
176
     1
 67
     7
176
     1
 79
     5
176
     1
170
     0
176
     1
171
     0
176
     1
290
     0
176
     1
 93
       13
176
     1
 44
0.0
176
     1
173
     0
176
     1
  0
VISUALSTYLE
  5
31
102
{ACAD_REACTORS
330
2A
102
}
102
{ACAD_XDICTIONARY
360
364
102
}
330
2A
100
AcDbVisualStyle
  2
Hidden
 70
     6
177
     2
291
     0
 71
     1
176
     1
 72
     2
176
     1
 73
     2
176
     1
 90
        0
176
     1
 40
0.6
176
     1
 41
30.0
176
     1
 62
     5
 63
     7
421
 16777215
176
     1
 74
     2
176
     1
 91
        2
176
     1
 64
     7
176
     1
 65
   257
176
     1
 75
     2
176
     1
175
     1
176
     1
 42
40.0
176
     1
 92
        0
176
     1
 66
   257
176
     1
 43
1.0
176
     1
 76
     1
176
     1
 77
     6
176
     1
 78
     2
176
     1
 67
     7
176
     1
 79
     3
176
     1
170
     0
176
     1
171
     0
176
     1
290
     0
176
     1
 93
        1
176
     1
 44
0.0
176
     1
173
     0
176
     1
  0
VISUALSTYLE
  5
3B
102
{ACAD_REACTORS
330
2A
102
}
102
{ACAD_XDICTIONARY
360
378
102
}
330
2A
100
AcDbVisualStyle
  2
JitterOff
 70
    20
177
     2
291
     1
 71
     2
176
     0
 72
     2
176
     0
 73
     0
176
     0
 90
        0
176
     0
 40
0.6
176
     0
 41
30.0
176
     0
 62
     5
 63
     7
421
 16777215
176
     0
 74
     1
176
     0
 91
        4
176
     0
 64
     7
176
     0
 65
   257
176
     0
 75
     1
176
     0
175
     1
176
     0
 42
1.0
176
     0
 92
       10
176
     2
 66
     7
176
     0
 43
1.0
176
     0
 76
     1
176
     0
 77
     6
176
     0
 78
     2
176
     0
 67
     7
176
     0
 79
     5
176
     0
170
     0
176
     0
171
     0
176
     0
290
     0
176
     0
 93
        1
176
     0
 44
0.0
176
     0
173
     0
176
     0
  0
VISUALSTYLE
  5
38
102
{ACAD_REACTORS
330
2A
102
}
102
{ACAD_XDICTIONARY
360
372
102
}
330
2A
100
AcDbVisualStyle
  2
Linepattern
 70
    14
177
     2
291
     1
 71
     2
176
     1
 72
     2
176
     1
 73
     0
176
     1
 90
        0
176
     1
 40
0.6
176
     1
 41
30.0
176
     1
 62
     5
 63
     7
421
 16777215
176
     1
 74
     1
176
     1
 91
        4
176
     1
 64
     7
176
     1
 65
   257
176
     1
 75
     7
176
     1
175
     7
176
     1
 42
1.0
176
     1
 92
        8
176
     1
 66
     7
176
     1
 43
1.0
176
     1
 76
     1
176
     1
 77
     6
176
     1
 78
     2
176
     1
 67
     7
176
     1
 79
     5
176
     1
170
     0
176
     1
171
     0
176
     1
290
     0
176
     1
 93
        1
176
     1
 44
0.0
176
     1
173
     0
176
     1
  0
VISUALSTYLE
  5
3C
102
{ACAD_REACTORS
330
2A
102
}
102
{ACAD_XDICTIONARY
360
37A
102
}
330
2A
100
AcDbVisualStyle
  2
OverhangOff
 70
    21
177
     2
291
     1
 71
     2
176
     0
 72
     2
176
     0
 73
     0
176
     0
 90
        0
176
     0
 40
0.6
176
     0
 41
30.0
176
     0
 62
     5
 63
     7
421
 16777215
176
     0
 74
     1
176
     0
 91
        4
176
     0
 64
     7
176
     0
 65
   257
176
     0
 75
     1
176
     0
175
     1
176
     0
 42
1.0
176
     0
 92
        9
176
     2
 66
     7
176
     0
 43
1.0
176
     0
 76
     1
176
     0
 77
     6
176
     0
 78
     2
176
     0
 67
     7
176
     0
 79
     5
176
     0
170
     0
176
     0
171
     0
176
     0
290
     0
176
     0
 93
        1
176
     0
 44
0.0
176
     0
173
     0
176
     0
  0
VISUALSTYLE
  5
33
102
{ACAD_REACTORS
330
2A
102
}
102
{ACAD_XDICTIONARY
360
368
102
}
330
2A
100
AcDbVisualStyle
  2
Realistic
 70
     8
177
     2
291
     0
 71
     2
176
     1
 72
     3
176
     1
 73
     0
176
     1
 90
        2
176
     1
 40
0.6
176
     1
 41
30.0
176
     1
 62
     5
 63
     7
421
 16777215
176
     1
 74
     0
176
     1
 91
        0
176
     1
 64
     7
176
     1
 65
   257
176
     1
 75
     1
176
     1
175
     1
176
     1
 42
1.0
176
     1
 92
        8
176
     1
 66
   257
176
     1
 43
1.0
176
     1
 76
     1
176
     1
 77
     6
176
     1
 78
     2
176
     1
 67
     7
176
     1
 79
     3
176
     1
170
     0
176
     1
171
     0
176
     1
290
     0
176
     1
 93
       13
176
     1
 44
0.0
176
     1
173
     0
176
     1
  0
VISUALSTYLE
  5
42
102
{ACAD_REACTORS
330
2A
102
}
102
{ACAD_XDICTIONARY
360
386
102
}
330
2A
100
AcDbVisualStyle
  2
Shaded
 70
    27
177
     2
291
     0
 71
     2
176
     1
 72
     2
176
     1
 73
     1
176
     1
 90
        2
176
     1
 40
0.6
176
     1
 41
30.0
176
     1
 62
     5
 63
     7
421
 16777215
176
     1
 74
     0
176
     1
 91
        4
176
     1
 64
     7
176
     1
 65
   257
176
     1
 75
     1
176
     1
175
     1
176
     1
 42
1.0
176
     1
 92
        8
176
     1
 66
   257
176
     1
 43
1.0
176
     1
 76
     1
176
     1
 77
     6
176
     1
 78
     2
176
     1
 67
     8
425
  7895160
176
     1
 79
     3
176
     1
170
     0
176
     1
171
     0
176
     1
290
     0
176
     1
 93
        5
176
     1
 44
0.0
176
     1
173
     0
176
     1
  0
VISUALSTYLE
  5
41
102
{ACAD_REACTORS
330
2A
102
}
102
{ACAD_XDICTIONARY
360
384
102
}
330
2A
100
AcDbVisualStyle
  2
Shaded with edges
 70
    26
177
     2
291
     0
 71
     2
176
     1
 72
     2
176
     1
 73
     1
176
     1
 90
        2
176
     1
 40
0.6
176
     1
 41
30.0
176
     1
 62
     5
 63
     7
421
 16777215
176
     1
 74
     1
176
     1
 91
       10
176
     1
 64
     7
176
     1
 65
   257
176
     1
 75
     2
176
     1
175
     1
176
     1
 42
1.0
176
     1
 92
        8
176
     1
 66
   257
176
     1
 43
1.0
176
     1
 76
     1
176
     1
 77
     6
176
     1
 78
     2
176
     1
 67
     7
176
     1
 79
     3
176
     1
170
     0
176
     1
171
     0
176
     1
290
     0
176
     1
 93
        5
176
     1
 44
0.0
176
     1
173
     0
176
     1
  0
VISUALSTYLE
  5
3E
102
{ACAD_REACTORS
330
2A
102
}
102
{ACAD_XDICTIONARY
360
37E
102
}
330
2A
100
AcDbVisualStyle
  2
Shades of Gray
 70
    23
177
     2
291
     0
 71
     2
176
     1
 72
     2
176
     1
 73
     3
176
     1
 90
        0
176
     1
 40
0.6
176
     1
 41
30.0
176
     1
 62
     5
 63
     7
421
 16777215
176
     1
 74
     2
176
     1
 91
        2
176
     1
 64
     7
176
     1
 65
     7
176
     1
 75
     1
176
     1
175
     1
176
     1
 42
40.0
176
     1
 92
        8
176
     1
 66
     7
176
     1
 43
1.0
176
     1
 76
     1
176
     1
 77
     6
176
     1
 78
     2
176
     1
 67
     7
176
     1
 79
     3
176
     1
170
     0
176
     1
171
     0
176
     1
290
     0
176
     1
 93
        1
176
     1
 44
0.0
176
     1
173
     0
176
     1
  0
VISUALSTYLE
  5
3F
102
{ACAD_REACTORS
330
2A
102
}
102
{ACAD_XDICTIONARY
360
380
102
}
330
2A
100
AcDbVisualStyle
  2
Sketchy
 70
    24
177
     2
291
     0
 71
     1
176
     1
 72
     2
176
     1
 73
     2
176
     1
 90
        0
176
     1
 40
0.6
176
     1
 41
30.0
176
     1
 62
     5
 63
     7
421
 16777215
176
     1
 74
     2
176
     1
 91
        2
176
     1
 64
     7
176
     1
 65
     7
176
     1
 75
     1
176
     1
175
     1
176
     1
 42
40.0
176
     1
 92
       11
176
     1
 66
     7
176
     1
 43
1.0
176
     1
 76
     1
176
     1
 77
     6
176
     1
 78
     2
176
     1
 67
     7
176
     1
 79
     6
176
     1
170
     0
176
     1
171
     0
176
     1
290
     0
176
     1
 93
        1
176
     1
 44
0.0
176
     1
173
     0
176
     1
  0
VISUALSTYLE
  5
37
102
{ACAD_REACTORS
330
2A
102
}
102
{ACAD_XDICTIONARY
360
370
102
}
330
2A
100
AcDbVisualStyle
  2
Thicken
 70
    13
177
     2
291
     1
 71
     2
176
     1
 72
     2
176
     1
 73
     0
176
     1
 90
        0
176
     1
 40
0.6
176
     1
 41
30.0
176
     1
 62
     5
 63
     7
421
 16777215
176
     1
 74
     1
176
     1
 91
        4
176
     1
 64
     7
176
     1
 65
   257
176
     1
 75
     1
176
     1
175
     1
176
     1
 42
1.0
176
     1
 92
       12
176
     1
 66
     7
176
     1
 43
1.0
176
     1
 76
     1
176
     1
 77
     6
176
     1
 78
     2
176
     1
 67
     7
176
     1
 79
     5
176
     1
170
     0
176
     1
171
     0
176
     1
290
     0
176
     1
 93
        1
176
     1
 44
0.0
176
     1
173
     0
176
     1
  0
VISUALSTYLE
  5
30
102
{ACAD_REACTORS
330
2A
102
}
102
{ACAD_XDICTIONARY
360
362
102
}
330
2A
100
AcDbVisualStyle
  2
Wireframe
 70
     5
177
     2
291
     0
 71
     0
176
     1
 72
     2
176
     1
 73
     0
176
     1
 90
        0
176
     1
 40
0.6
176
     1
 41
30.0
176
     1
 62
     5
 63
     7
421
 16777215
176
     1
 74
     1
176
     1
 91
        4
176
     1
 64
     7
176
     1
 65
   257
176
     1
 75
     1
176
     1
175
     1
176
     1
 42
1.0
176
     1
 92
        0
176
     1
 66
   257
176
     1
 43
1.0
176
     1
 76
     1
176
     1
 77
     6
176
     1
 78
     2
176
     1
 67
     7
176
     1
 79
     3
176
     1
170
     0
176
     1
171
     0
176
     1
290
     0
176
     1
 93
        1
176
     1
 44
0.0
176
     1
173
     0
176
     1
  0
VISUALSTYLE
  5
40
102
{ACAD_REACTORS
330
2A
102
}
102
{ACAD_XDICTIONARY
360
382
102
}
330
2A
100
AcDbVisualStyle
  2
X-Ray
 70
    25
177
     2
291
     0
 71
     2
176
     1
 72
     2
176
     1
 73
     1
176
     1
 90
        1
176
     1
 40
0.5
176
     1
 41
30.0
176
     1
 62
     5
 63
     7
421
 16777215
176
     1
 74
     1
176
     1
 91
        0
176
     1
 64
     7
176
     1
 65
   257
176
     1
 75
     1
176
     1
175
     1
176
     1
 42
1.0
176
     1
 92
        8
176
     1
 66
     7
176
     1
 43
1.0
176
     1
 76
     1
176
     1
 77
     6
176
     1
 78
     2
176
     1
 67
     7
176
     1
 79
     3
176
     1
170
     0
176
     1
171
     0
176
     1
290
     0
176
     1
 93
       13
176
     1
 44
0.0
176
     1
173
     0
176
     1
  0
DICTIONARYVAR
  5
357
102
{ACAD_REACTORS
330
356
102
}
330
356
100
DictionaryVariables
280
     0
  1
1:1
  0
DICTIONARY
  5
360
330
2F
100
AcDbDictionary
280
     1
281
     1
  3
ACAD_XREC_ROUNDTRIP
360
361
  0
DICTIONARY
  5
366
330
32
100
AcDbDictionary
280
     1
281
     1
  3
ACAD_XREC_ROUNDTRIP
360
367
  0
DICTIONARY
  5
36E
330
36
100
AcDbDictionary
280
     1
281
     1
  3
ACAD_XREC_ROUNDTRIP
360
36F
  0
DICTIONARY
  5
376
330
3A
100
AcDbDictionary
280
     1
281
     1
  3
ACAD_XREC_ROUNDTRIP
360
377
  0
DICTIONARY
  5
36A
330
34
100
AcDbDictionary
280
     1
281
     1
  3
ACAD_XREC_ROUNDTRIP
360
36B
  0
DICTIONARY
  5
36C
330
35
100
AcDbDictionary
280
     1
281
     1
  3
ACAD_XREC_ROUNDTRIP
360
36D
  0
DICTIONARY
  5
37C
330
3D
100
AcDbDictionary
280
     1
281
     1
  3
ACAD_XREC_ROUNDTRIP
360
37D
  0
DICTIONARY
  5
374
330
39
100
AcDbDictionary
280
     1
281
     1
  3
ACAD_XREC_ROUNDTRIP
360
375
  0
DICTIONARY
  5
358
330
2B
100
AcDbDictionary
280
     1
281
     1
  3
ACAD_XREC_ROUNDTRIP
360
359
  0
DICTIONARY
  5
35A
330
2C
100
AcDbDictionary
280
     1
281
     1
  3
ACAD_XREC_ROUNDTRIP
360
35B
  0
DICTIONARY
  5
35C
330
2D
100
AcDbDictionary
280
     1
281
     1
  3
ACAD_XREC_ROUNDTRIP
360
35D
  0
DICTIONARY
  5
35E
330
2E
100
AcDbDictionary
280
     1
281
     1
  3
ACAD_XREC_ROUNDTRIP
360
35F
  0
DICTIONARY
  5
364
330
31
100
AcDbDictionary
280
     1
281
     1
  3
ACAD_XREC_ROUNDTRIP
360
365
  0
DICTIONARY
  5
378
330
3B
100
AcDbDictionary
280
     1
281
     1
  3
ACAD_XREC_ROUNDTRIP
360
379
  0
DICTIONARY
  5
372
330
38
100
AcDbDictionary
280
     1
281
     1
  3
ACAD_XREC_ROUNDTRIP
360
373
  0
DICTIONARY
  5
37A
330
3C
100
AcDbDictionary
280
     1
281
     1
  3
ACAD_XREC_ROUNDTRIP
360
37B
  0
DICTIONARY
  5
368
330
33
100
AcDbDictionary
280
     1
281
     1
  3
ACAD_XREC_ROUNDTRIP
360
369
  0
DICTIONARY
  5
386
330
42
100
AcDbDictionary
280
     1
281
     1
  3
ACAD_XREC_ROUNDTRIP
360
387
  0
DICTIONARY
  5
384
330
41
100
AcDbDictionary
280
     1
281
     1
  3
ACAD_XREC_ROUNDTRIP
360
385
  0
DICTIONARY
  5
37E
330
3E
100
AcDbDictionary
280
     1
281
     1
  3
ACAD_XREC_ROUNDTRIP
360
37F
  0
DICTIONARY
  5
380
330
3F
100
AcDbDictionary
280
     1
281
     1
  3
ACAD_XREC_ROUNDTRIP
360
381
  0
DICTIONARY
  5
370
330
37
100
AcDbDictionary
280
     1
281
     1
  3
ACAD_XREC_ROUNDTRIP
360
371
  0
DICTIONARY
  5
362
330
30
100
AcDbDictionary
280
     1
281
     1
  3
ACAD_XREC_ROUNDTRIP
360
363
  0
DICTIONARY
  5
382
330
40
100
AcDbDictionary
280
     1
281
     1
  3
ACAD_XREC_ROUNDTRIP
360
383
  0
XRECORD
  5
361
102
{ACAD_REACTORS
330
360
102
}
330
360
100
AcDbXrecord
280
     1
102
RTVSPost2010Prop28
280
     1
102
RTVSPost2010PropOp28
 70
     1
102
RTVSPost2010Prop29
280
     1
102
RTVSPost2010PropOp29
 70
     1
102
RTVSPost2010Prop30
280
     0
102
RTVSPost2010PropOp30
 70
     1
102
RTVSPost2010Prop31
280
     0
102
RTVSPost2010PropOp31
 70
     1
102
RTVSPost2010Prop32
280
     0
102
RTVSPost2010PropOp32
 70
     1
102
RTVSPost2010Prop33
280
     0
102
RTVSPost2010PropOp33
 70
     1
102
RTVSPost2010Prop34
280
     0
102
RTVSPost2010PropOp34
 70
     1
102
RTVSPost2010Prop35
280
     0
102
RTVSPost2010PropOp35
 70
     1
102
RTVSPost2010Prop36
280
     0
102
RTVSPost2010PropOp36
 70
     1
102
RTVSPost2010Prop37
 90
       50
102
RTVSPost2010PropOp37
 70
     1
102
RTVSPost2010Prop38
140
0.0
102
RTVSPost2010PropOp38
 70
     1
102
RTVSPost2010Prop39
140
1.0
102
RTVSPost2010PropOp39
 70
     1
102
RTVSPost2010Prop40
 90
        0
102
RTVSPost2010PropOp40
 70
     1
102
RTVSPost2010Prop41ColorIndex
 90
       18
102
RTVSPost2010Prop41ColorRGB
 90
        0
102
RTVSPost2010PropOp41
 70
     1
102
RTVSPost2010Prop42
 90
       50
102
RTVSPost2010PropOp42
 70
     1
102
RTVSPost2010Prop43
 90
        3
102
RTVSPost2010PropOp43
 70
     1
102
RTVSPost2010Prop44ColorIndex
 90
        5
102
RTVSPost2010Prop44ColorRGB
 90
      255
102
RTVSPost2010PropOp44
 70
     1
102
RTVSPost2010Prop45
280
     0
102
RTVSPost2010PropOp45
 70
     1
102
RTVSPost2010Prop46
 90
       50
102
RTVSPost2010PropOp46
 70
     1
102
RTVSPost2010Prop47
 90
       50
102
RTVSPost2010PropOp47
 70
     1
102
RTVSPost2010Prop48
 90
       50
102
RTVSPost2010PropOp48
 70
     1
102
RTVSPost2010Prop49
280
     0
102
RTVSPost2010PropOp49
 70
     1
102
RTVSPost2010Prop50
 90
       50
102
RTVSPost2010PropOp50
 70
     1
102
RTVSPost2010Prop51ColorIndex
 90
      256
102
RTVSPost2010Prop51ColorRGB
 90
-16777216
102
RTVSPost2010PropOp51
 70
     0
102
RTVSPost2010Prop52
140
1.0
102
RTVSPost2010PropOp52
 70
     0
102
RTVSPost2010Prop53
 90
        2
102
RTVSPost2010PropOp53
 70
     1
102
RTVSPost2010Prop54
  1
strokes_ogs.tif
102
RTVSPost2010PropOp54
 70
     1
102
RTVSPost2010Prop55
280
     0
102
RTVSPost2010PropOp55
 70
     1
102
RTVSPost2010Prop56
140
1.0
102
RTVSPost2010PropOp56
 70
     1
102
RTVSPost2010Prop57
140
1.0
102
RTVSPost2010PropOp57
 70
     1
  0
XRECORD
  5
367
102
{ACAD_REACTORS
330
366
102
}
330
366
100
AcDbXrecord
280
     1
102
RTVSPost2010Prop28
280
     0
102
RTVSPost2010PropOp28
 70
     1
102
RTVSPost2010Prop29
280
     1
102
RTVSPost2010PropOp29
 70
     1
102
RTVSPost2010Prop30
280
     1
102
RTVSPost2010PropOp30
 70
     1
102
RTVSPost2010Prop31
280
     0
102
RTVSPost2010PropOp31
 70
     1
102
RTVSPost2010Prop32
280
     0
102
RTVSPost2010PropOp32
 70
     1
102
RTVSPost2010Prop33
280
     0
102
RTVSPost2010PropOp33
 70
     1
102
RTVSPost2010Prop34
280
     0
102
RTVSPost2010PropOp34
 70
     1
102
RTVSPost2010Prop35
280
     0
102
RTVSPost2010PropOp35
 70
     1
102
RTVSPost2010Prop36
280
     0
102
RTVSPost2010PropOp36
 70
     1
102
RTVSPost2010Prop37
 90
       50
102
RTVSPost2010PropOp37
 70
     1
102
RTVSPost2010Prop38
140
0.0
102
RTVSPost2010PropOp38
 70
     1
102
RTVSPost2010Prop39
140
1.0
102
RTVSPost2010PropOp39
 70
     1
102
RTVSPost2010Prop40
 90
        0
102
RTVSPost2010PropOp40
 70
     1
102
RTVSPost2010Prop41ColorIndex
 90
       18
102
RTVSPost2010Prop41ColorRGB
 90
        0
102
RTVSPost2010PropOp41
 70
     1
102
RTVSPost2010Prop42
 90
       50
102
RTVSPost2010PropOp42
 70
     1
102
RTVSPost2010Prop43
 90
        3
102
RTVSPost2010PropOp43
 70
     1
102
RTVSPost2010Prop44ColorIndex
 90
        5
102
RTVSPost2010Prop44ColorRGB
 90
      255
102
RTVSPost2010PropOp44
 70
     1
102
RTVSPost2010Prop45
280
     0
102
RTVSPost2010PropOp45
 70
     1
102
RTVSPost2010Prop46
 90
       50
102
RTVSPost2010PropOp46
 70
     1
102
RTVSPost2010Prop47
 90
       50
102
RTVSPost2010PropOp47
 70
     1
102
RTVSPost2010Prop48
 90
       50
102
RTVSPost2010PropOp48
 70
     1
102
RTVSPost2010Prop49
280
     0
102
RTVSPost2010PropOp49
 70
     1
102
RTVSPost2010Prop50
 90
       50
102
RTVSPost2010PropOp50
 70
     1
102
RTVSPost2010Prop51ColorIndex
 90
      256
102
RTVSPost2010Prop51ColorRGB
 90
-16777216
102
RTVSPost2010PropOp51
 70
     0
102
RTVSPost2010Prop52
140
1.0
102
RTVSPost2010PropOp52
 70
     0
102
RTVSPost2010Prop53
 90
        2
102
RTVSPost2010PropOp53
 70
     1
102
RTVSPost2010Prop54
  1
strokes_ogs.tif
102
RTVSPost2010PropOp54
 70
     1
102
RTVSPost2010Prop55
280
     0
102
RTVSPost2010PropOp55
 70
     1
102
RTVSPost2010Prop56
140
1.0
102
RTVSPost2010PropOp56
 70
     1
102
RTVSPost2010Prop57
140
1.0
102
RTVSPost2010PropOp57
 70
     1
  0
XRECORD
  5
36F
102
{ACAD_REACTORS
330
36E
102
}
330
36E
100
AcDbXrecord
280
     1
102
RTVSPost2010Prop28
280
     0
102
RTVSPost2010PropOp28
 70
     1
102
RTVSPost2010Prop29
280
     1
102
RTVSPost2010PropOp29
 70
     1
102
RTVSPost2010Prop30
280
     1
102
RTVSPost2010PropOp30
 70
     1
102
RTVSPost2010Prop31
280
     0
102
RTVSPost2010PropOp31
 70
     1
102
RTVSPost2010Prop32
280
     0
102
RTVSPost2010PropOp32
 70
     1
102
RTVSPost2010Prop33
280
     0
102
RTVSPost2010PropOp33
 70
     1
102
RTVSPost2010Prop34
280
     0
102
RTVSPost2010PropOp34
 70
     1
102
RTVSPost2010Prop35
280
     0
102
RTVSPost2010PropOp35
 70
     1
102
RTVSPost2010Prop36
280
     0
102
RTVSPost2010PropOp36
 70
     1
102
RTVSPost2010Prop37
 90
       50
102
RTVSPost2010PropOp37
 70
     1
102
RTVSPost2010Prop38
140
0.0
102
RTVSPost2010PropOp38
 70
     1
102
RTVSPost2010Prop39
140
1.0
102
RTVSPost2010PropOp39
 70
     1
102
RTVSPost2010Prop40
 90
        0
102
RTVSPost2010PropOp40
 70
     1
102
RTVSPost2010Prop41ColorIndex
 90
       18
102
RTVSPost2010Prop41ColorRGB
 90
        0
102
RTVSPost2010PropOp41
 70
     1
102
RTVSPost2010Prop42
 90
       50
102
RTVSPost2010PropOp42
 70
     1
102
RTVSPost2010Prop43
 90
        3
102
RTVSPost2010PropOp43
 70
     1
102
RTVSPost2010Prop44ColorIndex
 90
        5
102
RTVSPost2010Prop44ColorRGB
 90
      255
102
RTVSPost2010PropOp44
 70
     1
102
RTVSPost2010Prop45
280
     0
102
RTVSPost2010PropOp45
 70
     1
102
RTVSPost2010Prop46
 90
       50
102
RTVSPost2010PropOp46
 70
     1
102
RTVSPost2010Prop47
 90
       50
102
RTVSPost2010PropOp47
 70
     1
102
RTVSPost2010Prop48
 90
       50
102
RTVSPost2010PropOp48
 70
     1
102
RTVSPost2010Prop49
280
     0
102
RTVSPost2010PropOp49
 70
     1
102
RTVSPost2010Prop50
 90
       50
102
RTVSPost2010PropOp50
 70
     1
102
RTVSPost2010Prop51ColorIndex
 90
      256
102
RTVSPost2010Prop51ColorRGB
 90
-16777216
102
RTVSPost2010PropOp51
 70
     0
102
RTVSPost2010Prop52
140
1.0
102
RTVSPost2010PropOp52
 70
     0
102
RTVSPost2010Prop53
 90
        2
102
RTVSPost2010PropOp53
 70
     1
102
RTVSPost2010Prop54
  1
strokes_ogs.tif
102
RTVSPost2010PropOp54
 70
     1
102
RTVSPost2010Prop55
280
     0
102
RTVSPost2010PropOp55
 70
     1
102
RTVSPost2010Prop56
140
1.0
102
RTVSPost2010PropOp56
 70
     1
102
RTVSPost2010Prop57
140
1.0
102
RTVSPost2010PropOp57
 70
     1
  0
XRECORD
  5
377
102
{ACAD_REACTORS
330
376
102
}
330
376
100
AcDbXrecord
280
     1
102
RTVSPost2010Prop28
280
     0
102
RTVSPost2010PropOp28
 70
     1
102
RTVSPost2010Prop29
280
     1
102
RTVSPost2010PropOp29
 70
     1
102
RTVSPost2010Prop30
280
     1
102
RTVSPost2010PropOp30
 70
     1
102
RTVSPost2010Prop31
280
     0
102
RTVSPost2010PropOp31
 70
     1
102
RTVSPost2010Prop32
280
     0
102
RTVSPost2010PropOp32
 70
     1
102
RTVSPost2010Prop33
280
     0
102
RTVSPost2010PropOp33
 70
     1
102
RTVSPost2010Prop34
280
     0
102
RTVSPost2010PropOp34
 70
     1
102
RTVSPost2010Prop35
280
     0
102
RTVSPost2010PropOp35
 70
     1
102
RTVSPost2010Prop36
280
     0
102
RTVSPost2010PropOp36
 70
     1
102
RTVSPost2010Prop37
 90
       50
102
RTVSPost2010PropOp37
 70
     1
102
RTVSPost2010Prop38
140
0.0
102
RTVSPost2010PropOp38
 70
     1
102
RTVSPost2010Prop39
140
1.0
102
RTVSPost2010PropOp39
 70
     1
102
RTVSPost2010Prop40
 90
        0
102
RTVSPost2010PropOp40
 70
     1
102
RTVSPost2010Prop41ColorIndex
 90
       18
102
RTVSPost2010Prop41ColorRGB
 90
        0
102
RTVSPost2010PropOp41
 70
     1
102
RTVSPost2010Prop42
 90
       50
102
RTVSPost2010PropOp42
 70
     1
102
RTVSPost2010Prop43
 90
        3
102
RTVSPost2010PropOp43
 70
     1
102
RTVSPost2010Prop44ColorIndex
 90
        5
102
RTVSPost2010Prop44ColorRGB
 90
      255
102
RTVSPost2010PropOp44
 70
     1
102
RTVSPost2010Prop45
280
     0
102
RTVSPost2010PropOp45
 70
     1
102
RTVSPost2010Prop46
 90
       50
102
RTVSPost2010PropOp46
 70
     1
102
RTVSPost2010Prop47
 90
       50
102
RTVSPost2010PropOp47
 70
     1
102
RTVSPost2010Prop48
 90
       50
102
RTVSPost2010PropOp48
 70
     1
102
RTVSPost2010Prop49
280
     0
102
RTVSPost2010PropOp49
 70
     1
102
RTVSPost2010Prop50
 90
       50
102
RTVSPost2010PropOp50
 70
     1
102
RTVSPost2010Prop51ColorIndex
 90
      256
102
RTVSPost2010Prop51ColorRGB
 90
-16777216
102
RTVSPost2010PropOp51
 70
     0
102
RTVSPost2010Prop52
140
1.0
102
RTVSPost2010PropOp52
 70
     0
102
RTVSPost2010Prop53
 90
        2
102
RTVSPost2010PropOp53
 70
     1
102
RTVSPost2010Prop54
  1
strokes_ogs.tif
102
RTVSPost2010PropOp54
 70
     1
102
RTVSPost2010Prop55
280
     0
102
RTVSPost2010PropOp55
 70
     1
102
RTVSPost2010Prop56
140
1.0
102
RTVSPost2010PropOp56
 70
     1
102
RTVSPost2010Prop57
140
1.0
102
RTVSPost2010PropOp57
 70
     1
  0
XRECORD
  5
36B
102
{ACAD_REACTORS
330
36A
102
}
330
36A
100
AcDbXrecord
280
     1
102
RTVSPost2010Prop28
280
     0
102
RTVSPost2010PropOp28
 70
     1
102
RTVSPost2010Prop29
280
     1
102
RTVSPost2010PropOp29
 70
     1
102
RTVSPost2010Prop30
280
     1
102
RTVSPost2010PropOp30
 70
     1
102
RTVSPost2010Prop31
280
     0
102
RTVSPost2010PropOp31
 70
     1
102
RTVSPost2010Prop32
280
     0
102
RTVSPost2010PropOp32
 70
     1
102
RTVSPost2010Prop33
280
     0
102
RTVSPost2010PropOp33
 70
     1
102
RTVSPost2010Prop34
280
     0
102
RTVSPost2010PropOp34
 70
     1
102
RTVSPost2010Prop35
280
     0
102
RTVSPost2010PropOp35
 70
     1
102
RTVSPost2010Prop36
280
     0
102
RTVSPost2010PropOp36
 70
     1
102
RTVSPost2010Prop37
 90
       50
102
RTVSPost2010PropOp37
 70
     1
102
RTVSPost2010Prop38
140
0.0
102
RTVSPost2010PropOp38
 70
     1
102
RTVSPost2010Prop39
140
1.0
102
RTVSPost2010PropOp39
 70
     1
102
RTVSPost2010Prop40
 90
        0
102
RTVSPost2010PropOp40
 70
     1
102
RTVSPost2010Prop41ColorIndex
 90
       18
102
RTVSPost2010Prop41ColorRGB
 90
        0
102
RTVSPost2010PropOp41
 70
     1
102
RTVSPost2010Prop42
 90
       50
102
RTVSPost2010PropOp42
 70
     1
102
RTVSPost2010Prop43
 90
        3
102
RTVSPost2010PropOp43
 70
     1
102
RTVSPost2010Prop44ColorIndex
 90
        5
102
RTVSPost2010Prop44ColorRGB
 90
      255
102
RTVSPost2010PropOp44
 70
     1
102
RTVSPost2010Prop45
280
     0
102
RTVSPost2010PropOp45
 70
     1
102
RTVSPost2010Prop46
 90
       50
102
RTVSPost2010PropOp46
 70
     1
102
RTVSPost2010Prop47
 90
       50
102
RTVSPost2010PropOp47
 70
     1
102
RTVSPost2010Prop48
 90
       50
102
RTVSPost2010PropOp48
 70
     1
102
RTVSPost2010Prop49
280
     0
102
RTVSPost2010PropOp49
 70
     1
102
RTVSPost2010Prop50
 90
       50
102
RTVSPost2010PropOp50
 70
     1
102
RTVSPost2010Prop51ColorIndex
 90
      256
102
RTVSPost2010Prop51ColorRGB
 90
-16777216
102
RTVSPost2010PropOp51
 70
     0
102
RTVSPost2010Prop52
140
1.0
102
RTVSPost2010PropOp52
 70
     0
102
RTVSPost2010Prop53
 90
        2
102
RTVSPost2010PropOp53
 70
     1
102
RTVSPost2010Prop54
  1
strokes_ogs.tif
102
RTVSPost2010PropOp54
 70
     1
102
RTVSPost2010Prop55
280
     0
102
RTVSPost2010PropOp55
 70
     1
102
RTVSPost2010Prop56
140
1.0
102
RTVSPost2010PropOp56
 70
     1
102
RTVSPost2010Prop57
140
1.0
102
RTVSPost2010PropOp57
 70
     1
  0
XRECORD
  5
36D
102
{ACAD_REACTORS
330
36C
102
}
330
36C
100
AcDbXrecord
280
     1
102
RTVSPost2010Prop28
280
     0
102
RTVSPost2010PropOp28
 70
     1
102
RTVSPost2010Prop29
280
     1
102
RTVSPost2010PropOp29
 70
     1
102
RTVSPost2010Prop30
280
     1
102
RTVSPost2010PropOp30
 70
     1
102
RTVSPost2010Prop31
280
     0
102
RTVSPost2010PropOp31
 70
     1
102
RTVSPost2010Prop32
280
     0
102
RTVSPost2010PropOp32
 70
     1
102
RTVSPost2010Prop33
280
     0
102
RTVSPost2010PropOp33
 70
     1
102
RTVSPost2010Prop34
280
     0
102
RTVSPost2010PropOp34
 70
     1
102
RTVSPost2010Prop35
280
     0
102
RTVSPost2010PropOp35
 70
     1
102
RTVSPost2010Prop36
280
     0
102
RTVSPost2010PropOp36
 70
     1
102
RTVSPost2010Prop37
 90
       50
102
RTVSPost2010PropOp37
 70
     1
102
RTVSPost2010Prop38
140
0.0
102
RTVSPost2010PropOp38
 70
     1
102
RTVSPost2010Prop39
140
1.0
102
RTVSPost2010PropOp39
 70
     1
102
RTVSPost2010Prop40
 90
        0
102
RTVSPost2010PropOp40
 70
     1
102
RTVSPost2010Prop41ColorIndex
 90
       18
102
RTVSPost2010Prop41ColorRGB
 90
        0
102
RTVSPost2010PropOp41
 70
     1
102
RTVSPost2010Prop42
 90
       50
102
RTVSPost2010PropOp42
 70
     1
102
RTVSPost2010Prop43
 90
        3
102
RTVSPost2010PropOp43
 70
     1
102
RTVSPost2010Prop44ColorIndex
 90
        5
102
RTVSPost2010Prop44ColorRGB
 90
      255
102
RTVSPost2010PropOp44
 70
     1
102
RTVSPost2010Prop45
280
     0
102
RTVSPost2010PropOp45
 70
     1
102
RTVSPost2010Prop46
 90
       50
102
RTVSPost2010PropOp46
 70
     1
102
RTVSPost2010Prop47
 90
       50
102
RTVSPost2010PropOp47
 70
     1
102
RTVSPost2010Prop48
 90
       50
102
RTVSPost2010PropOp48
 70
     1
102
RTVSPost2010Prop49
280
     0
102
RTVSPost2010PropOp49
 70
     1
102
RTVSPost2010Prop50
 90
       50
102
RTVSPost2010PropOp50
 70
     1
102
RTVSPost2010Prop51ColorIndex
 90
      256
102
RTVSPost2010Prop51ColorRGB
 90
-16777216
102
RTVSPost2010PropOp51
 70
     0
102
RTVSPost2010Prop52
140
1.0
102
RTVSPost2010PropOp52
 70
     0
102
RTVSPost2010Prop53
 90
        2
102
RTVSPost2010PropOp53
 70
     1
102
RTVSPost2010Prop54
  1
strokes_ogs.tif
102
RTVSPost2010PropOp54
 70
     1
102
RTVSPost2010Prop55
280
     0
102
RTVSPost2010PropOp55
 70
     1
102
RTVSPost2010Prop56
140
1.0
102
RTVSPost2010PropOp56
 70
     1
102
RTVSPost2010Prop57
140
1.0
102
RTVSPost2010PropOp57
 70
     1
  0
XRECORD
  5
37D
102
{ACAD_REACTORS
330
37C
102
}
330
37C
100
AcDbXrecord
280
     1
102
RTVSPost2010Prop28
280
     0
102
RTVSPost2010PropOp28
 70
     0
102
RTVSPost2010Prop29
280
     1
102
RTVSPost2010PropOp29
 70
     0
102
RTVSPost2010Prop30
280
     1
102
RTVSPost2010PropOp30
 70
     0
102
RTVSPost2010Prop31
280
     0
102
RTVSPost2010PropOp31
 70
     0
102
RTVSPost2010Prop32
280
     0
102
RTVSPost2010PropOp32
 70
     0
102
RTVSPost2010Prop33
280
     0
102
RTVSPost2010PropOp33
 70
     0
102
RTVSPost2010Prop34
280
     0
102
RTVSPost2010PropOp34
 70
     0
102
RTVSPost2010Prop35
280
     0
102
RTVSPost2010PropOp35
 70
     0
102
RTVSPost2010Prop36
280
     0
102
RTVSPost2010PropOp36
 70
     0
102
RTVSPost2010Prop37
 90
       50
102
RTVSPost2010PropOp37
 70
     0
102
RTVSPost2010Prop38
140
0.0
102
RTVSPost2010PropOp38
 70
     0
102
RTVSPost2010Prop39
140
1.0
102
RTVSPost2010PropOp39
 70
     0
102
RTVSPost2010Prop40
 90
        0
102
RTVSPost2010PropOp40
 70
     0
102
RTVSPost2010Prop41ColorIndex
 90
       18
102
RTVSPost2010Prop41ColorRGB
 90
        0
102
RTVSPost2010PropOp41
 70
     0
102
RTVSPost2010Prop42
 90
       50
102
RTVSPost2010PropOp42
 70
     0
102
RTVSPost2010Prop43
 90
        3
102
RTVSPost2010PropOp43
 70
     0
102
RTVSPost2010Prop44ColorIndex
 90
        5
102
RTVSPost2010Prop44ColorRGB
 90
      255
102
RTVSPost2010PropOp44
 70
     0
102
RTVSPost2010Prop45
280
     0
102
RTVSPost2010PropOp45
 70
     0
102
RTVSPost2010Prop46
 90
       50
102
RTVSPost2010PropOp46
 70
     0
102
RTVSPost2010Prop47
 90
       50
102
RTVSPost2010PropOp47
 70
     0
102
RTVSPost2010Prop48
 90
       50
102
RTVSPost2010PropOp48
 70
     0
102
RTVSPost2010Prop49
280
     0
102
RTVSPost2010PropOp49
 70
     0
102
RTVSPost2010Prop50
 90
       50
102
RTVSPost2010PropOp50
 70
     0
102
RTVSPost2010Prop51ColorIndex
 90
      256
102
RTVSPost2010Prop51ColorRGB
 90
-16777216
102
RTVSPost2010PropOp51
 70
     0
102
RTVSPost2010Prop52
140
1.0
102
RTVSPost2010PropOp52
 70
     0
102
RTVSPost2010Prop53
 90
        2
102
RTVSPost2010PropOp53
 70
     0
102
RTVSPost2010Prop54
  1
strokes_ogs.tif
102
RTVSPost2010PropOp54
 70
     0
102
RTVSPost2010Prop55
280
     0
102
RTVSPost2010PropOp55
 70
     0
102
RTVSPost2010Prop56
140
1.0
102
RTVSPost2010PropOp56
 70
     0
102
RTVSPost2010Prop57
140
1.0
102
RTVSPost2010PropOp57
 70
     0
  0
XRECORD
  5
375
102
{ACAD_REACTORS
330
374
102
}
330
374
100
AcDbXrecord
280
     1
102
RTVSPost2010Prop28
280
     0
102
RTVSPost2010PropOp28
 70
     1
102
RTVSPost2010Prop29
280
     1
102
RTVSPost2010PropOp29
 70
     1
102
RTVSPost2010Prop30
280
     1
102
RTVSPost2010PropOp30
 70
     1
102
RTVSPost2010Prop31
280
     0
102
RTVSPost2010PropOp31
 70
     1
102
RTVSPost2010Prop32
280
     0
102
RTVSPost2010PropOp32
 70
     1
102
RTVSPost2010Prop33
280
     0
102
RTVSPost2010PropOp33
 70
     1
102
RTVSPost2010Prop34
280
     0
102
RTVSPost2010PropOp34
 70
     1
102
RTVSPost2010Prop35
280
     0
102
RTVSPost2010PropOp35
 70
     1
102
RTVSPost2010Prop36
280
     0
102
RTVSPost2010PropOp36
 70
     1
102
RTVSPost2010Prop37
 90
       50
102
RTVSPost2010PropOp37
 70
     1
102
RTVSPost2010Prop38
140
0.0
102
RTVSPost2010PropOp38
 70
     1
102
RTVSPost2010Prop39
140
1.0
102
RTVSPost2010PropOp39
 70
     1
102
RTVSPost2010Prop40
 90
        0
102
RTVSPost2010PropOp40
 70
     1
102
RTVSPost2010Prop41ColorIndex
 90
       18
102
RTVSPost2010Prop41ColorRGB
 90
        0
102
RTVSPost2010PropOp41
 70
     1
102
RTVSPost2010Prop42
 90
       50
102
RTVSPost2010PropOp42
 70
     1
102
RTVSPost2010Prop43
 90
        3
102
RTVSPost2010PropOp43
 70
     1
102
RTVSPost2010Prop44ColorIndex
 90
        5
102
RTVSPost2010Prop44ColorRGB
 90
      255
102
RTVSPost2010PropOp44
 70
     1
102
RTVSPost2010Prop45
280
     0
102
RTVSPost2010PropOp45
 70
     1
102
RTVSPost2010Prop46
 90
       50
102
RTVSPost2010PropOp46
 70
     1
102
RTVSPost2010Prop47
 90
       50
102
RTVSPost2010PropOp47
 70
     1
102
RTVSPost2010Prop48
 90
       50
102
RTVSPost2010PropOp48
 70
     1
102
RTVSPost2010Prop49
280
     0
102
RTVSPost2010PropOp49
 70
     1
102
RTVSPost2010Prop50
 90
       50
102
RTVSPost2010PropOp50
 70
     1
102
RTVSPost2010Prop51ColorIndex
 90
      256
102
RTVSPost2010Prop51ColorRGB
 90
-16777216
102
RTVSPost2010PropOp51
 70
     0
102
RTVSPost2010Prop52
140
1.0
102
RTVSPost2010PropOp52
 70
     0
102
RTVSPost2010Prop53
 90
        2
102
RTVSPost2010PropOp53
 70
     1
102
RTVSPost2010Prop54
  1
strokes_ogs.tif
102
RTVSPost2010PropOp54
 70
     1
102
RTVSPost2010Prop55
280
     0
102
RTVSPost2010PropOp55
 70
     1
102
RTVSPost2010Prop56
140
1.0
102
RTVSPost2010PropOp56
 70
     1
102
RTVSPost2010Prop57
140
1.0
102
RTVSPost2010PropOp57
 70
     1
  0
XRECORD
  5
359
102
{ACAD_REACTORS
330
358
102
}
330
358
100
AcDbXrecord
280
     1
102
RTVSPost2010Prop28
280
     0
102
RTVSPost2010PropOp28
 70
     1
102
RTVSPost2010Prop29
280
     1
102
RTVSPost2010PropOp29
 70
     1
102
RTVSPost2010Prop30
280
     1
102
RTVSPost2010PropOp30
 70
     1
102
RTVSPost2010Prop31
280
     0
102
RTVSPost2010PropOp31
 70
     1
102
RTVSPost2010Prop32
280
     0
102
RTVSPost2010PropOp32
 70
     1
102
RTVSPost2010Prop33
280
     0
102
RTVSPost2010PropOp33
 70
     1
102
RTVSPost2010Prop34
280
     0
102
RTVSPost2010PropOp34
 70
     1
102
RTVSPost2010Prop35
280
     0
102
RTVSPost2010PropOp35
 70
     1
102
RTVSPost2010Prop36
280
     0
102
RTVSPost2010PropOp36
 70
     1
102
RTVSPost2010Prop37
 90
       50
102
RTVSPost2010PropOp37
 70
     1
102
RTVSPost2010Prop38
140
0.0
102
RTVSPost2010PropOp38
 70
     1
102
RTVSPost2010Prop39
140
1.0
102
RTVSPost2010PropOp39
 70
     1
102
RTVSPost2010Prop40
 90
        0
102
RTVSPost2010PropOp40
 70
     1
102
RTVSPost2010Prop41ColorIndex
 90
       18
102
RTVSPost2010Prop41ColorRGB
 90
        0
102
RTVSPost2010PropOp41
 70
     1
102
RTVSPost2010Prop42
 90
       50
102
RTVSPost2010PropOp42
 70
     1
102
RTVSPost2010Prop43
 90
        3
102
RTVSPost2010PropOp43
 70
     1
102
RTVSPost2010Prop44ColorIndex
 90
        5
102
RTVSPost2010Prop44ColorRGB
 90
      255
102
RTVSPost2010PropOp44
 70
     1
102
RTVSPost2010Prop45
280
     0
102
RTVSPost2010PropOp45
 70
     1
102
RTVSPost2010Prop46
 90
       50
102
RTVSPost2010PropOp46
 70
     1
102
RTVSPost2010Prop47
 90
       50
102
RTVSPost2010PropOp47
 70
     1
102
RTVSPost2010Prop48
 90
       50
102
RTVSPost2010PropOp48
 70
     1
102
RTVSPost2010Prop49
280
     0
102
RTVSPost2010PropOp49
 70
     1
102
RTVSPost2010Prop50
 90
       50
102
RTVSPost2010PropOp50
 70
     1
102
RTVSPost2010Prop51ColorIndex
 90
      256
102
RTVSPost2010Prop51ColorRGB
 90
-16777216
102
RTVSPost2010PropOp51
 70
     0
102
RTVSPost2010Prop52
140
1.0
102
RTVSPost2010PropOp52
 70
     0
102
RTVSPost2010Prop53
 90
        2
102
RTVSPost2010PropOp53
 70
     1
102
RTVSPost2010Prop54
  1
strokes_ogs.tif
102
RTVSPost2010PropOp54
 70
     1
102
RTVSPost2010Prop55
280
     0
102
RTVSPost2010PropOp55
 70
     1
102
RTVSPost2010Prop56
140
1.0
102
RTVSPost2010PropOp56
 70
     1
102
RTVSPost2010Prop57
140
1.0
102
RTVSPost2010PropOp57
 70
     1
  0
XRECORD
  5
35B
102
{ACAD_REACTORS
330
35A
102
}
330
35A
100
AcDbXrecord
280
     1
102
RTVSPost2010Prop28
280
     0
102
RTVSPost2010PropOp28
 70
     1
102
RTVSPost2010Prop29
280
     1
102
RTVSPost2010PropOp29
 70
     1
102
RTVSPost2010Prop30
280
     1
102
RTVSPost2010PropOp30
 70
     1
102
RTVSPost2010Prop31
280
     0
102
RTVSPost2010PropOp31
 70
     1
102
RTVSPost2010Prop32
280
     0
102
RTVSPost2010PropOp32
 70
     1
102
RTVSPost2010Prop33
280
     0
102
RTVSPost2010PropOp33
 70
     1
102
RTVSPost2010Prop34
280
     0
102
RTVSPost2010PropOp34
 70
     1
102
RTVSPost2010Prop35
280
     0
102
RTVSPost2010PropOp35
 70
     1
102
RTVSPost2010Prop36
280
     0
102
RTVSPost2010PropOp36
 70
     1
102
RTVSPost2010Prop37
 90
       50
102
RTVSPost2010PropOp37
 70
     1
102
RTVSPost2010Prop38
140
0.0
102
RTVSPost2010PropOp38
 70
     1
102
RTVSPost2010Prop39
140
1.0
102
RTVSPost2010PropOp39
 70
     1
102
RTVSPost2010Prop40
 90
        0
102
RTVSPost2010PropOp40
 70
     1
102
RTVSPost2010Prop41ColorIndex
 90
       18
102
RTVSPost2010Prop41ColorRGB
 90
        0
102
RTVSPost2010PropOp41
 70
     1
102
RTVSPost2010Prop42
 90
       50
102
RTVSPost2010PropOp42
 70
     1
102
RTVSPost2010Prop43
 90
        3
102
RTVSPost2010PropOp43
 70
     1
102
RTVSPost2010Prop44ColorIndex
 90
        5
102
RTVSPost2010Prop44ColorRGB
 90
      255
102
RTVSPost2010PropOp44
 70
     1
102
RTVSPost2010Prop45
280
     0
102
RTVSPost2010PropOp45
 70
     1
102
RTVSPost2010Prop46
 90
       50
102
RTVSPost2010PropOp46
 70
     1
102
RTVSPost2010Prop47
 90
       50
102
RTVSPost2010PropOp47
 70
     1
102
RTVSPost2010Prop48
 90
       50
102
RTVSPost2010PropOp48
 70
     1
102
RTVSPost2010Prop49
280
     0
102
RTVSPost2010PropOp49
 70
     1
102
RTVSPost2010Prop50
 90
       50
102
RTVSPost2010PropOp50
 70
     1
102
RTVSPost2010Prop51ColorIndex
 90
      256
102
RTVSPost2010Prop51ColorRGB
 90
-16777216
102
RTVSPost2010PropOp51
 70
     0
102
RTVSPost2010Prop52
140
1.0
102
RTVSPost2010PropOp52
 70
     0
102
RTVSPost2010Prop53
 90
        2
102
RTVSPost2010PropOp53
 70
     1
102
RTVSPost2010Prop54
  1
strokes_ogs.tif
102
RTVSPost2010PropOp54
 70
     1
102
RTVSPost2010Prop55
280
     0
102
RTVSPost2010PropOp55
 70
     1
102
RTVSPost2010Prop56
140
1.0
102
RTVSPost2010PropOp56
 70
     1
102
RTVSPost2010Prop57
140
1.0
102
RTVSPost2010PropOp57
 70
     1
  0
XRECORD
  5
35D
102
{ACAD_REACTORS
330
35C
102
}
330
35C
100
AcDbXrecord
280
     1
102
RTVSPost2010Prop28
280
     0
102
RTVSPost2010PropOp28
 70
     1
102
RTVSPost2010Prop29
280
     1
102
RTVSPost2010PropOp29
 70
     1
102
RTVSPost2010Prop30
280
     1
102
RTVSPost2010PropOp30
 70
     1
102
RTVSPost2010Prop31
280
     0
102
RTVSPost2010PropOp31
 70
     1
102
RTVSPost2010Prop32
280
     0
102
RTVSPost2010PropOp32
 70
     1
102
RTVSPost2010Prop33
280
     0
102
RTVSPost2010PropOp33
 70
     1
102
RTVSPost2010Prop34
280
     0
102
RTVSPost2010PropOp34
 70
     1
102
RTVSPost2010Prop35
280
     0
102
RTVSPost2010PropOp35
 70
     1
102
RTVSPost2010Prop36
280
     0
102
RTVSPost2010PropOp36
 70
     1
102
RTVSPost2010Prop37
 90
       50
102
RTVSPost2010PropOp37
 70
     1
102
RTVSPost2010Prop38
140
0.0
102
RTVSPost2010PropOp38
 70
     1
102
RTVSPost2010Prop39
140
1.0
102
RTVSPost2010PropOp39
 70
     1
102
RTVSPost2010Prop40
 90
        0
102
RTVSPost2010PropOp40
 70
     1
102
RTVSPost2010Prop41ColorIndex
 90
       18
102
RTVSPost2010Prop41ColorRGB
 90
        0
102
RTVSPost2010PropOp41
 70
     1
102
RTVSPost2010Prop42
 90
       50
102
RTVSPost2010PropOp42
 70
     1
102
RTVSPost2010Prop43
 90
        3
102
RTVSPost2010PropOp43
 70
     1
102
RTVSPost2010Prop44ColorIndex
 90
        5
102
RTVSPost2010Prop44ColorRGB
 90
      255
102
RTVSPost2010PropOp44
 70
     1
102
RTVSPost2010Prop45
280
     0
102
RTVSPost2010PropOp45
 70
     1
102
RTVSPost2010Prop46
 90
       50
102
RTVSPost2010PropOp46
 70
     1
102
RTVSPost2010Prop47
 90
       50
102
RTVSPost2010PropOp47
 70
     1
102
RTVSPost2010Prop48
 90
       50
102
RTVSPost2010PropOp48
 70
     1
102
RTVSPost2010Prop49
280
     0
102
RTVSPost2010PropOp49
 70
     1
102
RTVSPost2010Prop50
 90
       50
102
RTVSPost2010PropOp50
 70
     1
102
RTVSPost2010Prop51ColorIndex
 90
      256
102
RTVSPost2010Prop51ColorRGB
 90
-16777216
102
RTVSPost2010PropOp51
 70
     0
102
RTVSPost2010Prop52
140
1.0
102
RTVSPost2010PropOp52
 70
     0
102
RTVSPost2010Prop53
 90
        2
102
RTVSPost2010PropOp53
 70
     1
102
RTVSPost2010Prop54
  1
strokes_ogs.tif
102
RTVSPost2010PropOp54
 70
     1
102
RTVSPost2010Prop55
280
     0
102
RTVSPost2010PropOp55
 70
     1
102
RTVSPost2010Prop56
140
1.0
102
RTVSPost2010PropOp56
 70
     1
102
RTVSPost2010Prop57
140
1.0
102
RTVSPost2010PropOp57
 70
     1
  0
XRECORD
  5
35F
102
{ACAD_REACTORS
330
35E
102
}
330
35E
100
AcDbXrecord
280
     1
102
RTVSPost2010Prop28
280
     0
102
RTVSPost2010PropOp28
 70
     1
102
RTVSPost2010Prop29
280
     1
102
RTVSPost2010PropOp29
 70
     1
102
RTVSPost2010Prop30
280
     1
102
RTVSPost2010PropOp30
 70
     1
102
RTVSPost2010Prop31
280
     0
102
RTVSPost2010PropOp31
 70
     1
102
RTVSPost2010Prop32
280
     0
102
RTVSPost2010PropOp32
 70
     1
102
RTVSPost2010Prop33
280
     0
102
RTVSPost2010PropOp33
 70
     1
102
RTVSPost2010Prop34
280
     0
102
RTVSPost2010PropOp34
 70
     1
102
RTVSPost2010Prop35
280
     0
102
RTVSPost2010PropOp35
 70
     1
102
RTVSPost2010Prop36
280
     0
102
RTVSPost2010PropOp36
 70
     1
102
RTVSPost2010Prop37
 90
       50
102
RTVSPost2010PropOp37
 70
     1
102
RTVSPost2010Prop38
140
0.0
102
RTVSPost2010PropOp38
 70
     1
102
RTVSPost2010Prop39
140
1.0
102
RTVSPost2010PropOp39
 70
     1
102
RTVSPost2010Prop40
 90
        0
102
RTVSPost2010PropOp40
 70
     1
102
RTVSPost2010Prop41ColorIndex
 90
       18
102
RTVSPost2010Prop41ColorRGB
 90
        0
102
RTVSPost2010PropOp41
 70
     1
102
RTVSPost2010Prop42
 90
       50
102
RTVSPost2010PropOp42
 70
     1
102
RTVSPost2010Prop43
 90
        3
102
RTVSPost2010PropOp43
 70
     1
102
RTVSPost2010Prop44ColorIndex
 90
        5
102
RTVSPost2010Prop44ColorRGB
 90
      255
102
RTVSPost2010PropOp44
 70
     1
102
RTVSPost2010Prop45
280
     0
102
RTVSPost2010PropOp45
 70
     1
102
RTVSPost2010Prop46
 90
       50
102
RTVSPost2010PropOp46
 70
     1
102
RTVSPost2010Prop47
 90
       50
102
RTVSPost2010PropOp47
 70
     1
102
RTVSPost2010Prop48
 90
       50
102
RTVSPost2010PropOp48
 70
     1
102
RTVSPost2010Prop49
280
     0
102
RTVSPost2010PropOp49
 70
     1
102
RTVSPost2010Prop50
 90
       50
102
RTVSPost2010PropOp50
 70
     1
102
RTVSPost2010Prop51ColorIndex
 90
      256
102
RTVSPost2010Prop51ColorRGB
 90
-16777216
102
RTVSPost2010PropOp51
 70
     0
102
RTVSPost2010Prop52
140
1.0
102
RTVSPost2010PropOp52
 70
     0
102
RTVSPost2010Prop53
 90
        2
102
RTVSPost2010PropOp53
 70
     1
102
RTVSPost2010Prop54
  1
strokes_ogs.tif
102
RTVSPost2010PropOp54
 70
     1
102
RTVSPost2010Prop55
280
     0
102
RTVSPost2010PropOp55
 70
     1
102
RTVSPost2010Prop56
140
1.0
102
RTVSPost2010PropOp56
 70
     1
102
RTVSPost2010Prop57
140
1.0
102
RTVSPost2010PropOp57
 70
     1
  0
XRECORD
  5
365
102
{ACAD_REACTORS
330
364
102
}
330
364
100
AcDbXrecord
280
     1
102
RTVSPost2010Prop28
280
     0
102
RTVSPost2010PropOp28
 70
     1
102
RTVSPost2010Prop29
280
     1
102
RTVSPost2010PropOp29
 70
     1
102
RTVSPost2010Prop30
280
     1
102
RTVSPost2010PropOp30
 70
     1
102
RTVSPost2010Prop31
280
     0
102
RTVSPost2010PropOp31
 70
     1
102
RTVSPost2010Prop32
280
     0
102
RTVSPost2010PropOp32
 70
     1
102
RTVSPost2010Prop33
280
     0
102
RTVSPost2010PropOp33
 70
     1
102
RTVSPost2010Prop34
280
     0
102
RTVSPost2010PropOp34
 70
     1
102
RTVSPost2010Prop35
280
     0
102
RTVSPost2010PropOp35
 70
     1
102
RTVSPost2010Prop36
280
     0
102
RTVSPost2010PropOp36
 70
     1
102
RTVSPost2010Prop37
 90
       50
102
RTVSPost2010PropOp37
 70
     1
102
RTVSPost2010Prop38
140
0.0
102
RTVSPost2010PropOp38
 70
     1
102
RTVSPost2010Prop39
140
1.0
102
RTVSPost2010PropOp39
 70
     1
102
RTVSPost2010Prop40
 90
        0
102
RTVSPost2010PropOp40
 70
     1
102
RTVSPost2010Prop41ColorIndex
 90
       18
102
RTVSPost2010Prop41ColorRGB
 90
        0
102
RTVSPost2010PropOp41
 70
     1
102
RTVSPost2010Prop42
 90
       50
102
RTVSPost2010PropOp42
 70
     1
102
RTVSPost2010Prop43
 90
        3
102
RTVSPost2010PropOp43
 70
     1
102
RTVSPost2010Prop44ColorIndex
 90
        5
102
RTVSPost2010Prop44ColorRGB
 90
      255
102
RTVSPost2010PropOp44
 70
     1
102
RTVSPost2010Prop45
280
     0
102
RTVSPost2010PropOp45
 70
     1
102
RTVSPost2010Prop46
 90
       50
102
RTVSPost2010PropOp46
 70
     1
102
RTVSPost2010Prop47
 90
       50
102
RTVSPost2010PropOp47
 70
     1
102
RTVSPost2010Prop48
 90
       50
102
RTVSPost2010PropOp48
 70
     1
102
RTVSPost2010Prop49
280
     0
102
RTVSPost2010PropOp49
 70
     1
102
RTVSPost2010Prop50
 90
       50
102
RTVSPost2010PropOp50
 70
     1
102
RTVSPost2010Prop51ColorIndex
 90
      256
102
RTVSPost2010Prop51ColorRGB
 90
-16777216
102
RTVSPost2010PropOp51
 70
     0
102
RTVSPost2010Prop52
140
1.0
102
RTVSPost2010PropOp52
 70
     0
102
RTVSPost2010Prop53
 90
        2
102
RTVSPost2010PropOp53
 70
     1
102
RTVSPost2010Prop54
  1
strokes_ogs.tif
102
RTVSPost2010PropOp54
 70
     1
102
RTVSPost2010Prop55
280
     0
102
RTVSPost2010PropOp55
 70
     1
102
RTVSPost2010Prop56
140
1.0
102
RTVSPost2010PropOp56
 70
     1
102
RTVSPost2010Prop57
140
1.0
102
RTVSPost2010PropOp57
 70
     1
  0
XRECORD
  5
379
102
{ACAD_REACTORS
330
378
102
}
330
378
100
AcDbXrecord
280
     1
102
RTVSPost2010Prop28
280
     0
102
RTVSPost2010PropOp28
 70
     0
102
RTVSPost2010Prop29
280
     1
102
RTVSPost2010PropOp29
 70
     0
102
RTVSPost2010Prop30
280
     1
102
RTVSPost2010PropOp30
 70
     0
102
RTVSPost2010Prop31
280
     0
102
RTVSPost2010PropOp31
 70
     0
102
RTVSPost2010Prop32
280
     0
102
RTVSPost2010PropOp32
 70
     0
102
RTVSPost2010Prop33
280
     0
102
RTVSPost2010PropOp33
 70
     0
102
RTVSPost2010Prop34
280
     0
102
RTVSPost2010PropOp34
 70
     0
102
RTVSPost2010Prop35
280
     0
102
RTVSPost2010PropOp35
 70
     0
102
RTVSPost2010Prop36
280
     0
102
RTVSPost2010PropOp36
 70
     0
102
RTVSPost2010Prop37
 90
       50
102
RTVSPost2010PropOp37
 70
     0
102
RTVSPost2010Prop38
140
0.0
102
RTVSPost2010PropOp38
 70
     0
102
RTVSPost2010Prop39
140
1.0
102
RTVSPost2010PropOp39
 70
     0
102
RTVSPost2010Prop40
 90
        0
102
RTVSPost2010PropOp40
 70
     0
102
RTVSPost2010Prop41ColorIndex
 90
       18
102
RTVSPost2010Prop41ColorRGB
 90
        0
102
RTVSPost2010PropOp41
 70
     0
102
RTVSPost2010Prop42
 90
       50
102
RTVSPost2010PropOp42
 70
     0
102
RTVSPost2010Prop43
 90
        3
102
RTVSPost2010PropOp43
 70
     0
102
RTVSPost2010Prop44ColorIndex
 90
        5
102
RTVSPost2010Prop44ColorRGB
 90
      255
102
RTVSPost2010PropOp44
 70
     0
102
RTVSPost2010Prop45
280
     0
102
RTVSPost2010PropOp45
 70
     0
102
RTVSPost2010Prop46
 90
       50
102
RTVSPost2010PropOp46
 70
     0
102
RTVSPost2010Prop47
 90
       50
102
RTVSPost2010PropOp47
 70
     0
102
RTVSPost2010Prop48
 90
       50
102
RTVSPost2010PropOp48
 70
     0
102
RTVSPost2010Prop49
280
     0
102
RTVSPost2010PropOp49
 70
     0
102
RTVSPost2010Prop50
 90
       50
102
RTVSPost2010PropOp50
 70
     0
102
RTVSPost2010Prop51ColorIndex
 90
      256
102
RTVSPost2010Prop51ColorRGB
 90
-16777216
102
RTVSPost2010PropOp51
 70
     0
102
RTVSPost2010Prop52
140
1.0
102
RTVSPost2010PropOp52
 70
     0
102
RTVSPost2010Prop53
 90
        2
102
RTVSPost2010PropOp53
 70
     0
102
RTVSPost2010Prop54
  1
strokes_ogs.tif
102
RTVSPost2010PropOp54
 70
     0
102
RTVSPost2010Prop55
280
     0
102
RTVSPost2010PropOp55
 70
     0
102
RTVSPost2010Prop56
140
1.0
102
RTVSPost2010PropOp56
 70
     0
102
RTVSPost2010Prop57
140
1.0
102
RTVSPost2010PropOp57
 70
     0
  0
XRECORD
  5
373
102
{ACAD_REACTORS
330
372
102
}
330
372
100
AcDbXrecord
280
     1
102
RTVSPost2010Prop28
280
     0
102
RTVSPost2010PropOp28
 70
     1
102
RTVSPost2010Prop29
280
     1
102
RTVSPost2010PropOp29
 70
     1
102
RTVSPost2010Prop30
280
     1
102
RTVSPost2010PropOp30
 70
     1
102
RTVSPost2010Prop31
280
     0
102
RTVSPost2010PropOp31
 70
     1
102
RTVSPost2010Prop32
280
     0
102
RTVSPost2010PropOp32
 70
     1
102
RTVSPost2010Prop33
280
     0
102
RTVSPost2010PropOp33
 70
     1
102
RTVSPost2010Prop34
280
     0
102
RTVSPost2010PropOp34
 70
     1
102
RTVSPost2010Prop35
280
     0
102
RTVSPost2010PropOp35
 70
     1
102
RTVSPost2010Prop36
280
     0
102
RTVSPost2010PropOp36
 70
     1
102
RTVSPost2010Prop37
 90
       50
102
RTVSPost2010PropOp37
 70
     1
102
RTVSPost2010Prop38
140
0.0
102
RTVSPost2010PropOp38
 70
     1
102
RTVSPost2010Prop39
140
1.0
102
RTVSPost2010PropOp39
 70
     1
102
RTVSPost2010Prop40
 90
        0
102
RTVSPost2010PropOp40
 70
     1
102
RTVSPost2010Prop41ColorIndex
 90
       18
102
RTVSPost2010Prop41ColorRGB
 90
        0
102
RTVSPost2010PropOp41
 70
     1
102
RTVSPost2010Prop42
 90
       50
102
RTVSPost2010PropOp42
 70
     1
102
RTVSPost2010Prop43
 90
        3
102
RTVSPost2010PropOp43
 70
     1
102
RTVSPost2010Prop44ColorIndex
 90
        5
102
RTVSPost2010Prop44ColorRGB
 90
      255
102
RTVSPost2010PropOp44
 70
     1
102
RTVSPost2010Prop45
280
     0
102
RTVSPost2010PropOp45
 70
     1
102
RTVSPost2010Prop46
 90
       50
102
RTVSPost2010PropOp46
 70
     1
102
RTVSPost2010Prop47
 90
       50
102
RTVSPost2010PropOp47
 70
     1
102
RTVSPost2010Prop48
 90
       50
102
RTVSPost2010PropOp48
 70
     1
102
RTVSPost2010Prop49
280
     0
102
RTVSPost2010PropOp49
 70
     1
102
RTVSPost2010Prop50
 90
       50
102
RTVSPost2010PropOp50
 70
     1
102
RTVSPost2010Prop51ColorIndex
 90
      256
102
RTVSPost2010Prop51ColorRGB
 90
-16777216
102
RTVSPost2010PropOp51
 70
     0
102
RTVSPost2010Prop52
140
1.0
102
RTVSPost2010PropOp52
 70
     0
102
RTVSPost2010Prop53
 90
        2
102
RTVSPost2010PropOp53
 70
     1
102
RTVSPost2010Prop54
  1
strokes_ogs.tif
102
RTVSPost2010PropOp54
 70
     1
102
RTVSPost2010Prop55
280
     0
102
RTVSPost2010PropOp55
 70
     1
102
RTVSPost2010Prop56
140
1.0
102
RTVSPost2010PropOp56
 70
     1
102
RTVSPost2010Prop57
140
1.0
102
RTVSPost2010PropOp57
 70
     1
  0
XRECORD
  5
37B
102
{ACAD_REACTORS
330
37A
102
}
330
37A
100
AcDbXrecord
280
     1
102
RTVSPost2010Prop28
280
     0
102
RTVSPost2010PropOp28
 70
     0
102
RTVSPost2010Prop29
280
     1
102
RTVSPost2010PropOp29
 70
     0
102
RTVSPost2010Prop30
280
     1
102
RTVSPost2010PropOp30
 70
     0
102
RTVSPost2010Prop31
280
     0
102
RTVSPost2010PropOp31
 70
     0
102
RTVSPost2010Prop32
280
     0
102
RTVSPost2010PropOp32
 70
     0
102
RTVSPost2010Prop33
280
     0
102
RTVSPost2010PropOp33
 70
     0
102
RTVSPost2010Prop34
280
     0
102
RTVSPost2010PropOp34
 70
     0
102
RTVSPost2010Prop35
280
     0
102
RTVSPost2010PropOp35
 70
     0
102
RTVSPost2010Prop36
280
     0
102
RTVSPost2010PropOp36
 70
     0
102
RTVSPost2010Prop37
 90
       50
102
RTVSPost2010PropOp37
 70
     0
102
RTVSPost2010Prop38
140
0.0
102
RTVSPost2010PropOp38
 70
     0
102
RTVSPost2010Prop39
140
1.0
102
RTVSPost2010PropOp39
 70
     0
102
RTVSPost2010Prop40
 90
        0
102
RTVSPost2010PropOp40
 70
     0
102
RTVSPost2010Prop41ColorIndex
 90
       18
102
RTVSPost2010Prop41ColorRGB
 90
        0
102
RTVSPost2010PropOp41
 70
     0
102
RTVSPost2010Prop42
 90
       50
102
RTVSPost2010PropOp42
 70
     0
102
RTVSPost2010Prop43
 90
        3
102
RTVSPost2010PropOp43
 70
     0
102
RTVSPost2010Prop44ColorIndex
 90
        5
102
RTVSPost2010Prop44ColorRGB
 90
      255
102
RTVSPost2010PropOp44
 70
     0
102
RTVSPost2010Prop45
280
     0
102
RTVSPost2010PropOp45
 70
     0
102
RTVSPost2010Prop46
 90
       50
102
RTVSPost2010PropOp46
 70
     0
102
RTVSPost2010Prop47
 90
       50
102
RTVSPost2010PropOp47
 70
     0
102
RTVSPost2010Prop48
 90
       50
102
RTVSPost2010PropOp48
 70
     0
102
RTVSPost2010Prop49
280
     0
102
RTVSPost2010PropOp49
 70
     0
102
RTVSPost2010Prop50
 90
       50
102
RTVSPost2010PropOp50
 70
     0
102
RTVSPost2010Prop51ColorIndex
 90
      256
102
RTVSPost2010Prop51ColorRGB
 90
-16777216
102
RTVSPost2010PropOp51
 70
     0
102
RTVSPost2010Prop52
140
1.0
102
RTVSPost2010PropOp52
 70
     0
102
RTVSPost2010Prop53
 90
        2
102
RTVSPost2010PropOp53
 70
     0
102
RTVSPost2010Prop54
  1
strokes_ogs.tif
102
RTVSPost2010PropOp54
 70
     0
102
RTVSPost2010Prop55
280
     0
102
RTVSPost2010PropOp55
 70
     0
102
RTVSPost2010Prop56
140
1.0
102
RTVSPost2010PropOp56
 70
     0
102
RTVSPost2010Prop57
140
1.0
102
RTVSPost2010PropOp57
 70
     0
  0
XRECORD
  5
369
102
{ACAD_REACTORS
330
368
102
}
330
368
100
AcDbXrecord
280
     1
102
RTVSPost2010Prop28
280
     0
102
RTVSPost2010PropOp28
 70
     1
102
RTVSPost2010Prop29
280
     1
102
RTVSPost2010PropOp29
 70
     1
102
RTVSPost2010Prop30
280
     1
102
RTVSPost2010PropOp30
 70
     1
102
RTVSPost2010Prop31
280
     0
102
RTVSPost2010PropOp31
 70
     1
102
RTVSPost2010Prop32
280
     0
102
RTVSPost2010PropOp32
 70
     1
102
RTVSPost2010Prop33
280
     0
102
RTVSPost2010PropOp33
 70
     1
102
RTVSPost2010Prop34
280
     0
102
RTVSPost2010PropOp34
 70
     1
102
RTVSPost2010Prop35
280
     0
102
RTVSPost2010PropOp35
 70
     1
102
RTVSPost2010Prop36
280
     0
102
RTVSPost2010PropOp36
 70
     1
102
RTVSPost2010Prop37
 90
       50
102
RTVSPost2010PropOp37
 70
     1
102
RTVSPost2010Prop38
140
0.0
102
RTVSPost2010PropOp38
 70
     1
102
RTVSPost2010Prop39
140
1.0
102
RTVSPost2010PropOp39
 70
     1
102
RTVSPost2010Prop40
 90
        0
102
RTVSPost2010PropOp40
 70
     1
102
RTVSPost2010Prop41ColorIndex
 90
       18
102
RTVSPost2010Prop41ColorRGB
 90
        0
102
RTVSPost2010PropOp41
 70
     1
102
RTVSPost2010Prop42
 90
       50
102
RTVSPost2010PropOp42
 70
     1
102
RTVSPost2010Prop43
 90
        3
102
RTVSPost2010PropOp43
 70
     1
102
RTVSPost2010Prop44ColorIndex
 90
        5
102
RTVSPost2010Prop44ColorRGB
 90
      255
102
RTVSPost2010PropOp44
 70
     1
102
RTVSPost2010Prop45
280
     0
102
RTVSPost2010PropOp45
 70
     1
102
RTVSPost2010Prop46
 90
       50
102
RTVSPost2010PropOp46
 70
     1
102
RTVSPost2010Prop47
 90
       50
102
RTVSPost2010PropOp47
 70
     1
102
RTVSPost2010Prop48
 90
       50
102
RTVSPost2010PropOp48
 70
     1
102
RTVSPost2010Prop49
280
     0
102
RTVSPost2010PropOp49
 70
     1
102
RTVSPost2010Prop50
 90
       50
102
RTVSPost2010PropOp50
 70
     1
102
RTVSPost2010Prop51ColorIndex
 90
      256
102
RTVSPost2010Prop51ColorRGB
 90
-16777216
102
RTVSPost2010PropOp51
 70
     0
102
RTVSPost2010Prop52
140
1.0
102
RTVSPost2010PropOp52
 70
     0
102
RTVSPost2010Prop53
 90
        2
102
RTVSPost2010PropOp53
 70
     1
102
RTVSPost2010Prop54
  1
strokes_ogs.tif
102
RTVSPost2010PropOp54
 70
     1
102
RTVSPost2010Prop55
280
     0
102
RTVSPost2010PropOp55
 70
     1
102
RTVSPost2010Prop56
140
1.0
102
RTVSPost2010PropOp56
 70
     1
102
RTVSPost2010Prop57
140
1.0
102
RTVSPost2010PropOp57
 70
     1
  0
XRECORD
  5
387
102
{ACAD_REACTORS
330
386
102
}
330
386
100
AcDbXrecord
280
     1
102
RTVSPost2010Prop28
280
     0
102
RTVSPost2010PropOp28
 70
     1
102
RTVSPost2010Prop29
280
     1
102
RTVSPost2010PropOp29
 70
     1
102
RTVSPost2010Prop30
280
     1
102
RTVSPost2010PropOp30
 70
     1
102
RTVSPost2010Prop31
280
     0
102
RTVSPost2010PropOp31
 70
     1
102
RTVSPost2010Prop32
280
     0
102
RTVSPost2010PropOp32
 70
     1
102
RTVSPost2010Prop33
280
     0
102
RTVSPost2010PropOp33
 70
     1
102
RTVSPost2010Prop34
280
     0
102
RTVSPost2010PropOp34
 70
     1
102
RTVSPost2010Prop35
280
     0
102
RTVSPost2010PropOp35
 70
     1
102
RTVSPost2010Prop36
280
     0
102
RTVSPost2010PropOp36
 70
     1
102
RTVSPost2010Prop37
 90
       50
102
RTVSPost2010PropOp37
 70
     1
102
RTVSPost2010Prop38
140
0.0
102
RTVSPost2010PropOp38
 70
     1
102
RTVSPost2010Prop39
140
1.0
102
RTVSPost2010PropOp39
 70
     1
102
RTVSPost2010Prop40
 90
        0
102
RTVSPost2010PropOp40
 70
     1
102
RTVSPost2010Prop41ColorIndex
 90
       18
102
RTVSPost2010Prop41ColorRGB
 90
        0
102
RTVSPost2010PropOp41
 70
     1
102
RTVSPost2010Prop42
 90
       50
102
RTVSPost2010PropOp42
 70
     1
102
RTVSPost2010Prop43
 90
        3
102
RTVSPost2010PropOp43
 70
     1
102
RTVSPost2010Prop44ColorIndex
 90
        5
102
RTVSPost2010Prop44ColorRGB
 90
      255
102
RTVSPost2010PropOp44
 70
     1
102
RTVSPost2010Prop45
280
     0
102
RTVSPost2010PropOp45
 70
     1
102
RTVSPost2010Prop46
 90
       50
102
RTVSPost2010PropOp46
 70
     1
102
RTVSPost2010Prop47
 90
       50
102
RTVSPost2010PropOp47
 70
     1
102
RTVSPost2010Prop48
 90
       50
102
RTVSPost2010PropOp48
 70
     1
102
RTVSPost2010Prop49
280
     0
102
RTVSPost2010PropOp49
 70
     1
102
RTVSPost2010Prop50
 90
       50
102
RTVSPost2010PropOp50
 70
     1
102
RTVSPost2010Prop51ColorIndex
 90
      256
102
RTVSPost2010Prop51ColorRGB
 90
-16777216
102
RTVSPost2010PropOp51
 70
     0
102
RTVSPost2010Prop52
140
1.0
102
RTVSPost2010PropOp52
 70
     0
102
RTVSPost2010Prop53
 90
        2
102
RTVSPost2010PropOp53
 70
     1
102
RTVSPost2010Prop54
  1
strokes_ogs.tif
102
RTVSPost2010PropOp54
 70
     1
102
RTVSPost2010Prop55
280
     0
102
RTVSPost2010PropOp55
 70
     1
102
RTVSPost2010Prop56
140
1.0
102
RTVSPost2010PropOp56
 70
     1
102
RTVSPost2010Prop57
140
1.0
102
RTVSPost2010PropOp57
 70
     1
  0
XRECORD
  5
385
102
{ACAD_REACTORS
330
384
102
}
330
384
100
AcDbXrecord
280
     1
102
RTVSPost2010Prop28
280
     0
102
RTVSPost2010PropOp28
 70
     1
102
RTVSPost2010Prop29
280
     1
102
RTVSPost2010PropOp29
 70
     1
102
RTVSPost2010Prop30
280
     1
102
RTVSPost2010PropOp30
 70
     1
102
RTVSPost2010Prop31
280
     0
102
RTVSPost2010PropOp31
 70
     1
102
RTVSPost2010Prop32
280
     0
102
RTVSPost2010PropOp32
 70
     1
102
RTVSPost2010Prop33
280
     0
102
RTVSPost2010PropOp33
 70
     1
102
RTVSPost2010Prop34
280
     0
102
RTVSPost2010PropOp34
 70
     1
102
RTVSPost2010Prop35
280
     0
102
RTVSPost2010PropOp35
 70
     1
102
RTVSPost2010Prop36
280
     0
102
RTVSPost2010PropOp36
 70
     1
102
RTVSPost2010Prop37
 90
       50
102
RTVSPost2010PropOp37
 70
     1
102
RTVSPost2010Prop38
140
0.0
102
RTVSPost2010PropOp38
 70
     1
102
RTVSPost2010Prop39
140
1.0
102
RTVSPost2010PropOp39
 70
     1
102
RTVSPost2010Prop40
 90
        0
102
RTVSPost2010PropOp40
 70
     1
102
RTVSPost2010Prop41ColorIndex
 90
       18
102
RTVSPost2010Prop41ColorRGB
 90
        0
102
RTVSPost2010PropOp41
 70
     1
102
RTVSPost2010Prop42
 90
       50
102
RTVSPost2010PropOp42
 70
     1
102
RTVSPost2010Prop43
 90
        3
102
RTVSPost2010PropOp43
 70
     1
102
RTVSPost2010Prop44ColorIndex
 90
        5
102
RTVSPost2010Prop44ColorRGB
 90
      255
102
RTVSPost2010PropOp44
 70
     1
102
RTVSPost2010Prop45
280
     0
102
RTVSPost2010PropOp45
 70
     1
102
RTVSPost2010Prop46
 90
       50
102
RTVSPost2010PropOp46
 70
     1
102
RTVSPost2010Prop47
 90
       50
102
RTVSPost2010PropOp47
 70
     1
102
RTVSPost2010Prop48
 90
       50
102
RTVSPost2010PropOp48
 70
     1
102
RTVSPost2010Prop49
280
     0
102
RTVSPost2010PropOp49
 70
     1
102
RTVSPost2010Prop50
 90
       50
102
RTVSPost2010PropOp50
 70
     1
102
RTVSPost2010Prop51ColorIndex
 90
      256
102
RTVSPost2010Prop51ColorRGB
 90
-16777216
102
RTVSPost2010PropOp51
 70
     0
102
RTVSPost2010Prop52
140
1.0
102
RTVSPost2010PropOp52
 70
     0
102
RTVSPost2010Prop53
 90
        2
102
RTVSPost2010PropOp53
 70
     1
102
RTVSPost2010Prop54
  1
strokes_ogs.tif
102
RTVSPost2010PropOp54
 70
     1
102
RTVSPost2010Prop55
280
     0
102
RTVSPost2010PropOp55
 70
     1
102
RTVSPost2010Prop56
140
1.0
102
RTVSPost2010PropOp56
 70
     1
102
RTVSPost2010Prop57
140
1.0
102
RTVSPost2010PropOp57
 70
     1
  0
XRECORD
  5
37F
102
{ACAD_REACTORS
330
37E
102
}
330
37E
100
AcDbXrecord
280
     1
102
RTVSPost2010Prop28
280
     0
102
RTVSPost2010PropOp28
 70
     1
102
RTVSPost2010Prop29
280
     1
102
RTVSPost2010PropOp29
 70
     1
102
RTVSPost2010Prop30
280
     1
102
RTVSPost2010PropOp30
 70
     1
102
RTVSPost2010Prop31
280
     0
102
RTVSPost2010PropOp31
 70
     1
102
RTVSPost2010Prop32
280
     0
102
RTVSPost2010PropOp32
 70
     1
102
RTVSPost2010Prop33
280
     0
102
RTVSPost2010PropOp33
 70
     1
102
RTVSPost2010Prop34
280
     0
102
RTVSPost2010PropOp34
 70
     1
102
RTVSPost2010Prop35
280
     0
102
RTVSPost2010PropOp35
 70
     1
102
RTVSPost2010Prop36
280
     0
102
RTVSPost2010PropOp36
 70
     1
102
RTVSPost2010Prop37
 90
       50
102
RTVSPost2010PropOp37
 70
     1
102
RTVSPost2010Prop38
140
0.0
102
RTVSPost2010PropOp38
 70
     1
102
RTVSPost2010Prop39
140
1.0
102
RTVSPost2010PropOp39
 70
     1
102
RTVSPost2010Prop40
 90
        0
102
RTVSPost2010PropOp40
 70
     1
102
RTVSPost2010Prop41ColorIndex
 90
       18
102
RTVSPost2010Prop41ColorRGB
 90
        0
102
RTVSPost2010PropOp41
 70
     1
102
RTVSPost2010Prop42
 90
       50
102
RTVSPost2010PropOp42
 70
     1
102
RTVSPost2010Prop43
 90
        3
102
RTVSPost2010PropOp43
 70
     1
102
RTVSPost2010Prop44ColorIndex
 90
        5
102
RTVSPost2010Prop44ColorRGB
 90
      255
102
RTVSPost2010PropOp44
 70
     1
102
RTVSPost2010Prop45
280
     0
102
RTVSPost2010PropOp45
 70
     1
102
RTVSPost2010Prop46
 90
       50
102
RTVSPost2010PropOp46
 70
     1
102
RTVSPost2010Prop47
 90
       50
102
RTVSPost2010PropOp47
 70
     1
102
RTVSPost2010Prop48
 90
       50
102
RTVSPost2010PropOp48
 70
     1
102
RTVSPost2010Prop49
280
     0
102
RTVSPost2010PropOp49
 70
     1
102
RTVSPost2010Prop50
 90
       50
102
RTVSPost2010PropOp50
 70
     1
102
RTVSPost2010Prop51ColorIndex
 90
      256
102
RTVSPost2010Prop51ColorRGB
 90
-16777216
102
RTVSPost2010PropOp51
 70
     0
102
RTVSPost2010Prop52
140
1.0
102
RTVSPost2010PropOp52
 70
     0
102
RTVSPost2010Prop53
 90
        2
102
RTVSPost2010PropOp53
 70
     1
102
RTVSPost2010Prop54
  1
strokes_ogs.tif
102
RTVSPost2010PropOp54
 70
     1
102
RTVSPost2010Prop55
280
     0
102
RTVSPost2010PropOp55
 70
     1
102
RTVSPost2010Prop56
140
1.0
102
RTVSPost2010PropOp56
 70
     1
102
RTVSPost2010Prop57
140
1.0
102
RTVSPost2010PropOp57
 70
     1
  0
XRECORD
  5
381
102
{ACAD_REACTORS
330
380
102
}
330
380
100
AcDbXrecord
280
     1
102
RTVSPost2010Prop28
280
     0
102
RTVSPost2010PropOp28
 70
     1
102
RTVSPost2010Prop29
280
     1
102
RTVSPost2010PropOp29
 70
     1
102
RTVSPost2010Prop30
280
     1
102
RTVSPost2010PropOp30
 70
     1
102
RTVSPost2010Prop31
280
     0
102
RTVSPost2010PropOp31
 70
     1
102
RTVSPost2010Prop32
280
     0
102
RTVSPost2010PropOp32
 70
     1
102
RTVSPost2010Prop33
280
     0
102
RTVSPost2010PropOp33
 70
     1
102
RTVSPost2010Prop34
280
     0
102
RTVSPost2010PropOp34
 70
     1
102
RTVSPost2010Prop35
280
     0
102
RTVSPost2010PropOp35
 70
     1
102
RTVSPost2010Prop36
280
     0
102
RTVSPost2010PropOp36
 70
     1
102
RTVSPost2010Prop37
 90
       50
102
RTVSPost2010PropOp37
 70
     1
102
RTVSPost2010Prop38
140
0.0
102
RTVSPost2010PropOp38
 70
     1
102
RTVSPost2010Prop39
140
1.0
102
RTVSPost2010PropOp39
 70
     1
102
RTVSPost2010Prop40
 90
        0
102
RTVSPost2010PropOp40
 70
     1
102
RTVSPost2010Prop41ColorIndex
 90
       18
102
RTVSPost2010Prop41ColorRGB
 90
        0
102
RTVSPost2010PropOp41
 70
     1
102
RTVSPost2010Prop42
 90
       50
102
RTVSPost2010PropOp42
 70
     1
102
RTVSPost2010Prop43
 90
        3
102
RTVSPost2010PropOp43
 70
     1
102
RTVSPost2010Prop44ColorIndex
 90
        5
102
RTVSPost2010Prop44ColorRGB
 90
      255
102
RTVSPost2010PropOp44
 70
     1
102
RTVSPost2010Prop45
280
     0
102
RTVSPost2010PropOp45
 70
     1
102
RTVSPost2010Prop46
 90
       50
102
RTVSPost2010PropOp46
 70
     1
102
RTVSPost2010Prop47
 90
       50
102
RTVSPost2010PropOp47
 70
     1
102
RTVSPost2010Prop48
 90
       50
102
RTVSPost2010PropOp48
 70
     1
102
RTVSPost2010Prop49
280
     0
102
RTVSPost2010PropOp49
 70
     1
102
RTVSPost2010Prop50
 90
       50
102
RTVSPost2010PropOp50
 70
     1
102
RTVSPost2010Prop51ColorIndex
 90
      256
102
RTVSPost2010Prop51ColorRGB
 90
-16777216
102
RTVSPost2010PropOp51
 70
     0
102
RTVSPost2010Prop52
140
1.0
102
RTVSPost2010PropOp52
 70
     0
102
RTVSPost2010Prop53
 90
        2
102
RTVSPost2010PropOp53
 70
     1
102
RTVSPost2010Prop54
  1
strokes_ogs.tif
102
RTVSPost2010PropOp54
 70
     1
102
RTVSPost2010Prop55
280
     0
102
RTVSPost2010PropOp55
 70
     1
102
RTVSPost2010Prop56
140
1.0
102
RTVSPost2010PropOp56
 70
     1
102
RTVSPost2010Prop57
140
1.0
102
RTVSPost2010PropOp57
 70
     1
  0
XRECORD
  5
371
102
{ACAD_REACTORS
330
370
102
}
330
370
100
AcDbXrecord
280
     1
102
RTVSPost2010Prop28
280
     0
102
RTVSPost2010PropOp28
 70
     1
102
RTVSPost2010Prop29
280
     1
102
RTVSPost2010PropOp29
 70
     1
102
RTVSPost2010Prop30
280
     1
102
RTVSPost2010PropOp30
 70
     1
102
RTVSPost2010Prop31
280
     0
102
RTVSPost2010PropOp31
 70
     1
102
RTVSPost2010Prop32
280
     0
102
RTVSPost2010PropOp32
 70
     1
102
RTVSPost2010Prop33
280
     0
102
RTVSPost2010PropOp33
 70
     1
102
RTVSPost2010Prop34
280
     0
102
RTVSPost2010PropOp34
 70
     1
102
RTVSPost2010Prop35
280
     0
102
RTVSPost2010PropOp35
 70
     1
102
RTVSPost2010Prop36
280
     0
102
RTVSPost2010PropOp36
 70
     1
102
RTVSPost2010Prop37
 90
       50
102
RTVSPost2010PropOp37
 70
     1
102
RTVSPost2010Prop38
140
0.0
102
RTVSPost2010PropOp38
 70
     1
102
RTVSPost2010Prop39
140
1.0
102
RTVSPost2010PropOp39
 70
     1
102
RTVSPost2010Prop40
 90
        0
102
RTVSPost2010PropOp40
 70
     1
102
RTVSPost2010Prop41ColorIndex
 90
       18
102
RTVSPost2010Prop41ColorRGB
 90
        0
102
RTVSPost2010PropOp41
 70
     1
102
RTVSPost2010Prop42
 90
       50
102
RTVSPost2010PropOp42
 70
     1
102
RTVSPost2010Prop43
 90
        3
102
RTVSPost2010PropOp43
 70
     1
102
RTVSPost2010Prop44ColorIndex
 90
        5
102
RTVSPost2010Prop44ColorRGB
 90
      255
102
RTVSPost2010PropOp44
 70
     1
102
RTVSPost2010Prop45
280
     0
102
RTVSPost2010PropOp45
 70
     1
102
RTVSPost2010Prop46
 90
       50
102
RTVSPost2010PropOp46
 70
     1
102
RTVSPost2010Prop47
 90
       50
102
RTVSPost2010PropOp47
 70
     1
102
RTVSPost2010Prop48
 90
       50
102
RTVSPost2010PropOp48
 70
     1
102
RTVSPost2010Prop49
280
     0
102
RTVSPost2010PropOp49
 70
     1
102
RTVSPost2010Prop50
 90
       50
102
RTVSPost2010PropOp50
 70
     1
102
RTVSPost2010Prop51ColorIndex
 90
      256
102
RTVSPost2010Prop51ColorRGB
 90
-16777216
102
RTVSPost2010PropOp51
 70
     0
102
RTVSPost2010Prop52
140
1.0
102
RTVSPost2010PropOp52
 70
     0
102
RTVSPost2010Prop53
 90
        2
102
RTVSPost2010PropOp53
 70
     1
102
RTVSPost2010Prop54
  1
strokes_ogs.tif
102
RTVSPost2010PropOp54
 70
     1
102
RTVSPost2010Prop55
280
     0
102
RTVSPost2010PropOp55
 70
     1
102
RTVSPost2010Prop56
140
1.0
102
RTVSPost2010PropOp56
 70
     1
102
RTVSPost2010Prop57
140
1.0
102
RTVSPost2010PropOp57
 70
     1
  0
XRECORD
  5
363
102
{ACAD_REACTORS
330
362
102
}
330
362
100
AcDbXrecord
280
     1
102
RTVSPost2010Prop28
280
     0
102
RTVSPost2010PropOp28
 70
     1
102
RTVSPost2010Prop29
280
     1
102
RTVSPost2010PropOp29
 70
     1
102
RTVSPost2010Prop30
280
     1
102
RTVSPost2010PropOp30
 70
     1
102
RTVSPost2010Prop31
280
     0
102
RTVSPost2010PropOp31
 70
     1
102
RTVSPost2010Prop32
280
     0
102
RTVSPost2010PropOp32
 70
     1
102
RTVSPost2010Prop33
280
     0
102
RTVSPost2010PropOp33
 70
     1
102
RTVSPost2010Prop34
280
     0
102
RTVSPost2010PropOp34
 70
     1
102
RTVSPost2010Prop35
280
     0
102
RTVSPost2010PropOp35
 70
     1
102
RTVSPost2010Prop36
280
     0
102
RTVSPost2010PropOp36
 70
     1
102
RTVSPost2010Prop37
 90
       50
102
RTVSPost2010PropOp37
 70
     1
102
RTVSPost2010Prop38
140
0.0
102
RTVSPost2010PropOp38
 70
     1
102
RTVSPost2010Prop39
140
1.0
102
RTVSPost2010PropOp39
 70
     1
102
RTVSPost2010Prop40
 90
        0
102
RTVSPost2010PropOp40
 70
     1
102
RTVSPost2010Prop41ColorIndex
 90
       18
102
RTVSPost2010Prop41ColorRGB
 90
        0
102
RTVSPost2010PropOp41
 70
     1
102
RTVSPost2010Prop42
 90
       50
102
RTVSPost2010PropOp42
 70
     1
102
RTVSPost2010Prop43
 90
        3
102
RTVSPost2010PropOp43
 70
     1
102
RTVSPost2010Prop44ColorIndex
 90
        5
102
RTVSPost2010Prop44ColorRGB
 90
      255
102
RTVSPost2010PropOp44
 70
     1
102
RTVSPost2010Prop45
280
     0
102
RTVSPost2010PropOp45
 70
     1
102
RTVSPost2010Prop46
 90
       50
102
RTVSPost2010PropOp46
 70
     1
102
RTVSPost2010Prop47
 90
       50
102
RTVSPost2010PropOp47
 70
     1
102
RTVSPost2010Prop48
 90
       50
102
RTVSPost2010PropOp48
 70
     1
102
RTVSPost2010Prop49
280
     0
102
RTVSPost2010PropOp49
 70
     1
102
RTVSPost2010Prop50
 90
       50
102
RTVSPost2010PropOp50
 70
     1
102
RTVSPost2010Prop51ColorIndex
 90
      256
102
RTVSPost2010Prop51ColorRGB
 90
-16777216
102
RTVSPost2010PropOp51
 70
     0
102
RTVSPost2010Prop52
140
1.0
102
RTVSPost2010PropOp52
 70
     0
102
RTVSPost2010Prop53
 90
        2
102
RTVSPost2010PropOp53
 70
     1
102
RTVSPost2010Prop54
  1
strokes_ogs.tif
102
RTVSPost2010PropOp54
 70
     1
102
RTVSPost2010Prop55
280
     0
102
RTVSPost2010PropOp55
 70
     1
102
RTVSPost2010Prop56
140
1.0
102
RTVSPost2010PropOp56
 70
     1
102
RTVSPost2010Prop57
140
1.0
102
RTVSPost2010PropOp57
 70
     1
  0
XRECORD
  5
383
102
{ACAD_REACTORS
330
382
102
}
330
382
100
AcDbXrecord
280
     1
102
RTVSPost2010Prop28
280
     0
102
RTVSPost2010PropOp28
 70
     1
102
RTVSPost2010Prop29
280
     1
102
RTVSPost2010PropOp29
 70
     1
102
RTVSPost2010Prop30
280
     1
102
RTVSPost2010PropOp30
 70
     1
102
RTVSPost2010Prop31
280
     0
102
RTVSPost2010PropOp31
 70
     1
102
RTVSPost2010Prop32
280
     0
102
RTVSPost2010PropOp32
 70
     1
102
RTVSPost2010Prop33
280
     0
102
RTVSPost2010PropOp33
 70
     1
102
RTVSPost2010Prop34
280
     0
102
RTVSPost2010PropOp34
 70
     1
102
RTVSPost2010Prop35
280
     0
102
RTVSPost2010PropOp35
 70
     1
102
RTVSPost2010Prop36
280
     0
102
RTVSPost2010PropOp36
 70
     1
102
RTVSPost2010Prop37
 90
       50
102
RTVSPost2010PropOp37
 70
     1
102
RTVSPost2010Prop38
140
0.0
102
RTVSPost2010PropOp38
 70
     1
102
RTVSPost2010Prop39
140
1.0
102
RTVSPost2010PropOp39
 70
     1
102
RTVSPost2010Prop40
 90
        0
102
RTVSPost2010PropOp40
 70
     1
102
RTVSPost2010Prop41ColorIndex
 90
       18
102
RTVSPost2010Prop41ColorRGB
 90
        0
102
RTVSPost2010PropOp41
 70
     1
102
RTVSPost2010Prop42
 90
       50
102
RTVSPost2010PropOp42
 70
     1
102
RTVSPost2010Prop43
 90
        3
102
RTVSPost2010PropOp43
 70
     1
102
RTVSPost2010Prop44ColorIndex
 90
        5
102
RTVSPost2010Prop44ColorRGB
 90
      255
102
RTVSPost2010PropOp44
 70
     1
102
RTVSPost2010Prop45
280
     0
102
RTVSPost2010PropOp45
 70
     1
102
RTVSPost2010Prop46
 90
       50
102
RTVSPost2010PropOp46
 70
     1
102
RTVSPost2010Prop47
 90
       50
102
RTVSPost2010PropOp47
 70
     1
102
RTVSPost2010Prop48
 90
       50
102
RTVSPost2010PropOp48
 70
     1
102
RTVSPost2010Prop49
280
     0
102
RTVSPost2010PropOp49
 70
     1
102
RTVSPost2010Prop50
 90
       50
102
RTVSPost2010PropOp50
 70
     1
102
RTVSPost2010Prop51ColorIndex
 90
      256
102
RTVSPost2010Prop51ColorRGB
 90
-16777216
102
RTVSPost2010PropOp51
 70
     0
102
RTVSPost2010Prop52
140
1.0
102
RTVSPost2010PropOp52
 70
     0
102
RTVSPost2010Prop53
 90
        2
102
RTVSPost2010PropOp53
 70
     1
102
RTVSPost2010Prop54
  1
strokes_ogs.tif
102
RTVSPost2010PropOp54
 70
     1
102
RTVSPost2010Prop55
280
     0
102
RTVSPost2010PropOp55
 70
     1
102
RTVSPost2010Prop56
140
1.0
102
RTVSPost2010PropOp56
 70
     1
102
RTVSPost2010Prop57
140
1.0
102
RTVSPost2010PropOp57
 70
     1
  0
ENDSEC
  0
EOF
