  0
SECTION
  2
HEADER
  9
$ACADVER
  1
AC1024
  9
$ACADMAINTVER
 70
     6
  9
$DWGCODEPAGE
  3
ANSI_1252
  9
$INSBASE
 10
0.0
 20
0.0
 30
0.0
  9
$EXTMIN
 10
-144.637476
 20
-101.8686432947165
 30
0.0
  9
$EXTMAX
 10
134.637476
 20
101.8686432947166
 30
0.0
  9
$LIMMIN
 10
0.0
 20
0.0
  9
$LIMMAX
 10
420.0
 20
297.0
  9
$ORTHOMODE
 70
     0
  9
$REGENMODE
 70
     1
  9
$FILLMODE
 70
     1
  9
$QTEXTMODE
 70
     0
  9
$MIRRTEXT
 70
     1
  9
$LTSCALE
 40
1.0
  9
$ATTMODE
 70
     1
  9
$TEXTSIZE
 40
1.0
  9
$TRACEWID
 40
1.0
  9
$TEXTSTYLE
  7
Standard
  9
$CLAYER
  8
0
  9
$CELTYPE
  6
ByLayer
  9
$CECOLOR
 62
   256
  9
$CELTSCALE
 40
1.0
  9
$DISPSILH
 70
     0
  9
$DIMSCALE
 40
1.0
  9
$DIMASZ
 40
2.5
  9
$DIMEXO
 40
0.625
  9
$DIMDLI
 40
3.75
  9
$DIMRND
 40
0.0
  9
$DIMDLE
 40
0.0
  9
$DIMEXE
 40
1.25
  9
$DIMTP
 40
0.0
  9
$DIMTM
 40
0.0
  9
$DIMTXT
 40
2.5
  9
$DIMCEN
 40
2.5
  9
$DIMTSZ
 40
0.0
  9
$DIMTOL
 70
     0
  9
$DIMLIM
 70
     0
  9
$DIMTIH
 70
     0
  9
$DIMTOH
 70
     0
  9
$DIMSE1
 70
     0
  9
$DIMSE2
 70
     0
  9
$DIMTAD
 70
     1
  9
$DIMZIN
 70
     8
  9
$DIMBLK
  1

  9
$DIMASO
 70
     1
  9
$DIMSHO
 70
     1
  9
$DIMPOST
  1

  9
$DIMAPOST
  1

  9
$DIMALT
 70
     0
  9
$DIMALTD
 70
     3
  9
$DIMALTF
 40
0.03937007874016
  9
$DIMLFAC
 40
1.0
  9
$DIMTOFL
 70
     1
  9
$DIMTVP
 40
0.0
  9
$DIMTIX
 70
     0
  9
$DIMSOXD
 70
     0
  9
$DIMSAH
 70
     0
  9
$DIMBLK1
  1

  9
$DIMBLK2
  1

  9
$DIMSTYLE
  2
ISO-25
  9
$DIMCLRD
 70
     0
  9
$DIMCLRE
 70
     0
  9
$DIMCLRT
 70
     0
  9
$DIMTFAC
 40
1.0
  9
$DIMGAP
 40
0.625
  9
$DIMJUST
 70
     0
  9
$DIMSD1
 70
     0
  9
$DIMSD2
 70
     0
  9
$DIMTOLJ
 70
     0
  9
$DIMTZIN
 70
     8
  9
$DIMALTZ
 70
     0
  9
$DIMALTTZ
 70
     0
  9
$DIMUPT
 70
     0
  9
$DIMDEC
 70
     2
  9
$DIMTDEC
 70
     2
  9
$DIMALTU
 70
     2
  9
$DIMALTTD
 70
     3
  9
$DIMTXSTY
  7
Standard
  9
$DIMAUNIT
 70
     0
  9
$DIMADEC
 70
     0
  9
$DIMALTRND
 40
0.0
  9
$DIMAZIN
 70
     0
  9
$DIMDSEP
 70
    44
  9
$DIMATFIT
 70
     3
  9
$DIMFRAC
 70
     0
  9
$DIMLDRBLK
  1

  9
$DIMLUNIT
 70
     2
  9
$DIMLWD
 70
    -2
  9
$DIMLWE
 70
    -2
  9
$DIMTMOVE
 70
     0
  9
$DIMFXL
 40
1.0
  9
$DIMFXLON
 70
     0
  9
$DIMJOGANG
 40
0.7853981633974483
  9
$DIMTFILL
 70
     0
  9
$DIMTFILLCLR
 70
     0
  9
$DIMARCSYM
 70
     0
  9
$DIMLTYPE
  6

  9
$DIMLTEX1
  6

  9
$DIMLTEX2
  6

  9
$DIMTXTDIRECTION
 70
     0
  9
$LUNITS
 70
     2
  9
$LUPREC
 70
     4
  9
$SKETCHINC
 40
1.0
  9
$FILLETRAD
 40
10.0
  9
$AUNITS
 70
     0
  9
$AUPREC
 70
     0
  9
$MENU
  1
.
  9
$ELEVATION
 40
0.0
  9
$PELEVATION
 40
0.0
  9
$THICKNESS
 40
0.0
  9
$LIMCHECK
 70
     0
  9
$CHAMFERA
 40
0.0
  9
$CHAMFERB
 40
0.0
  9
$CHAMFERC
 40
0.0
  9
$CHAMFERD
 40
0.0
  9
$SKPOLY
 70
     0
  9
$TDCREATE
 40
2456966.673340833
  9
$TDUCREATE
 40
2456966.673340833
  9
$TDUPDATE
 40
2456966.673341192
  9
$TDUUPDATE
 40
2456966.673341192
  9
$TDINDWG
 40
0.0000000116
  9
$TDUSRTIMER
 40
0.0000000116
  9
$USRTIMER
 70
     1
  9
$ANGBASE
 50
0.0
  9
$ANGDIR
 70
     0
  9
$PDMODE
 70
     0
  9
$PDSIZE
 40
0.0
  9
$PLINEWID
 40
0.0
  9
$SPLFRAME
 70
     0
  9
$SPLINETYPE
 70
     6
  9
$SPLINESEGS
 70
     8
  9
$HANDSEED
  5
3F0
  9
$SURFTAB1
 70
     6
  9
$SURFTAB2
 70
     6
  9
$SURFTYPE
 70
     6
  9
$SURFU
 70
     6
  9
$SURFV
 70
     6
  9
$UCSBASE
  2

  9
$UCSNAME
  2

  9
$UCSORG
 10
0.0
 20
0.0
 30
0.0
  9
$UCSXDIR
 10
1.0
 20
0.0
 30
0.0
  9
$UCSYDIR
 10
0.0
 20
1.0
 30
0.0
  9
$UCSORTHOREF
  2

  9
$UCSORTHOVIEW
 70
     0
  9
$UCSORGTOP
 10
0.0
 20
0.0
 30
0.0
  9
$UCSORGBOTTOM
 10
0.0
 20
0.0
 30
0.0
  9
$UCSORGLEFT
 10
0.0
 20
0.0
 30
0.0
  9
$UCSORGRIGHT
 10
0.0
 20
0.0
 30
0.0
  9
$UCSORGFRONT
 10
0.0
 20
0.0
 30
0.0
  9
$UCSORGBACK
 10
0.0
 20
0.0
 30
0.0
  9
$PUCSBASE
  2

  9
$PUCSNAME
  2

  9
$PUCSORG
 10
0.0
 20
0.0
 30
0.0
  9
$PUCSXDIR
 10
1.0
 20
0.0
 30
0.0
  9
$PUCSYDIR
 10
0.0
 20
1.0
 30
0.0
  9
$PUCSORTHOREF
  2

  9
$PUCSORTHOVIEW
 70
     0
  9
$PUCSORGTOP
 10
0.0
 20
0.0
 30
0.0
  9
$PUCSORGBOTTOM
 10
0.0
 20
0.0
 30
0.0
  9
$PUCSORGLEFT
 10
0.0
 20
0.0
 30
0.0
  9
$PUCSORGRIGHT
 10
0.0
 20
0.0
 30
0.0
  9
$PUCSORGFRONT
 10
0.0
 20
0.0
 30
0.0
  9
$PUCSORGBACK
 10
0.0
 20
0.0
 30
0.0
  9
$USERI1
 70
     0
  9
$USERI2
 70
     0
  9
$USERI3
 70
     0
  9
$USERI4
 70
     0
  9
$USERI5
 70
     0
  9
$USERR1
 40
0.0
  9
$USERR2
 40
0.0
  9
$USERR3
 40
0.0
  9
$USERR4
 40
0.0
  9
$USERR5
 40
0.0
  9
$WORLDVIEW
 70
     1
  9
$SHADEDGE
 70
     3
  9
$SHADEDIF
 70
    70
  9
$TILEMODE
 70
     1
  9
$MAXACTVP
 70
    64
  9
$PINSBASE
 10
0.0
 20
0.0
 30
0.0
  9
$PLIMCHECK
 70
     0
  9
$PEXTMIN
 10
1.000000000000000E+20
 20
1.000000000000000E+20
 30
1.000000000000000E+20
  9
$PEXTMAX
 10
-1.000000000000000E+20
 20
-1.000000000000000E+20
 30
-1.000000000000000E+20
  9
$PLIMMIN
 10
0.0
 20
0.0
  9
$PLIMMAX
 10
420.0
 20
297.0
  9
$UNITMODE
 70
     0
  9
$VISRETAIN
 70
     1
  9
$PLINEGEN
 70
     0
  9
$PSLTSCALE
 70
     1
  9
$TREEDEPTH
 70
  3020
  9
$CMLSTYLE
  2
Standard
  9
$CMLJUST
 70
     0
  9
$CMLSCALE
 40
20.0
  9
$PROXYGRAPHICS
 70
     1
  9
$MEASUREMENT
 70
     1
  9
$CELWEIGHT
370
    -1
  9
$ENDCAPS
280
     0
  9
$JOINSTYLE
280
     0
  9
$LWDISPLAY
290
     0
  9
$INSUNITS
 70
     4
  9
$HYPERLINKBASE
  1

  9
$STYLESHEET
  1

  9
$XEDIT
290
     1
  9
$CEPSNTYPE
380
     0
  9
$PSTYLEMODE
290
     1
  9
$FINGERPRINTGUID
  2
{22EA7C3C-E813-4DE2-AF3E-454DED938BA3}
  9
$VERSIONGUID
  2
{FAEB1C32-E019-11D5-929B-00C0DF256EC4}
  9
$EXTNAMES
290
     1
  9
$PSVPSCALE
 40
0.0
  9
$OLESTARTUP
290
     0
  9
$SORTENTS
280
   127
  9
$INDEXCTL
280
     0
  9
$HIDETEXT
280
     1
  9
$XCLIPFRAME
280
     2
  9
$HALOGAP
280
     0
  9
$OBSCOLOR
 70
   257
  9
$OBSLTYPE
280
     0
  9
$INTERSECTIONDISPLAY
280
     0
  9
$INTERSECTIONCOLOR
 70
   257
  9
$DIMASSOC
280
     2
  9
$PROJECTNAME
  1

  9
$CAMERADISPLAY
290
     0
  9
$LENSLENGTH
 40
50.0
  9
$CAMERAHEIGHT
 40
0.0
  9
$STEPSPERSEC
 40
2.0
  9
$STEPSIZE
 40
6.0
  9
$3DDWFPREC
 40
2.0
  9
$PSOLWIDTH
 40
5.0
  9
$PSOLHEIGHT
 40
80.0
  9
$LOFTANG1
 40
1.570796326794897
  9
$LOFTANG2
 40
1.570796326794897
  9
$LOFTMAG1
 40
0.0
  9
$LOFTMAG2
 40
0.0
  9
$LOFTPARAM
 70
     7
  9
$LOFTNORMALS
280
     1
  9
$LATITUDE
 40
37.795
  9
$LONGITUDE
 40
-122.394
  9
$NORTHDIRECTION
 40
0.0
  9
$TIMEZONE
 70
 -8000
  9
$LIGHTGLYPHDISPLAY
280
     1
  9
$TILEMODELIGHTSYNCH
280
     1
  9
$CMATERIAL
347
44
  9
$SOLIDHIST
280
     1
  9
$SHOWHIST
280
     1
  9
$DWFFRAME
280
     2
  9
$DGNFRAME
280
     2
  9
$REALWORLDSCALE
290
     1
  9
$INTERFERECOLOR
 62
   256
  9
$CSHADOW
280
     0
  9
$SHADOWPLANELOCATION
 40
0.0
  0
ENDSEC
  0
SECTION
  2
CLASSES
  0
CLASS
  1
ACDBDICTIONARYWDFLT
  2
AcDbDictionaryWithDefault
  3
ObjectDBX Classes
 90
        0
 91
        4
280
     0
281
     0
  0
CLASS
  1
VISUALSTYLE
  2
AcDbVisualStyle
  3
ObjectDBX Classes
 90
     4095
 91
        4
280
     0
281
     0
  0
CLASS
  1
MATERIAL
  2
AcDbMaterial
  3
ObjectDBX Classes
 90
     1153
 91
        4
280
     0
281
     0
  0
CLASS
  1
SCALE
  2
AcDbScale
  3
ObjectDBX Classes
 90
     1153
 91
        4
280
     0
281
     0
  0
CLASS
  1
SUN
  2
AcDbSun
  3
SCENEOE
 90
     1153
 91
        4
280
     0
281
     0
  0
CLASS
  1
DICTIONARYVAR
  2
AcDbDictionaryVar
  3
ObjectDBX Classes
 90
        0
 91
        4
280
     0
281
     0
  0
ENDSEC
  0
SECTION
  2
TABLES
  0
TABLE
  2
VPORT
  5
8
330
0
100
AcDbSymbolTable
 70
     1
  0
VPORT
  5
29
330
8
100
AcDbSymbolTableRecord
100
AcDbViewportTableRecord
  2
*Active
 70
     0
 10
0.0
 20
0.0
 11
1.0
 21
1.0
 12
344.1869158878504
 22
148.5
 13
0.0
 23
0.0
 14
10.0
 24
10.0
 15
10.0
 25
10.0
 16
0.0
 26
0.0
 36
1.0
 17
0.0
 27
0.0
 37
0.0
 40
297.0
 41
1.972972972850329
 42
50.0
 43
0.0
 44
0.0
 50
0.0
 51
0.0
 71
     0
 72
   100
 73
     1
 74
     3
 75
     0
 76
     0
 77
     0
 78
     0
281
     0
 65
     1
110
0.0
120
0.0
130
0.0
111
1.0
121
0.0
131
0.0
112
0.0
122
1.0
132
0.0
 79
     0
146
0.0
 60
     3
 61
     5
292
     1
282
     1
141
0.0
142
0.0
 63
   250
361
69
  0
ENDTAB
  0
TABLE
  2
LTYPE
  5
5
330
0
100
AcDbSymbolTable
 70
     9
  0
LTYPE
  5
14
330
5
100
AcDbSymbolTableRecord
100
AcDbLinetypeTableRecord
  2
ByBlock
 70
     0
  3

 72
    65
 73
     0
 40
0.0
  0
LTYPE
  5
15
330
5
100
AcDbSymbolTableRecord
100
AcDbLinetypeTableRecord
  2
ByLayer
 70
     0
  3

 72
    65
 73
     0
 40
0.0
  0
LTYPE
  5
16
330
5
100
AcDbSymbolTableRecord
100
AcDbLinetypeTableRecord
  2
Continuous
 70
     0
  3
Solid line
 72
    65
 73
     0
 40
0.0
  0
LTYPE
  5
6A
330
5
100
AcDbSymbolTableRecord
100
AcDbLinetypeTableRecord
  2
DOT
 70
     0
  3
____    ____    
 72
    65
 73
     4
 40
16.0
 49
4.0
 74
     0
 49
-4.0
 74
     0
 49
4.0
 74
     0
 49
-4.0
 74
     0
  0
LTYPE
  5
6B
330
5
100
AcDbSymbolTableRecord
100
AcDbLinetypeTableRecord
  2
HIDDEN
 70
     0
  3
__  __  __  __  
 72
    65
 73
     8
 40
16.0
 49
2.0
 74
     0
 49
-2.0
 74
     0
 49
2.0
 74
     0
 49
-2.0
 74
     0
 49
2.0
 74
     0
 49
-2.0
 74
     0
 49
2.0
 74
     0
 49
-2.0
 74
     0
  0
LTYPE
  5
6C
330
5
100
AcDbSymbolTableRecord
100
AcDbLinetypeTableRecord
  2
DASHED
 70
     0
  3
________        
 72
    65
 73
     2
 40
16.0
 49
8.0
 74
     0
 49
-8.0
 74
     0
  0
LTYPE
  5
6D
330
5
100
AcDbSymbolTableRecord
100
AcDbLinetypeTableRecord
  2
DASHDOT
 70
     0
  3
____________    
 72
    65
 73
     2
 40
16.0
 49
12.0
 74
     0
 49
-4.0
 74
     0
  0
LTYPE
  5
6E
330
5
100
AcDbSymbolTableRecord
100
AcDbLinetypeTableRecord
  2
BORDER
 70
     0
  3
_____________ _ 
 72
    65
 73
     4
 40
16.0
 49
13.0
 74
     0
 49
-1.0
 74
     0
 49
1.0
 74
     0
 49
-1.0
 74
     0
  0
LTYPE
  5
6F
330
5
100
AcDbSymbolTableRecord
100
AcDbLinetypeTableRecord
  2
CENTER
 70
     0
  3
_________  ___  
 72
    65
 73
     4
 40
16.0
 49
9.0
 74
     0
 49
-2.0
 74
     0
 49
3.0
 74
     0
 49
-2.0
 74
     0
  0
LTYPE
  5
70
330
5
100
AcDbSymbolTableRecord
100
AcDbLinetypeTableRecord
  2
PHANTOM
 70
     0
  3
_______   ___   
 72
    65
 73
     4
 40
16.0
 49
7.0
 74
     0
 49
-3.0
 74
     0
 49
3.0
 74
     0
 49
-3.0
 74
     0
  0
LTYPE
  5
71
330
5
100
AcDbSymbolTableRecord
100
AcDbLinetypeTableRecord
  2
DIVIDE
 70
     0
  3
_______  __ __  
 72
    65
 73
     6
 40
16.0
 49
7.0
 74
     0
 49
-2.0
 74
     0
 49
2.0
 74
     0
 49
-1.0
 74
     0
 49
2.0
 74
     0
 49
-2.0
 74
     0
  0
ENDTAB
  0
TABLE
  2
LAYER
  5
2
330
0
100
AcDbSymbolTable
 70
     4
  0
LAYER
  5
10
330
2
100
AcDbSymbolTableRecord
100
AcDbLayerTableRecord
  2
0
 70
     0
 62
     7
  6
Continuous
370
    -3
390
F
347
46
  0
LAYER
  5
2DE
330
2
100
AcDbSymbolTableRecord
100
AcDbLayerTableRecord
  2
DIM__QA
 70
     0
 62
     7
420
 16777215
  6
Continuous
370
    -3
390
F
347
46
  0
LAYER
  5
2EB
330
2
100
AcDbSymbolTableRecord
100
AcDbLayerTableRecord
  2
GEN_LAYER
 70
     0
 62
     7
420
 16777215
  6
Continuous
370
    -3
390
F
347
46
  0
LAYER
  5
33A
330
2
100
AcDbSymbolTableRecord
100
AcDbLayerTableRecord
  2
1
 70
     0
 62
     7
420
 16777215
  6
Continuous
370
    -3
390
F
347
46
  0
ENDTAB
  0
TABLE
  2
STYLE
  5
3
330
0
100
AcDbSymbolTable
 70
     3
  0
STYLE
  5
11
330
3
100
AcDbSymbolTableRecord
100
AcDbTextStyleTableRecord
  2
Standard
 70
     0
 40
0.0
 41
1.0
 50
0.0
 71
     0
 42
1.0
  3
txt
  4

  0
STYLE
  5
72
330
3
100
AcDbSymbolTableRecord
100
AcDbTextStyleTableRecord
  2
ARIAL
 70
     0
 40
0.2
 41
1.0
 50
0.0
 71
     0
 42
1.0
  3
ARIAL.TTF
  4

  0
STYLE
  5
73
330
3
100
AcDbSymbolTableRecord
100
AcDbTextStyleTableRecord
  2
CALISTB
 70
     0
 40
0.2
 41
1.0
 50
0.0
 71
     0
 42
1.0
  3
CALISTB.TTF
  4

  0
ENDTAB
  0
TABLE
  2
VIEW
  5
6
330
0
100
AcDbSymbolTable
 70
     0
  0
ENDTAB
  0
TABLE
  2
UCS
  5
7
330
0
100
AcDbSymbolTable
 70
     0
  0
ENDTAB
  0
TABLE
  2
APPID
  5
9
330
0
100
AcDbSymbolTable
 70
     1
  0
APPID
  5
12
330
9
100
AcDbSymbolTableRecord
100
AcDbRegAppTableRecord
  2
ACAD
 70
     0
  0
ENDTAB
  0
TABLE
  2
DIMSTYLE
  5
A
330
0
100
AcDbSymbolTable
 70
     1
100
AcDbDimStyleTable
  0
DIMSTYLE
105
27
330
A
100
AcDbSymbolTableRecord
100
AcDbDimStyleTableRecord
  2
ISO-25
 70
     0
 41
2.5
 42
0.625
 43
3.75
 44
1.25
 73
     0
 74
     0
 77
     1
 78
     8
140
2.5
141
2.5
143
0.03937007874016
147
0.625
171
     3
172
     1
178
     0
271
     2
272
     2
274
     3
278
    44
283
     0
284
     8
340
11
  0
ENDTAB
  0
TABLE
  2
BLOCK_RECORD
  5
1
330
0
100
AcDbSymbolTable
 70
     7
  0
BLOCK_RECORD
  5
1F
330
1
100
AcDbSymbolTableRecord
100
AcDbBlockTableRecord
  2
*Model_Space
340
22
 70
     0
280
     1
281
     0
  0
BLOCK_RECORD
  5
1B
330
1
100
AcDbSymbolTableRecord
100
AcDbBlockTableRecord
  2
*Paper_Space
340
1E
 70
     0
280
     1
281
     0
  0
BLOCK_RECORD
  5
23
330
1
100
AcDbSymbolTableRecord
100
AcDbBlockTableRecord
  2
*Paper_Space0
340
26
 70
     0
280
     1
281
     0
  0
BLOCK_RECORD
  5
74
330
1
100
AcDbSymbolTableRecord
100
AcDbBlockTableRecord
  2
GEN_BLOCK
340
0
102
{BLKREFS
331
77
102
}
 70
     0
280
     1
281
     0
  0
BLOCK_RECORD
  5
2BD
330
1
100
AcDbSymbolTableRecord
100
AcDbBlockTableRecord
  2
PROTO
340
0
102
{BLKREFS
331
2C1
102
}
 70
     0
280
     1
281
     0
  0
BLOCK_RECORD
  5
2DF
330
1
100
AcDbSymbolTableRecord
100
AcDbBlockTableRecord
  2
GEN_BLOCK00000
340
0
102
{BLKREFS
331
2E2
102
}
 70
     0
280
     1
281
     0
  0
BLOCK_RECORD
  5
2EC
330
1
100
AcDbSymbolTableRecord
100
AcDbBlockTableRecord
  2
GEN_BLOCK00001
340
0
102
{BLKREFS
331
2EF
102
}
 70
     0
280
     1
281
     0
  0
BLOCK_RECORD
  5
32C
330
1
100
AcDbSymbolTableRecord
100
AcDbBlockTableRecord
  2
GEN_BLOCK00002
340
0
102
{BLKREFS
331
32F
102
}
 70
     0
280
     1
281
     0
  0
BLOCK_RECORD
  5
33B
330
1
100
AcDbSymbolTableRecord
100
AcDbBlockTableRecord
  2
GEN_BLOCK00003
340
0
102
{BLKREFS
331
33E
102
}
 70
     0
280
     1
281
     0
  0
ENDTAB
  0
ENDSEC
  0
SECTION
  2
BLOCKS
  0
BLOCK
  5
20
330
1F
100
AcDbEntity
  8
0
100
AcDbBlockBegin
  2
*Model_Space
 70
     0
 10
0.0
 20
0.0
 30
0.0
  3
*Model_Space
  1
*Model_Space
  0
ENDBLK
  5
21
330
1F
100
AcDbEntity
  8
0
100
AcDbBlockEnd
  0
BLOCK
  5
1C
330
1B
100
AcDbEntity
 67
     1
  8
0
100
AcDbBlockBegin
  2
*Paper_Space
 70
     0
 10
0.0
 20
0.0
 30
0.0
  3
*Paper_Space
  1
*Paper_Space
  0
ENDBLK
  5
1D
330
1B
100
AcDbEntity
 67
     1
  8
0
100
AcDbBlockEnd
  0
BLOCK
  5
24
330
23
100
AcDbEntity
  8
0
100
AcDbBlockBegin
  2
*Paper_Space0
 70
     0
 10
0.0
 20
0.0
 30
0.0
  3
*Paper_Space0
  1
*Paper_Space0
  0
ENDBLK
  5
25
330
23
100
AcDbEntity
  8
0
100
AcDbBlockEnd
  0
BLOCK
  5
75
330
74
100
AcDbEntity
  8
0
100
AcDbBlockBegin
  2
GEN_BLOCK
 70
     0
 10
0.0
 20
0.0
 30
0.0
  3
GEN_BLOCK
  1
GEN_BLOCK
  0
LINE
  5
78
330
74
100
AcDbEntity
  8
0
  6
Continuous
 62
    15
100
AcDbLine
 10
0.5007681262803487
 20
10.72230872718447
 30
0.0
 11
0.5224034506012174
 21
10.3328888666064
 31
0.0
  0
LINE
  5
79
330
74
100
AcDbEntity
  8
0
  6
Continuous
 62
    15
100
AcDbLine
 10
0.5224034506012174
 20
10.3328888666064
 30
0.0
 11
0.5872501226438942
 21
9.944536378798063
 31
0.0
  0
LINE
  5
7A
330
74
100
AcDbEntity
  8
0
  6
Continuous
 62
    15
100
AcDbLine
 10
0.5872501226438942
 20
9.944536378798063
 30
0.0
 11
0.6951304021875728
 21
9.558315710933954
 31
0.0
  0
LINE
  5
7B
330
74
100
AcDbEntity
  8
0
  6
Continuous
 62
    15
100
AcDbLine
 10
0.6951304021875728
 20
9.558315710933954
 30
0.0
 11
0.8457485968850449
 21
9.17528546701979
 31
0.0
  0
LINE
  5
7C
330
74
100
AcDbEntity
  8
0
  6
Continuous
 62
    15
100
AcDbLine
 10
0.8457485968850449
 20
9.17528546701979
 30
0.0
 11
1.038691872733892
 21
8.796495506329308
 31
0.0
  0
LINE
  5
7D
330
74
100
AcDbEntity
  8
0
  6
Continuous
 62
    15
100
AcDbLine
 10
1.038691872733892
 20
8.796495506329308
 30
0.0
 11
1.273431385625685
 21
8.422984065815314
 31
0.0
  0
LINE
  5
7E
330
74
100
AcDbEntity
  8
0
  6
Continuous
 62
    15
100
AcDbLine
 10
1.273431385625685
 20
8.422984065815314
 30
0.0
 11
1.549323730873169
 21
8.055774914374439
 31
0.0
  0
LINE
  5
7F
330
74
100
AcDbEntity
  8
0
  6
Continuous
 62
    15
100
AcDbLine
 10
1.549323730873169
 20
8.055774914374439
 30
0.0
 11
1.86561270673414
 21
7.69587454676585
 31
0.0
  0
LINE
  5
80
330
74
100
AcDbEntity
  8
0
  6
Continuous
 62
    15
100
AcDbLine
 10
1.86561270673414
 20
7.69587454676585
 30
0.0
 11
2.221431387111664
 21
7.344269424880537
 31
0.0
  0
LINE
  5
81
330
74
100
AcDbEntity
  8
0
  6
Continuous
 62
    15
100
AcDbLine
 10
2.221431387111664
 20
7.344269424880537
 30
0.0
 11
2.615804497734501
 21
7.001923273918607
 31
0.0
  0
LINE
  5
82
330
74
100
AcDbEntity
  8
0
  6
Continuous
 62
    15
100
AcDbLine
 10
2.615804497734501
 20
7.001923273918607
 30
0.0
 11
3.047651089319373
 21
6.669774440883344
 31
0.0
  0
LINE
  5
83
330
74
100
AcDbEntity
  8
0
  6
Continuous
 62
    15
100
AcDbLine
 10
3.047651089319373
 20
6.669774440883344
 30
0.0
 11
3.515787500376376
 21
6.348733322638424
 31
0.0
  0
LINE
  5
84
330
74
100
AcDbEntity
  8
0
  6
Continuous
 62
    15
100
AcDbLine
 10
3.515787500376376
 20
6.348733322638424
 30
0.0
 11
4.01893060154211
 21
6.039679870573678
 31
0.0
  0
LINE
  5
85
330
74
100
AcDbEntity
  8
0
  6
Continuous
 62
    15
100
AcDbLine
 10
4.01893060154211
 20
6.039679870573678
 30
0.0
 11
4.555701312549758
 21
5.743461178719741
 31
0.0
  0
LINE
  5
86
330
74
100
AcDbEntity
  8
0
  6
Continuous
 62
    15
100
AcDbLine
 10
4.555701312549758
 20
5.743461178719741
 30
0.0
 11
5.124628382190025
 21
5.460889161920392
 31
0.0
  0
LINE
  5
87
330
74
100
AcDbEntity
  8
0
  6
Continuous
 62
    15
100
AcDbLine
 10
5.124628382190025
 20
5.460889161920392
 30
0.0
 11
5.724152420911963
 21
5.192738330432718
 31
0.0
  0
LINE
  5
88
330
74
100
AcDbEntity
  8
0
  6
Continuous
 62
    15
100
AcDbLine
 10
5.724152420911963
 20
5.192738330432718
 30
0.0
 11
6.35263017499696
 21
4.939743667046884
 31
0.0
  0
LINE
  5
89
330
74
100
AcDbEntity
  8
0
  6
Continuous
 62
    15
100
AcDbLine
 10
6.35263017499696
 20
4.939743667046884
 30
0.0
 11
7.008339030606152
 21
4.702598612549906
 31
0.0
  0
LINE
  5
8A
330
74
100
AcDbEntity
  8
0
  6
Continuous
 62
    15
100
AcDbLine
 10
7.008339030606152
 20
4.702598612549906
 30
0.0
 11
7.689481735344401
 21
4.481953165051806
 31
0.0
  0
LINE
  5
8B
330
74
100
AcDbEntity
  8
0
  6
Continuous
 62
    15
100
AcDbLine
 10
7.689481735344401
 20
4.481953165051806
 30
0.0
 11
8.394191324403295
 21
4.278412098387804
 31
0.0
  0
LINE
  5
8C
330
74
100
AcDbEntity
  8
0
  6
Continuous
 62
    15
100
AcDbLine
 10
8.394191324403295
 20
4.278412098387804
 30
0.0
 11
9.120536237783057
 21
4.092533304473733
 31
0.0
  0
LINE
  5
8D
330
74
100
AcDbEntity
  8
0
  6
Continuous
 62
    15
100
AcDbLine
 10
9.120536237783057
 20
4.092533304473733
 30
0.0
 11
9.866525614563528
 21
3.924826264163499
 31
0.0
  0
LINE
  5
8E
330
74
100
AcDbEntity
  8
0
  6
Continuous
 62
    15
100
AcDbLine
 10
9.866525614563528
 20
3.924826264163499
 30
0.0
 11
10.63011474971685
 21
3.775750650796823
 31
0.0
  0
LINE
  5
8F
330
74
100
AcDbEntity
  8
0
  6
Continuous
 62
    15
100
AcDbLine
 10
10.63011474971685
 20
3.775750650796823
 30
0.0
 11
11.40921069849887
 21
3.645715070268039
 31
0.0
  0
LINE
  5
90
330
74
100
AcDbEntity
  8
0
  6
Continuous
 62
    15
100
AcDbLine
 10
11.40921069849887
 20
3.645715070268039
 30
0.0
 11
12.2016780130692
 21
3.53507594106523
 31
0.0
  0
LINE
  5
91
330
74
100
AcDbEntity
  8
0
  6
Continuous
 62
    15
100
AcDbLine
 10
12.2016780130692
 20
3.53507594106523
 30
0.0
 11
13.00534459560217
 21
3.444136517350586
 31
0.0
  0
LINE
  5
92
330
74
100
AcDbEntity
  8
0
  6
Continuous
 62
    15
100
AcDbLine
 10
13.00534459560217
 20
3.444136517350586
 30
0.0
 11
13.81800765185685
 21
3.373146057763648
 31
0.0
  0
LINE
  5
93
330
74
100
AcDbEntity
  8
0
  6
Continuous
 62
    15
100
AcDbLine
 10
13.81800765185685
 20
3.373146057763648
 30
0.0
 11
14.637439728884
 21
3.322299142219805
 31
0.0
  0
LINE
  5
94
330
74
100
AcDbEntity
  8
0
  6
Continuous
 62
    15
100
AcDbLine
 10
14.637439728884
 20
3.322299142219805
 30
0.0
 11
15.46139482031762
 21
3.291735138579412
 31
0.0
  0
LINE
  5
95
330
74
100
AcDbEntity
  8
0
  6
Continuous
 62
    15
100
AcDbLine
 10
15.46139482031762
 20
3.291735138579412
 30
0.0
 11
16.28761452252579
 21
3.281537820652744
 31
0.0
  0
LINE
  5
96
330
74
100
AcDbEntity
  8
0
  6
Continuous
 62
    15
100
AcDbLine
 10
16.28761452252579
 20
3.281537820652744
 30
0.0
 11
17.11383422473395
 21
3.291735138579412
 31
0.0
  0
LINE
  5
97
330
74
100
AcDbEntity
  8
0
  6
Continuous
 62
    15
100
AcDbLine
 10
17.11383422473395
 20
3.291735138579412
 30
0.0
 11
17.93778931616802
 21
3.322299142219805
 31
0.0
  0
LINE
  5
98
330
74
100
AcDbEntity
  8
0
  6
Continuous
 62
    15
100
AcDbLine
 10
17.93778931616802
 20
3.322299142219805
 30
0.0
 11
18.75722139319473
 21
3.373146057763648
 31
0.0
  0
LINE
  5
99
330
74
100
AcDbEntity
  8
0
  6
Continuous
 62
    15
100
AcDbLine
 10
18.75722139319473
 20
3.373146057763648
 30
0.0
 11
19.5698844494494
 21
3.444136517350586
 31
0.0
  0
LINE
  5
9A
330
74
100
AcDbEntity
  8
0
  6
Continuous
 62
    15
100
AcDbLine
 10
19.5698844494494
 20
3.444136517350586
 30
0.0
 11
20.37355103198237
 21
3.53507594106523
 31
0.0
  0
LINE
  5
9B
330
74
100
AcDbEntity
  8
0
  6
Continuous
 62
    15
100
AcDbLine
 10
20.37355103198237
 20
3.53507594106523
 30
0.0
 11
21.1660183465527
 21
3.645715070268039
 31
0.0
  0
LINE
  5
9C
330
74
100
AcDbEntity
  8
0
  6
Continuous
 62
    15
100
AcDbLine
 10
21.1660183465527
 20
3.645715070268039
 30
0.0
 11
21.94511429533472
 21
3.775750650796823
 31
0.0
  0
LINE
  5
9D
330
74
100
AcDbEntity
  8
0
  6
Continuous
 62
    15
100
AcDbLine
 10
21.94511429533472
 20
3.775750650796823
 30
0.0
 11
22.70870343048804
 21
3.924826264163499
 31
0.0
  0
LINE
  5
9E
330
74
100
AcDbEntity
  8
0
  6
Continuous
 62
    15
100
AcDbLine
 10
22.70870343048804
 20
3.924826264163499
 30
0.0
 11
23.45469280726897
 21
4.092533304473733
 31
0.0
  0
LINE
  5
9F
330
74
100
AcDbEntity
  8
0
  6
Continuous
 62
    15
100
AcDbLine
 10
23.45469280726897
 20
4.092533304473733
 30
0.0
 11
24.18103772064873
 21
4.278412098387804
 31
0.0
  0
LINE
  5
A0
330
74
100
AcDbEntity
  8
0
  6
Continuous
 62
    15
100
AcDbLine
 10
24.18103772064873
 20
4.278412098387804
 30
0.0
 11
24.88574730970763
 21
4.481953165051806
 31
0.0
  0
LINE
  5
A1
330
74
100
AcDbEntity
  8
0
  6
Continuous
 62
    15
100
AcDbLine
 10
24.88574730970763
 20
4.481953165051806
 30
0.0
 11
25.56689001444542
 21
4.702598612549906
 31
0.0
  0
LINE
  5
A2
330
74
100
AcDbEntity
  8
0
  6
Continuous
 62
    15
100
AcDbLine
 10
25.56689001444542
 20
4.702598612549906
 30
0.0
 11
26.22259887005461
 21
4.939743667046884
 31
0.0
  0
LINE
  5
A3
330
74
100
AcDbEntity
  8
0
  6
Continuous
 62
    15
100
AcDbLine
 10
26.22259887005461
 20
4.939743667046884
 30
0.0
 11
26.85107662413961
 21
5.192738330432718
 31
0.0
  0
LINE
  5
A4
330
74
100
AcDbEntity
  8
0
  6
Continuous
 62
    15
100
AcDbLine
 10
26.85107662413961
 20
5.192738330432718
 30
0.0
 11
27.45060066286155
 21
5.460889161920392
 31
0.0
  0
LINE
  5
A5
330
74
100
AcDbEntity
  8
0
  6
Continuous
 62
    15
100
AcDbLine
 10
27.45060066286155
 20
5.460889161920392
 30
0.0
 11
28.01952773250227
 21
5.743461178719741
 31
0.0
  0
LINE
  5
A6
330
74
100
AcDbEntity
  8
0
  6
Continuous
 62
    15
100
AcDbLine
 10
28.01952773250227
 20
5.743461178719741
 30
0.0
 11
28.55629844350946
 21
6.039679870573678
 31
0.0
  0
LINE
  5
A7
330
74
100
AcDbEntity
  8
0
  6
Continuous
 62
    15
100
AcDbLine
 10
28.55629844350946
 20
6.039679870573678
 30
0.0
 11
29.0594415446752
 21
6.348733322638424
 31
0.0
  0
LINE
  5
A8
330
74
100
AcDbEntity
  8
0
  6
Continuous
 62
    15
100
AcDbLine
 10
29.0594415446752
 20
6.348733322638424
 30
0.0
 11
29.5275779557322
 21
6.669774440883344
 31
0.0
  0
LINE
  5
A9
330
74
100
AcDbEntity
  8
0
  6
Continuous
 62
    15
100
AcDbLine
 10
29.5275779557322
 20
6.669774440883344
 30
0.0
 11
29.95942454731707
 21
7.001923273918607
 31
0.0
  0
LINE
  5
AA
330
74
100
AcDbEntity
  8
0
  6
Continuous
 62
    15
100
AcDbLine
 10
29.95942454731707
 20
7.001923273918607
 30
0.0
 11
30.35379765794036
 21
7.344269424880537
 31
0.0
  0
LINE
  5
AB
330
74
100
AcDbEntity
  8
0
  6
Continuous
 62
    15
100
AcDbLine
 10
30.35379765794036
 20
7.344269424880537
 30
0.0
 11
30.70961633831743
 21
7.69587454676585
 31
0.0
  0
LINE
  5
AC
330
74
100
AcDbEntity
  8
0
  6
Continuous
 62
    15
100
AcDbLine
 10
30.70961633831743
 20
7.69587454676585
 30
0.0
 11
31.0259053141784
 21
8.055774914374439
 31
0.0
  0
LINE
  5
AD
330
74
100
AcDbEntity
  8
0
  6
Continuous
 62
    15
100
AcDbLine
 10
31.0259053141784
 20
8.055774914374439
 30
0.0
 11
31.30179765942589
 21
8.422984065815314
 31
0.0
  0
LINE
  5
AE
330
74
100
AcDbEntity
  8
0
  6
Continuous
 62
    15
100
AcDbLine
 10
31.30179765942589
 20
8.422984065815314
 30
0.0
 11
31.53653717231768
 21
8.796495506329308
 31
0.0
  0
LINE
  5
AF
330
74
100
AcDbEntity
  8
0
  6
Continuous
 62
    15
100
AcDbLine
 10
31.53653717231768
 20
8.796495506329308
 30
0.0
 11
31.72948044816653
 21
9.17528546701979
 31
0.0
  0
LINE
  5
B0
330
74
100
AcDbEntity
  8
0
  6
Continuous
 62
    15
100
AcDbLine
 10
31.72948044816653
 20
9.17528546701979
 30
0.0
 11
31.880098642864
 21
9.558315710933954
 31
0.0
  0
LINE
  5
B1
330
74
100
AcDbEntity
  8
0
  6
Continuous
 62
    15
100
AcDbLine
 10
31.880098642864
 20
9.558315710933954
 30
0.0
 11
31.98797892240768
 21
9.944536378798063
 31
0.0
  0
LINE
  5
B2
330
74
100
AcDbEntity
  8
0
  6
Continuous
 62
    15
100
AcDbLine
 10
31.98797892240768
 20
9.944536378798063
 30
0.0
 11
32.05282559445035
 21
10.3328888666064
 31
0.0
  0
LINE
  5
B3
330
74
100
AcDbEntity
  8
0
  6
Continuous
 62
    15
100
AcDbLine
 10
32.05282559445035
 20
10.3328888666064
 30
0.0
 11
32.07446091877122
 21
10.72230872718447
 31
0.0
  0
LINE
  5
B4
330
74
100
AcDbEntity
  8
0
  6
Continuous
 62
    15
100
AcDbLine
 10
32.07446091877122
 20
10.72230872718447
 30
0.0
 11
32.05282559445035
 21
11.11172858776209
 31
0.0
  0
LINE
  5
B5
330
74
100
AcDbEntity
  8
0
  6
Continuous
 62
    15
100
AcDbLine
 10
32.05282559445035
 20
11.11172858776209
 30
0.0
 11
31.98797892240768
 21
11.50008107557088
 31
0.0
  0
LINE
  5
B6
330
74
100
AcDbEntity
  8
0
  6
Continuous
 62
    15
100
AcDbLine
 10
31.98797892240768
 20
11.50008107557088
 30
0.0
 11
31.880098642864
 21
11.88630174343453
 31
0.0
  0
LINE
  5
B7
330
74
100
AcDbEntity
  8
0
  6
Continuous
 62
    15
100
AcDbLine
 10
31.880098642864
 20
11.88630174343453
 30
0.0
 11
31.72948044816653
 21
12.26933198734869
 31
0.0
  0
LINE
  5
B8
330
74
100
AcDbEntity
  8
0
  6
Continuous
 62
    15
100
AcDbLine
 10
31.72948044816653
 20
12.26933198734869
 30
0.0
 11
31.53653717231768
 21
12.64812194803918
 31
0.0
  0
LINE
  5
B9
330
74
100
AcDbEntity
  8
0
  6
Continuous
 62
    15
100
AcDbLine
 10
31.53653717231768
 20
12.64812194803918
 30
0.0
 11
31.30179765942589
 21
13.02163338855317
 31
0.0
  0
LINE
  5
BA
330
74
100
AcDbEntity
  8
0
  6
Continuous
 62
    15
100
AcDbLine
 10
31.30179765942589
 20
13.02163338855317
 30
0.0
 11
31.0259053141784
 21
13.3888425399945
 31
0.0
  0
LINE
  5
BB
330
74
100
AcDbEntity
  8
0
  6
Continuous
 62
    15
100
AcDbLine
 10
31.0259053141784
 20
13.3888425399945
 30
0.0
 11
30.70961633831743
 21
13.74874290760309
 31
0.0
  0
LINE
  5
BC
330
74
100
AcDbEntity
  8
0
  6
Continuous
 62
    15
100
AcDbLine
 10
30.70961633831743
 20
13.74874290760309
 30
0.0
 11
30.35379765794036
 21
14.10034802948795
 31
0.0
  0
LINE
  5
BD
330
74
100
AcDbEntity
  8
0
  6
Continuous
 62
    15
100
AcDbLine
 10
30.35379765794036
 20
14.10034802948795
 30
0.0
 11
29.95942454731707
 21
14.44269418044988
 31
0.0
  0
LINE
  5
BE
330
74
100
AcDbEntity
  8
0
  6
Continuous
 62
    15
100
AcDbLine
 10
29.95942454731707
 20
14.44269418044988
 30
0.0
 11
29.5275779557322
 21
14.77484301348559
 31
0.0
  0
LINE
  5
BF
330
74
100
AcDbEntity
  8
0
  6
Continuous
 62
    15
100
AcDbLine
 10
29.5275779557322
 20
14.77484301348559
 30
0.0
 11
29.0594415446752
 21
15.09588413173051
 31
0.0
  0
LINE
  5
C0
330
74
100
AcDbEntity
  8
0
  6
Continuous
 62
    15
100
AcDbLine
 10
29.0594415446752
 20
15.09588413173051
 30
0.0
 11
28.55629844350946
 21
15.4049375837948
 31
0.0
  0
LINE
  5
C1
330
74
100
AcDbEntity
  8
0
  6
Continuous
 62
    15
100
AcDbLine
 10
28.55629844350946
 20
15.4049375837948
 30
0.0
 11
28.01952773250227
 21
15.7011562756492
 31
0.0
  0
LINE
  5
C2
330
74
100
AcDbEntity
  8
0
  6
Continuous
 62
    15
100
AcDbLine
 10
28.01952773250227
 20
15.7011562756492
 30
0.0
 11
27.45060066286155
 21
15.98372829244809
 31
0.0
  0
LINE
  5
C3
330
74
100
AcDbEntity
  8
0
  6
Continuous
 62
    15
100
AcDbLine
 10
27.45060066286155
 20
15.98372829244809
 30
0.0
 11
26.85107662413961
 21
16.25187912393577
 31
0.0
  0
LINE
  5
C4
330
74
100
AcDbEntity
  8
0
  6
Continuous
 62
    15
100
AcDbLine
 10
26.85107662413961
 20
16.25187912393577
 30
0.0
 11
26.22259887005461
 21
16.5048737873216
 31
0.0
  0
LINE
  5
C5
330
74
100
AcDbEntity
  8
0
  6
Continuous
 62
    15
100
AcDbLine
 10
26.22259887005461
 20
16.5048737873216
 30
0.0
 11
25.56689001444542
 21
16.74201884181903
 31
0.0
  0
LINE
  5
C6
330
74
100
AcDbEntity
  8
0
  6
Continuous
 62
    15
100
AcDbLine
 10
25.56689001444542
 20
16.74201884181903
 30
0.0
 11
24.88574730970763
 21
16.96266428931668
 31
0.0
  0
LINE
  5
C7
330
74
100
AcDbEntity
  8
0
  6
Continuous
 62
    15
100
AcDbLine
 10
24.88574730970763
 20
16.96266428931668
 30
0.0
 11
24.18103772064873
 21
17.16620535598068
 31
0.0
  0
LINE
  5
C8
330
74
100
AcDbEntity
  8
0
  6
Continuous
 62
    15
100
AcDbLine
 10
24.18103772064873
 20
17.16620535598068
 30
0.0
 11
23.45469280726897
 21
17.35208414989475
 31
0.0
  0
LINE
  5
C9
330
74
100
AcDbEntity
  8
0
  6
Continuous
 62
    15
100
AcDbLine
 10
23.45469280726897
 20
17.35208414989475
 30
0.0
 11
22.70870343048804
 21
17.51979119020544
 31
0.0
  0
LINE
  5
CA
330
74
100
AcDbEntity
  8
0
  6
Continuous
 62
    15
100
AcDbLine
 10
22.70870343048804
 20
17.51979119020544
 30
0.0
 11
21.94511429533517
 21
17.66886680357212
 31
0.0
  0
LINE
  5
CB
330
74
100
AcDbEntity
  8
0
  6
Continuous
 62
    15
100
AcDbLine
 10
21.94511429533517
 20
17.66886680357212
 30
0.0
 11
21.1660183465527
 21
17.79890238410044
 31
0.0
  0
LINE
  5
CC
330
74
100
AcDbEntity
  8
0
  6
Continuous
 62
    15
100
AcDbLine
 10
21.1660183465527
 20
17.79890238410044
 30
0.0
 11
20.37355103198237
 21
17.90954151330325
 31
0.0
  0
LINE
  5
CD
330
74
100
AcDbEntity
  8
0
  6
Continuous
 62
    15
100
AcDbLine
 10
20.37355103198237
 20
17.90954151330325
 30
0.0
 11
19.5698844494494
 21
18.0004809370179
 31
0.0
  0
LINE
  5
CE
330
74
100
AcDbEntity
  8
0
  6
Continuous
 62
    15
100
AcDbLine
 10
19.5698844494494
 20
18.0004809370179
 30
0.0
 11
18.75722139319473
 21
18.07147139660484
 31
0.0
  0
LINE
  5
CF
330
74
100
AcDbEntity
  8
0
  6
Continuous
 62
    15
100
AcDbLine
 10
18.75722139319473
 20
18.07147139660484
 30
0.0
 11
17.93778931616802
 21
18.12231831214913
 31
0.0
  0
LINE
  5
D0
330
74
100
AcDbEntity
  8
0
  6
Continuous
 62
    15
100
AcDbLine
 10
17.93778931616802
 20
18.12231831214913
 30
0.0
 11
17.11383422473395
 21
18.15288231578907
 31
0.0
  0
LINE
  5
D1
330
74
100
AcDbEntity
  8
0
  6
Continuous
 62
    15
100
AcDbLine
 10
17.11383422473395
 20
18.15288231578907
 30
0.0
 11
16.28761452252579
 21
18.16307963371574
 31
0.0
  0
LINE
  5
D2
330
74
100
AcDbEntity
  8
0
  6
Continuous
 62
    15
100
AcDbLine
 10
16.28761452252579
 20
18.16307963371574
 30
0.0
 11
15.46139482031762
 21
18.15288231578907
 31
0.0
  0
LINE
  5
D3
330
74
100
AcDbEntity
  8
0
  6
Continuous
 62
    15
100
AcDbLine
 10
15.46139482031762
 20
18.15288231578907
 30
0.0
 11
14.637439728884
 21
18.12231831214913
 31
0.0
  0
LINE
  5
D4
330
74
100
AcDbEntity
  8
0
  6
Continuous
 62
    15
100
AcDbLine
 10
14.637439728884
 20
18.12231831214913
 30
0.0
 11
13.81800765185685
 21
18.07147139660484
 31
0.0
  0
LINE
  5
D5
330
74
100
AcDbEntity
  8
0
  6
Continuous
 62
    15
100
AcDbLine
 10
13.81800765185685
 20
18.07147139660484
 30
0.0
 11
13.00534459560217
 21
18.0004809370179
 31
0.0
  0
LINE
  5
D6
330
74
100
AcDbEntity
  8
0
  6
Continuous
 62
    15
100
AcDbLine
 10
13.00534459560217
 20
18.0004809370179
 30
0.0
 11
12.2016780130692
 21
17.90954151330325
 31
0.0
  0
LINE
  5
D7
330
74
100
AcDbEntity
  8
0
  6
Continuous
 62
    15
100
AcDbLine
 10
12.2016780130692
 20
17.90954151330325
 30
0.0
 11
11.40921069849887
 21
17.79890238410044
 31
0.0
  0
LINE
  5
D8
330
74
100
AcDbEntity
  8
0
  6
Continuous
 62
    15
100
AcDbLine
 10
11.40921069849887
 20
17.79890238410044
 30
0.0
 11
10.63011474971685
 21
17.66886680357212
 31
0.0
  0
LINE
  5
D9
330
74
100
AcDbEntity
  8
0
  6
Continuous
 62
    15
100
AcDbLine
 10
10.63011474971685
 20
17.66886680357212
 30
0.0
 11
9.866525614563528
 21
17.51979119020544
 31
0.0
  0
LINE
  5
DA
330
74
100
AcDbEntity
  8
0
  6
Continuous
 62
    15
100
AcDbLine
 10
9.866525614563528
 20
17.51979119020544
 30
0.0
 11
9.120536237783057
 21
17.35208414989475
 31
0.0
  0
LINE
  5
DB
330
74
100
AcDbEntity
  8
0
  6
Continuous
 62
    15
100
AcDbLine
 10
9.120536237783057
 20
17.35208414989475
 30
0.0
 11
8.39419132440284
 21
17.16620535598068
 31
0.0
  0
LINE
  5
DC
330
74
100
AcDbEntity
  8
0
  6
Continuous
 62
    15
100
AcDbLine
 10
8.39419132440284
 20
17.16620535598068
 30
0.0
 11
7.689481735344401
 21
16.96266428931668
 31
0.0
  0
LINE
  5
DD
330
74
100
AcDbEntity
  8
0
  6
Continuous
 62
    15
100
AcDbLine
 10
7.689481735344401
 20
16.96266428931668
 30
0.0
 11
7.008339030606152
 21
16.74201884181903
 31
0.0
  0
LINE
  5
DE
330
74
100
AcDbEntity
  8
0
  6
Continuous
 62
    15
100
AcDbLine
 10
7.008339030606152
 20
16.74201884181903
 30
0.0
 11
6.35263017499696
 21
16.5048737873216
 31
0.0
  0
LINE
  5
DF
330
74
100
AcDbEntity
  8
0
  6
Continuous
 62
    15
100
AcDbLine
 10
6.35263017499696
 20
16.5048737873216
 30
0.0
 11
5.724152420911963
 21
16.25187912393577
 31
0.0
  0
LINE
  5
E0
330
74
100
AcDbEntity
  8
0
  6
Continuous
 62
    15
100
AcDbLine
 10
5.724152420911963
 20
16.25187912393577
 30
0.0
 11
5.124628382190025
 21
15.98372829244809
 31
0.0
  0
LINE
  5
E1
330
74
100
AcDbEntity
  8
0
  6
Continuous
 62
    15
100
AcDbLine
 10
5.124628382190025
 20
15.98372829244809
 30
0.0
 11
4.555701312549303
 21
15.7011562756492
 31
0.0
  0
LINE
  5
E2
330
74
100
AcDbEntity
  8
0
  6
Continuous
 62
    15
100
AcDbLine
 10
4.555701312549303
 20
15.7011562756492
 30
0.0
 11
4.01893060154211
 21
15.4049375837948
 31
0.0
  0
LINE
  5
E3
330
74
100
AcDbEntity
  8
0
  6
Continuous
 62
    15
100
AcDbLine
 10
4.01893060154211
 20
15.4049375837948
 30
0.0
 11
3.515787500376376
 21
15.09588413173051
 31
0.0
  0
LINE
  5
E4
330
74
100
AcDbEntity
  8
0
  6
Continuous
 62
    15
100
AcDbLine
 10
3.515787500376376
 20
15.09588413173051
 30
0.0
 11
3.047651089319373
 21
14.77484301348559
 31
0.0
  0
LINE
  5
E5
330
74
100
AcDbEntity
  8
0
  6
Continuous
 62
    15
100
AcDbLine
 10
3.047651089319373
 20
14.77484301348559
 30
0.0
 11
2.615804497734501
 21
14.44269418044988
 31
0.0
  0
LINE
  5
E6
330
74
100
AcDbEntity
  8
0
  6
Continuous
 62
    15
100
AcDbLine
 10
2.615804497734501
 20
14.44269418044988
 30
0.0
 11
2.22143138711121
 21
14.10034802948795
 31
0.0
  0
LINE
  5
E7
330
74
100
AcDbEntity
  8
0
  6
Continuous
 62
    15
100
AcDbLine
 10
2.22143138711121
 20
14.10034802948795
 30
0.0
 11
1.86561270673414
 21
13.74874290760309
 31
0.0
  0
LINE
  5
E8
330
74
100
AcDbEntity
  8
0
  6
Continuous
 62
    15
100
AcDbLine
 10
1.86561270673414
 20
13.74874290760309
 30
0.0
 11
1.549323730873169
 21
13.3888425399945
 31
0.0
  0
LINE
  5
E9
330
74
100
AcDbEntity
  8
0
  6
Continuous
 62
    15
100
AcDbLine
 10
1.549323730873169
 20
13.3888425399945
 30
0.0
 11
1.273431385625685
 21
13.02163338855317
 31
0.0
  0
LINE
  5
EA
330
74
100
AcDbEntity
  8
0
  6
Continuous
 62
    15
100
AcDbLine
 10
1.273431385625685
 20
13.02163338855317
 30
0.0
 11
1.038691872733892
 21
12.64812194803918
 31
0.0
  0
LINE
  5
EB
330
74
100
AcDbEntity
  8
0
  6
Continuous
 62
    15
100
AcDbLine
 10
1.038691872733892
 20
12.64812194803918
 30
0.0
 11
0.8457485968850449
 21
12.26933198734869
 31
0.0
  0
LINE
  5
EC
330
74
100
AcDbEntity
  8
0
  6
Continuous
 62
    15
100
AcDbLine
 10
0.8457485968850449
 20
12.26933198734869
 30
0.0
 11
0.6951304021875728
 21
11.88630174343453
 31
0.0
  0
LINE
  5
ED
330
74
100
AcDbEntity
  8
0
  6
Continuous
 62
    15
100
AcDbLine
 10
0.6951304021875728
 20
11.88630174343453
 30
0.0
 11
0.5872501226438942
 21
11.50008107557088
 31
0.0
  0
LINE
  5
EE
330
74
100
AcDbEntity
  8
0
  6
Continuous
 62
    15
100
AcDbLine
 10
0.5872501226438942
 20
11.50008107557088
 30
0.0
 11
0.5224034506012174
 21
11.11172858776209
 31
0.0
  0
LINE
  5
EF
330
74
100
AcDbEntity
  8
0
  6
Continuous
 62
    15
100
AcDbLine
 10
0.5224034506012174
 20
11.11172858776209
 30
0.0
 11
0.5007681262803487
 21
10.72230872718447
 31
0.0
  0
ARC
  5
F0
330
74
100
AcDbEntity
  8
0
  6
Continuous
 62
    16
100
AcDbCircle
 10
25.16035971673122
 20
6.426174042302961
 30
0.0
 40
0.6005912475397421
100
AcDbArc
 50
61.06943034573163
 51
142.6647004994766
  0
ARC
  5
F1
330
74
100
AcDbEntity
  8
0
  6
Continuous
 62
    16
100
AcDbCircle
 10
25.16035971673122
 20
6.426174042302961
 30
0.0
 40
0.6005912475397421
100
AcDbArc
 50
61.06943034573163
 51
142.6647004994766
  0
ARC
  5
F2
330
74
100
AcDbEntity
  8
0
  6
Continuous
 62
    16
100
AcDbCircle
 10
25.16035971673122
 20
6.426174042302961
 30
0.0
 40
0.9662162475397422
100
AcDbArc
 50
64.49037964304127
 51
142.9738579058682
  0
ARC
  5
F3
330
74
100
AcDbEntity
  8
0
  6
Continuous
 62
    16
100
AcDbCircle
 10
25.16035971673122
 20
6.426174042302961
 30
0.0
 40
0.9662162475397422
100
AcDbArc
 50
64.49037964304127
 51
142.9738579058682
  0
LINE
  5
F4
330
74
100
AcDbEntity
  8
0
  6
Continuous
 62
    16
100
AcDbLine
 10
8.344625189188122
 20
6.951815436852399
 30
0.0
 11
8.219047610316778
 21
7.298196752838891
 31
0.0
  0
LINE
  5
F5
330
74
100
AcDbEntity
  8
0
  6
Continuous
 62
    16
100
AcDbLine
 10
10.72868443219917
 20
6.354388206629125
 30
0.0
 11
10.60366730239079
 21
6.69922363293054
 31
0.0
  0
ARC
  5
F6
330
74
100
AcDbEntity
  8
0
  6
Continuous
 62
    16
100
AcDbCircle
 10
10.1905865720822
 20
7.572686939119109
 30
0.0
 40
1.331841247539742
100
AcDbArc
 50
215.9697303766588
 51
293.8300759689964
  0
ARC
  5
F7
330
74
100
AcDbEntity
  8
0
  6
Continuous
 62
    16
100
AcDbCircle
 10
10.1905865720822
 20
7.572686939119109
 30
0.0
 40
1.331841247539742
100
AcDbArc
 50
215.9697303766588
 51
293.8300759689964
  0
ARC
  5
F8
330
74
100
AcDbEntity
  8
0
  6
Continuous
 62
    16
100
AcDbCircle
 10
8.635160851298082
 20
6.426174042302961
 30
0.0
 40
0.6005912475397421
100
AcDbArc
 50
37.3352995005234
 51
118.9305696542684
  0
ARC
  5
F9
330
74
100
AcDbEntity
  8
0
  6
Continuous
 62
    16
100
AcDbCircle
 10
8.635160851298082
 20
6.426174042302961
 30
0.0
 40
0.6005912475397421
100
AcDbArc
 50
37.3352995005234
 51
118.9305696542684
  0
ARC
  5
FA
330
74
100
AcDbEntity
  8
0
  6
Continuous
 62
    16
100
AcDbCircle
 10
10.1905865720822
 20
7.572686939119109
 30
0.0
 40
0.9662162475397422
100
AcDbArc
 50
215.7621230696957
 51
295.3105355331508
  0
ARC
  5
FB
330
74
100
AcDbEntity
  8
0
  6
Continuous
 62
    16
100
AcDbCircle
 10
10.1905865720822
 20
7.572686939119109
 30
0.0
 40
0.9662162475397422
100
AcDbArc
 50
215.7621230696957
 51
295.3105355331508
  0
ARC
  5
FC
330
74
100
AcDbEntity
  8
0
  6
Continuous
 62
    16
100
AcDbCircle
 10
8.635160851298082
 20
6.426174042302961
 30
0.0
 40
0.9662162475397422
100
AcDbArc
 50
37.02614209413181
 51
115.5096203569587
  0
ARC
  5
FD
330
74
100
AcDbEntity
  8
0
  6
Continuous
 62
    16
100
AcDbCircle
 10
8.635160851298082
 20
6.426174042302961
 30
0.0
 40
0.9662162475397422
100
AcDbArc
 50
37.02614209413181
 51
115.5096203569587
  0
LINE
  5
FE
330
74
100
AcDbEntity
  8
0
  6
Continuous
 62
    16
100
AcDbLine
 10
23.06683613583013
 20
6.354388206629125
 30
0.0
 11
23.19185326563851
 21
6.69922363293054
 31
0.0
  0
ARC
  5
FF
330
74
100
AcDbEntity
  8
0
  6
Continuous
 62
    16
100
AcDbCircle
 10
23.60493399594711
 20
7.572686939119109
 30
0.0
 40
0.9662162475397422
100
AcDbArc
 50
244.6894644668492
 51
324.2378769303043
  0
ARC
  5
100
330
74
100
AcDbEntity
  8
0
  6
Continuous
 62
    16
100
AcDbCircle
 10
23.60493399594711
 20
7.572686939119109
 30
0.0
 40
0.9662162475397422
100
AcDbArc
 50
244.6894644668492
 51
324.2378769303043
  0
ARC
  5
101
330
74
100
AcDbEntity
  8
0
  6
Continuous
 62
    16
100
AcDbCircle
 10
23.60493399594711
 20
7.572686939119109
 30
0.0
 40
1.331841247539742
100
AcDbArc
 50
246.1699240310035
 51
324.0302696233412
  0
ARC
  5
102
330
74
100
AcDbEntity
  8
0
  6
Continuous
 62
    16
100
AcDbCircle
 10
23.60493399594711
 20
7.572686939119109
 30
0.0
 40
1.331841247539742
100
AcDbArc
 50
246.1699240310035
 51
324.0302696233412
  0
LINE
  5
103
330
74
100
AcDbEntity
  8
0
  6
Continuous
 62
    16
100
AcDbLine
 10
25.45089537884164
 20
6.951815436852399
 30
0.0
 11
25.57647295771253
 21
7.298196752838891
 31
0.0
  0
ARC
  5
104
330
74
100
AcDbEntity
  8
0
  6
Continuous
 62
    16
100
AcDbCircle
 10
23.90988599877514
 20
11.01183298270226
 30
0.0
 40
2.4375
100
AcDbArc
 50
289.0460469748608
 51
308.233797137863
  0
ARC
  5
105
330
74
100
AcDbEntity
  8
0
  6
Continuous
 62
    16
100
AcDbCircle
 10
23.90988599877514
 20
11.01183298270226
 30
0.0
 40
2.4375
100
AcDbArc
 50
289.0460469748608
 51
308.233797137863
  0
LINE
  5
106
330
74
100
AcDbEntity
  8
0
  6
Continuous
 62
    16
100
AcDbLine
 10
24.745081558436
 20
11.88319181963826
 30
0.0
 11
26.93883155843591
 21
11.88319181963826
 31
0.0
  0
LINE
  5
107
330
74
100
AcDbEntity
  8
0
  6
Continuous
 62
    16
100
AcDbLine
 10
24.745081558436
 20
8.470691819638347
 30
0.0
 11
26.20758155843609
 21
8.470691819638347
 31
0.0
  0
LINE
  5
108
330
74
100
AcDbEntity
  8
0
  6
Continuous
 62
    16
100
AcDbLine
 10
26.60582190868431
 20
10.03275082607288
 30
0.0
 11
25.12479805506413
 21
11.41503975611877
 31
0.0
  0
LINE
  5
109
330
74
100
AcDbEntity
  8
0
  6
Continuous
 62
    16
100
AcDbLine
 10
11.16336234196964
 20
10.03275082607288
 30
0.0
 11
9.682338488349473
 21
11.41503975611877
 31
0.0
  0
LINE
  5
10A
330
74
100
AcDbEntity
  8
0
  6
Continuous
 62
    16
100
AcDbLine
 10
11.89947420052098
 20
10.61271716107095
 30
0.0
 11
11.06803735814387
 21
11.38872488062307
 31
0.0
  0
LINE
  5
10B
330
74
100
AcDbEntity
  8
0
  6
Continuous
 62
    16
100
AcDbLine
 10
11.16336234196964
 20
10.03275082607288
 30
0.0
 11
9.975926547415696
 21
9.097196293413077
 31
0.0
  0
LINE
  5
10C
330
74
100
AcDbEntity
  8
0
  6
Continuous
 62
    16
100
AcDbLine
 10
11.39773774317868
 20
9.814000451611633
 30
0.0
 11
10.32522289306175
 21
8.968989602204516
 31
0.0
  0
ARC
  5
10D
330
74
100
AcDbEntity
  8
0
  6
Continuous
 62
    16
100
AcDbCircle
 10
11.1511948949063
 20
11.47782224144058
 30
0.0
 40
0.121875
100
AcDbArc
 50
96.32369450860737
 51
226.974934010882
  0
ARC
  5
10E
330
74
100
AcDbEntity
  8
0
  6
Continuous
 62
    16
100
AcDbCircle
 10
11.1511948949063
 20
11.47782224144058
 30
0.0
 40
0.121875
100
AcDbArc
 50
96.32369450860737
 51
226.974934010882
  0
LINE
  5
10F
330
74
100
AcDbEntity
  8
0
  6
Continuous
 62
    16
100
AcDbLine
 10
9.302621991721338
 20
11.88319181963826
 30
0.0
 11
11.49637199172125
 21
11.88319181963826
 31
0.0
  0
ARC
  5
110
330
74
100
AcDbEntity
  8
0
  6
Continuous
 62
    16
100
AcDbCircle
 10
10.40064789882931
 20
8.873257767740057
 30
0.0
 40
0.121875
100
AcDbArc
 50
128.2337971378629
 51
264.3948769589975
  0
ARC
  5
111
330
74
100
AcDbEntity
  8
0
  6
Continuous
 62
    16
100
AcDbCircle
 10
10.40064789882931
 20
8.873257767740057
 30
0.0
 40
0.121875
100
AcDbArc
 50
128.2337971378629
 51
264.3948769589975
  0
LINE
  5
112
330
74
100
AcDbEntity
  8
0
  6
Continuous
 62
    16
100
AcDbLine
 10
10.77702575289672
 20
8.713859095133472
 30
0.0
 11
10.38874413765447
 21
8.75196549224475
 31
0.0
  0
ARC
  5
113
330
74
100
AcDbEntity
  8
0
  6
Continuous
 62
    16
100
AcDbCircle
 10
10.76512199172143
 20
8.592566819638165
 30
0.0
 40
0.121875
100
AcDbArc
 50
270.0
 51
84.3948769589973
  0
ARC
  5
114
330
74
100
AcDbEntity
  8
0
  6
Continuous
 62
    16
100
AcDbCircle
 10
10.76512199172143
 20
8.592566819638165
 30
0.0
 40
0.121875
100
AcDbArc
 50
270.0
 51
84.3948769589973
  0
ARC
  5
115
330
74
100
AcDbEntity
  8
0
  6
Continuous
 62
    16
100
AcDbCircle
 10
8.467426432060023
 20
11.01183298270226
 30
0.0
 40
2.4375
100
AcDbArc
 50
289.0460469748608
 51
308.233797137863
  0
ARC
  5
116
330
74
100
AcDbEntity
  8
0
  6
Continuous
 62
    16
100
AcDbCircle
 10
8.467426432060023
 20
11.01183298270226
 30
0.0
 40
2.4375
100
AcDbArc
 50
289.0460469748608
 51
308.233797137863
  0
ARC
  5
117
330
74
100
AcDbEntity
  8
0
  6
Continuous
 62
    16
100
AcDbCircle
 10
9.302621991721338
 20
8.592566819638165
 30
0.0
 40
0.121875
100
AcDbArc
 50
109.0460469748607
 51
270.0
  0
ARC
  5
118
330
74
100
AcDbEntity
  8
0
  6
Continuous
 62
    16
100
AcDbCircle
 10
9.302621991721338
 20
8.592566819638165
 30
0.0
 40
0.121875
100
AcDbArc
 50
109.0460469748607
 51
270.0
  0
ARC
  5
119
330
74
100
AcDbEntity
  8
0
  6
Continuous
 62
    16
100
AcDbCircle
 10
9.017078194248228
 20
10.70226086958192
 30
0.0
 40
0.9750000000000001
100
AcDbArc
 50
46.97493401088205
 51
74.91066274878528
  0
ARC
  5
11A
330
74
100
AcDbEntity
  8
0
  6
Continuous
 62
    16
100
AcDbCircle
 10
9.017078194248228
 20
10.70226086958192
 30
0.0
 40
0.9750000000000001
100
AcDbArc
 50
46.97493401088205
 51
74.91066274878528
  0
ARC
  5
11B
330
74
100
AcDbEntity
  8
0
  6
Continuous
 62
    16
100
AcDbCircle
 10
9.302621991721338
 20
11.76131681963798
 30
0.0
 40
0.121875
100
AcDbArc
 50
90.0
 51
254.9106627487849
  0
ARC
  5
11C
330
74
100
AcDbEntity
  8
0
  6
Continuous
 62
    16
100
AcDbCircle
 10
9.302621991721338
 20
11.76131681963798
 30
0.0
 40
0.121875
100
AcDbArc
 50
90.0
 51
254.9106627487849
  0
LINE
  5
11D
330
74
100
AcDbEntity
  8
0
  6
Continuous
 62
    16
100
AcDbLine
 10
9.302621991721338
 20
8.470691819638347
 30
0.0
 11
10.76512199172143
 21
8.470691819638347
 31
0.0
  0
ARC
  5
11E
330
74
100
AcDbEntity
  8
0
  6
Continuous
 62
    16
100
AcDbCircle
 10
7.415163540981979
 20
10.54256681963798
 30
0.0
 40
1.70625
100
AcDbArc
 50
270.0
 51
332.181860715346
  0
ARC
  5
11F
330
74
100
AcDbEntity
  8
0
  6
Continuous
 62
    16
100
AcDbCircle
 10
7.415163540981979
 20
10.54256681963798
 30
0.0
 40
1.70625
100
AcDbArc
 50
270.0
 51
332.181860715346
  0
ARC
  5
120
330
74
100
AcDbEntity
  8
0
  6
Continuous
 62
    16
100
AcDbCircle
 10
9.032018126280349
 20
9.689441819638347
 30
0.0
 40
0.121875
100
AcDbArc
 50
0.0
 51
152.1818607153462
  0
ARC
  5
121
330
74
100
AcDbEntity
  8
0
  6
Continuous
 62
    16
100
AcDbCircle
 10
9.032018126280349
 20
9.689441819638347
 30
0.0
 40
0.121875
100
AcDbArc
 50
0.0
 51
152.1818607153462
  0
ARC
  5
122
330
74
100
AcDbEntity
  8
0
  6
Continuous
 62
    16
100
AcDbCircle
 10
7.935143126280167
 20
9.689441819638347
 30
0.0
 40
1.21875
100
AcDbArc
 50
270.0
 51
0.0
  0
ARC
  5
123
330
74
100
AcDbEntity
  8
0
  6
Continuous
 62
    16
100
AcDbCircle
 10
7.935143126280167
 20
9.689441819638347
 30
0.0
 40
1.21875
100
AcDbArc
 50
270.0
 51
0.0
  0
ARC
  5
124
330
74
100
AcDbEntity
  8
0
  6
Continuous
 62
    16
100
AcDbCircle
 10
6.107018126280167
 20
9.080066819638347
 30
0.0
 40
0.24375
100
AcDbArc
 50
180.0
 51
270.0
  0
ARC
  5
125
330
74
100
AcDbEntity
  8
0
  6
Continuous
 62
    16
100
AcDbCircle
 10
6.107018126280167
 20
9.080066819638347
 30
0.0
 40
0.24375
100
AcDbArc
 50
180.0
 51
270.0
  0
ARC
  5
126
330
74
100
AcDbEntity
  8
0
  6
Continuous
 62
    16
100
AcDbCircle
 10
7.088965440011037
 20
10.23428968208955
 30
0.0
 40
0.7714321343087712
100
AcDbArc
 50
1.983446432504158
 51
90.50527446566518
  0
ARC
  5
127
330
74
100
AcDbEntity
  8
0
  6
Continuous
 62
    16
100
AcDbCircle
 10
7.088965440011037
 20
10.23428968208955
 30
0.0
 40
0.7714321343087712
100
AcDbArc
 50
1.983446432504158
 51
90.50527446566518
  0
ARC
  5
128
330
74
100
AcDbEntity
  8
0
  6
Continuous
 62
    16
100
AcDbCircle
 10
7.981789760424221
 20
10.2587474843248
 30
0.0
 40
0.121875
100
AcDbArc
 50
178.945910736507
 51
0.0
  0
ARC
  5
129
330
74
100
AcDbEntity
  8
0
  6
Continuous
 62
    16
100
AcDbCircle
 10
7.981789760424221
 20
10.2587474843248
 30
0.0
 40
0.121875
100
AcDbArc
 50
178.945910736507
 51
0.0
  0
ARC
  5
12A
330
74
100
AcDbEntity
  8
0
  6
Continuous
 62
    16
100
AcDbCircle
 10
7.099254751555549
 20
12.12694181963835
 30
0.0
 40
0.7312500000000002
100
AcDbArc
 50
270.0
 51
348.4630409671844
  0
ARC
  5
12B
330
74
100
AcDbEntity
  8
0
  6
Continuous
 62
    16
100
AcDbCircle
 10
7.099254751555549
 20
12.12694181963835
 30
0.0
 40
0.7312500000000002
100
AcDbArc
 50
270.0
 51
348.4630409671844
  0
ARC
  5
12C
330
74
100
AcDbEntity
  8
0
  6
Continuous
 62
    16
100
AcDbCircle
 10
7.935143126280167
 20
11.95631681963815
 30
0.0
 40
0.121875
100
AcDbArc
 50
0.0
 51
168.4630409671844
  0
ARC
  5
12D
330
74
100
AcDbEntity
  8
0
  6
Continuous
 62
    16
100
AcDbCircle
 10
7.935143126280167
 20
11.95631681963815
 30
0.0
 40
0.121875
100
AcDbArc
 50
0.0
 51
168.4630409671844
  0
LINE
  5
12E
330
74
100
AcDbEntity
  8
0
  6
Continuous
 62
    16
100
AcDbLine
 10
8.05701812628044
 20
11.95631681963815
 30
0.0
 11
8.103664760424039
 21
10.2587474843248
 31
0.0
  0
ARC
  5
12F
330
74
100
AcDbEntity
  8
0
  6
Continuous
 62
    16
100
AcDbCircle
 10
5.985143126280349
 20
10.88381681963793
 30
0.0
 40
0.121875
100
AcDbArc
 50
90.00000000000001
 51
180.0
  0
ARC
  5
130
330
74
100
AcDbEntity
  8
0
  6
Continuous
 62
    16
100
AcDbCircle
 10
5.985143126280349
 20
10.88381681963793
 30
0.0
 40
0.121875
100
AcDbArc
 50
90.00000000000001
 51
180.0
  0
LINE
  5
131
330
74
100
AcDbEntity
  8
0
  6
Continuous
 62
    16
100
AcDbLine
 10
5.863268126280531
 20
10.88381681963793
 30
0.0
 11
5.863268126280531
 21
9.080066819638347
 31
0.0
  0
ARC
  5
132
330
74
100
AcDbEntity
  8
0
  6
Continuous
 62
    16
100
AcDbCircle
 10
5.985143126280349
 20
11.51756681963835
 30
0.0
 40
0.121875
100
AcDbArc
 50
180.0
 51
270.0
  0
ARC
  5
133
330
74
100
AcDbEntity
  8
0
  6
Continuous
 62
    16
100
AcDbCircle
 10
5.985143126280349
 20
11.51756681963835
 30
0.0
 40
0.121875
100
AcDbArc
 50
180.0
 51
270.0
  0
LINE
  5
134
330
74
100
AcDbEntity
  8
0
  6
Continuous
 62
    16
100
AcDbLine
 10
5.985143126280349
 20
11.0056918196382
 30
0.0
 11
7.082162497271696
 21
11.0056918196382
 31
0.0
  0
LINE
  5
135
330
74
100
AcDbEntity
  8
0
  6
Continuous
 62
    16
100
AcDbLine
 10
5.985143126280349
 20
11.39569181963807
 30
0.0
 11
7.099254751555549
 21
11.39569181963807
 31
0.0
  0
ARC
  5
136
330
74
100
AcDbEntity
  8
0
  6
Continuous
 62
    16
100
AcDbCircle
 10
6.009518126280312
 20
13.22276398468549
 30
0.0
 40
0.14625
100
AcDbArc
 50
100.0375301237075
 51
180.0
  0
ARC
  5
137
330
74
100
AcDbEntity
  8
0
  6
Continuous
 62
    16
100
AcDbCircle
 10
6.009518126280312
 20
13.22276398468549
 30
0.0
 40
0.14625
100
AcDbArc
 50
100.0375301237075
 51
180.0
  0
ARC
  5
138
330
74
100
AcDbEntity
  8
0
  6
Continuous
 62
    16
100
AcDbCircle
 10
8.184131360747728
 20
13.1339597266564
 30
0.0
 40
0.24375
100
AcDbArc
 50
11.91554144336952
 51
80.34504162044189
  0
ARC
  5
139
330
74
100
AcDbEntity
  8
0
  6
Continuous
 62
    16
100
AcDbCircle
 10
8.184131360747728
 20
13.1339597266564
 30
0.0
 40
0.24375
100
AcDbArc
 50
11.91554144336952
 51
80.34504162044189
  0
ARC
  5
13A
330
74
100
AcDbEntity
  8
0
  6
Continuous
 62
    16
100
AcDbCircle
 10
7.126073246441905
 20
6.914630230761674
 30
0.0
 40
6.55243816409218
100
AcDbArc
 50
80.34504162044209
 51
100.0375301237077
  0
ARC
  5
13B
330
74
100
AcDbEntity
  8
0
  6
Continuous
 62
    16
100
AcDbCircle
 10
7.126073246441905
 20
6.914630230761674
 30
0.0
 40
6.55243816409218
100
AcDbArc
 50
80.34504162044209
 51
100.0375301237077
  0
LINE
  5
13C
330
74
100
AcDbEntity
  8
0
  6
Continuous
 62
    16
100
AcDbLine
 10
8.60736479212423
 20
12.57409919048533
 30
0.0
 11
8.422629283484042
 21
13.184286691106
 31
0.0
  0
ARC
  5
13D
330
74
100
AcDbEntity
  8
0
  6
Continuous
 62
    16
100
AcDbCircle
 10
8.722369087252758
 20
12.61444181963807
 30
0.0
 40
0.121875
100
AcDbArc
 50
184.5006017563728
 51
0.0
  0
ARC
  5
13E
330
74
100
AcDbEntity
  8
0
  6
Continuous
 62
    16
100
AcDbCircle
 10
8.722369087252758
 20
12.61444181963807
 30
0.0
 40
0.121875
100
AcDbArc
 50
184.5006017563728
 51
0.0
  0
ARC
  5
13F
330
74
100
AcDbEntity
  8
0
  6
Continuous
 62
    16
100
AcDbCircle
 10
8.66639312628044
 20
13.71131681963826
 30
0.0
 40
0.121875
100
AcDbArc
 50
0.0
 51
90.0
  0
ARC
  5
140
330
74
100
AcDbEntity
  8
0
  6
Continuous
 62
    16
100
AcDbCircle
 10
8.66639312628044
 20
13.71131681963826
 30
0.0
 40
0.121875
100
AcDbArc
 50
0.0
 51
90.0
  0
LINE
  5
141
330
74
100
AcDbEntity
  8
0
  6
Continuous
 62
    16
100
AcDbLine
 10
8.788268126280258
 20
13.71131681963826
 30
0.0
 11
8.844244087253031
 21
12.61444181963807
 31
0.0
  0
ARC
  5
142
330
74
100
AcDbEntity
  8
0
  6
Continuous
 62
    16
100
AcDbCircle
 10
4.157018126280349
 20
13.04416473737538
 30
0.0
 40
0.4875
100
AcDbArc
 50
0.0
 51
81.94974620412304
  0
ARC
  5
143
330
74
100
AcDbEntity
  8
0
  6
Continuous
 62
    16
100
AcDbCircle
 10
4.157018126280349
 20
13.04416473737538
 30
0.0
 40
0.4875
100
AcDbArc
 50
0.0
 51
81.94974620412304
  0
ARC
  5
144
330
74
100
AcDbEntity
  8
0
  6
Continuous
 62
    16
100
AcDbCircle
 10
4.157018126280349
 20
9.259718901901039
 30
0.0
 40
0.4875
100
AcDbArc
 50
278.0502537958771
 51
0.0
  0
ARC
  5
145
330
74
100
AcDbEntity
  8
0
  6
Continuous
 62
    16
100
AcDbCircle
 10
4.157018126280349
 20
9.259718901901039
 30
0.0
 40
0.4875
100
AcDbArc
 50
278.0502537958771
 51
0.0
  0
LINE
  5
146
330
74
100
AcDbEntity
  8
0
  6
Continuous
 62
    16
100
AcDbLine
 10
4.225288409057015
 20
8.777022912183298
 30
0.0
 11
3.774325555585932
 21
8.713240817067714
 31
0.0
  0
LINE
  5
147
330
74
100
AcDbEntity
  8
0
  6
Continuous
 62
    16
100
AcDbLine
 10
4.225288409057015
 20
13.52686072709312
 30
0.0
 11
3.774325555585932
 21
13.59064282220871
 31
0.0
  0
ARC
  5
148
330
74
100
AcDbEntity
  8
0
  6
Continuous
 62
    16
100
AcDbCircle
 10
3.79139312628044
 20
8.592566819638165
 30
0.0
 40
0.121875
100
AcDbArc
 50
98.0502537958774
 51
270.0
  0
ARC
  5
149
330
74
100
AcDbEntity
  8
0
  6
Continuous
 62
    16
100
AcDbCircle
 10
3.79139312628044
 20
8.592566819638165
 30
0.0
 40
0.121875
100
AcDbArc
 50
98.0502537958774
 51
270.0
  0
ARC
  5
14A
330
74
100
AcDbEntity
  8
0
  6
Continuous
 62
    16
100
AcDbCircle
 10
3.79139312628044
 20
13.71131681963826
 30
0.0
 40
0.121875
100
AcDbArc
 50
90.0
 51
261.9497462041234
  0
ARC
  5
14B
330
74
100
AcDbEntity
  8
0
  6
Continuous
 62
    16
100
AcDbCircle
 10
3.79139312628044
 20
13.71131681963826
 30
0.0
 40
0.121875
100
AcDbArc
 50
90.0
 51
261.9497462041234
  0
LINE
  5
14C
330
74
100
AcDbEntity
  8
0
  6
Continuous
 62
    16
100
AcDbLine
 10
6.107018126280167
 20
8.836316819638256
 30
0.0
 11
7.415163540981979
 21
8.836316819638256
 31
0.0
  0
LINE
  5
14D
330
74
100
AcDbEntity
  8
0
  6
Continuous
 62
    16
100
AcDbLine
 10
5.863268126280531
 20
13.22276398468549
 30
0.0
 11
5.863268126280531
 21
11.51756681963835
 31
0.0
  0
LINE
  5
14E
330
74
100
AcDbEntity
  8
0
  6
Continuous
 62
    16
100
AcDbLine
 10
3.79139312628044
 20
13.83319181963807
 30
0.0
 11
8.66639312628044
 21
13.83319181963807
 31
0.0
  0
LINE
  5
14F
330
74
100
AcDbEntity
  8
0
  6
Continuous
 62
    16
100
AcDbLine
 10
3.79139312628044
 20
8.470691819638347
 30
0.0
 11
7.935143126280167
 21
8.470691819638347
 31
0.0
  0
LINE
  5
150
330
74
100
AcDbEntity
  8
0
  6
Continuous
 62
    16
100
AcDbLine
 10
4.644518126280531
 20
13.04416473737538
 30
0.0
 11
4.644518126280531
 21
9.259718901901039
 31
0.0
  0
ARC
  5
151
330
74
100
AcDbEntity
  8
0
  6
Continuous
 62
    16
100
AcDbCircle
 10
21.55461014053103
 20
10.66896314029091
 30
0.0
 40
0.121875
100
AcDbArc
 50
184.9902678055532
 51
270.0
  0
ARC
  5
152
330
74
100
AcDbEntity
  8
0
  6
Continuous
 62
    16
100
AcDbCircle
 10
21.55461014053103
 20
10.66896314029091
 30
0.0
 40
0.121875
100
AcDbArc
 50
184.9902678055532
 51
270.0
  0
ARC
  5
153
330
74
100
AcDbEntity
  8
0
  6
Continuous
 62
    16
100
AcDbCircle
 10
23.07269609270892
 20
10.66896314029091
 30
0.0
 40
0.121875
100
AcDbArc
 50
270.0
 51
355.0097321944468
  0
ARC
  5
154
330
74
100
AcDbEntity
  8
0
  6
Continuous
 62
    16
100
AcDbCircle
 10
23.07269609270892
 20
10.66896314029091
 30
0.0
 40
0.121875
100
AcDbArc
 50
270.0
 51
355.0097321944468
  0
ARC
  5
155
330
74
100
AcDbEntity
  8
0
  6
Continuous
 62
    16
100
AcDbCircle
 10
22.31365311661997
 20
10.7352408807341
 30
0.0
 40
0.8838060850910612
100
AcDbArc
 50
355.0097321944468
 51
184.9902678055533
  0
ARC
  5
156
330
74
100
AcDbEntity
  8
0
  6
Continuous
 62
    16
100
AcDbCircle
 10
22.31365311661997
 20
10.7352408807341
 30
0.0
 40
0.8838060850910612
100
AcDbArc
 50
355.0097321944468
 51
184.9902678055533
  0
ARC
  5
157
330
74
100
AcDbEntity
  8
0
  6
Continuous
 62
    16
100
AcDbCircle
 10
24.745081558436
 20
11.76131681963798
 30
0.0
 40
0.121875
100
AcDbArc
 50
90.0
 51
254.9106627487849
  0
ARC
  5
158
330
74
100
AcDbEntity
  8
0
  6
Continuous
 62
    16
100
AcDbCircle
 10
24.745081558436
 20
11.76131681963798
 30
0.0
 40
0.121875
100
AcDbArc
 50
90.0
 51
254.9106627487849
  0
ARC
  5
159
330
74
100
AcDbEntity
  8
0
  6
Continuous
 62
    16
100
AcDbCircle
 10
24.45953776096289
 20
10.70226086958192
 30
0.0
 40
0.9750000000000001
100
AcDbArc
 50
46.97493401088205
 51
74.91066274878528
  0
ARC
  5
15A
330
74
100
AcDbEntity
  8
0
  6
Continuous
 62
    16
100
AcDbCircle
 10
24.45953776096289
 20
10.70226086958192
 30
0.0
 40
0.9750000000000001
100
AcDbArc
 50
46.97493401088205
 51
74.91066274878528
  0
ARC
  5
15B
330
74
100
AcDbEntity
  8
0
  6
Continuous
 62
    16
100
AcDbCircle
 10
24.745081558436
 20
8.592566819638165
 30
0.0
 40
0.121875
100
AcDbArc
 50
109.0460469748607
 51
270.0
  0
ARC
  5
15C
330
74
100
AcDbEntity
  8
0
  6
Continuous
 62
    16
100
AcDbCircle
 10
24.745081558436
 20
8.592566819638165
 30
0.0
 40
0.121875
100
AcDbArc
 50
109.0460469748607
 51
270.0
  0
LINE
  5
15D
330
74
100
AcDbEntity
  8
0
  6
Continuous
 62
    16
100
AcDbLine
 10
14.8407453365588
 20
8.470691819638347
 30
0.0
 11
17.02493661440562
 21
8.470691819638347
 31
0.0
  0
LINE
  5
15E
330
74
100
AcDbEntity
  8
0
  6
Continuous
 62
    16
100
AcDbLine
 10
22.59762593817308
 20
8.470691819638347
 30
0.0
 11
22.41115311661983
 21
8.472432041961753
 31
0.0
  0
ARC
  5
15F
330
74
100
AcDbEntity
  8
0
  6
Continuous
 62
    16
100
AcDbCircle
 10
24.22860690160664
 20
10.34756681963827
 30
0.0
 40
0.121875
100
AcDbArc
 50
270.000000000013
 51
7.150315949103082
  0
ARC
  5
160
330
74
100
AcDbEntity
  8
0
  6
Continuous
 62
    16
100
AcDbCircle
 10
24.22860690160664
 20
10.34756681963827
 30
0.0
 40
0.121875
100
AcDbArc
 50
270.000000000013
 51
7.150315949103082
  0
ARC
  5
161
330
74
100
AcDbEntity
  8
0
  6
Continuous
 62
    16
100
AcDbCircle
 10
21.55334917727427
 20
10.10381681963818
 30
0.0
 40
0.121875
100
AcDbArc
 50
90.0
 51
181.8543561911767
  0
ARC
  5
162
330
74
100
AcDbEntity
  8
0
  6
Continuous
 62
    16
100
AcDbCircle
 10
21.55334917727427
 20
10.10381681963818
 30
0.0
 40
0.121875
100
AcDbArc
 50
90.0
 51
181.8543561911767
  0
ARC
  5
163
330
74
100
AcDbEntity
  8
0
  6
Continuous
 62
    16
100
AcDbCircle
 10
22.54222280034659
 20
12.94678981745656
 30
0.0
 40
3.923361595779913
100
AcDbArc
 50
270.017156252833
 51
294.6841464046809
  0
ARC
  5
164
330
74
100
AcDbEntity
  8
0
  6
Continuous
 62
    16
100
AcDbCircle
 10
22.54222280034659
 20
12.94678981745656
 30
0.0
 40
3.923361595779913
100
AcDbArc
 50
270.017156252833
 51
294.6841464046809
  0
ARC
  5
165
330
74
100
AcDbEntity
  8
0
  6
Continuous
 62
    16
100
AcDbCircle
 10
22.54339758465116
 20
10.13587055369763
 30
0.0
 40
1.112442156136357
100
AcDbArc
 50
181.8543561911769
 51
270.4458215539496
  0
ARC
  5
166
330
74
100
AcDbEntity
  8
0
  6
Continuous
 62
    16
100
AcDbCircle
 10
22.54339758465116
 20
10.13587055369763
 30
0.0
 40
1.112442156136357
100
AcDbArc
 50
181.8543561911769
 51
270.4458215539496
  0
ARC
  5
167
330
74
100
AcDbEntity
  8
0
  6
Continuous
 62
    16
100
AcDbCircle
 10
22.59762593817308
 20
10.90819181963835
 30
0.0
 40
2.4375
100
AcDbArc
 50
270.0
 51
315.1491919008036
  0
ARC
  5
168
330
74
100
AcDbEntity
  8
0
  6
Continuous
 62
    16
100
AcDbCircle
 10
22.59762593817308
 20
10.90819181963835
 30
0.0
 40
2.4375
100
AcDbArc
 50
270.0
 51
315.1491919008036
  0
ARC
  5
169
330
74
100
AcDbEntity
  8
0
  6
Continuous
 62
    16
100
AcDbCircle
 10
24.23927811661983
 20
9.275066819638056
 30
0.0
 40
0.121875
100
AcDbArc
 50
315.1491919008037
 51
118.7379385920353
  0
ARC
  5
16A
330
74
100
AcDbEntity
  8
0
  6
Continuous
 62
    16
100
AcDbCircle
 10
24.23927811661983
 20
9.275066819638056
 30
0.0
 40
0.121875
100
AcDbArc
 50
315.1491919008037
 51
118.7379385920353
  0
LINE
  5
16B
330
74
100
AcDbEntity
  8
0
  6
Continuous
 62
    16
100
AcDbLine
 10
21.55461014053103
 20
10.54708814029064
 30
0.0
 11
23.07269609270892
 21
10.54708814029064
 31
0.0
  0
LINE
  5
16C
330
74
100
AcDbEntity
  8
0
  6
Continuous
 62
    16
100
AcDbLine
 10
21.55334917727427
 20
10.225691819638
 30
0.0
 11
24.22860690160664
 21
10.225691819638
 31
0.0
  0
LINE
  5
16D
330
74
100
AcDbEntity
  8
0
  6
Continuous
 62
    16
100
AcDbLine
 10
24.34953408107671
 20
10.36273695115861
 30
0.0
 11
24.3357533763386
 21
10.45115793553524
 31
0.0
  0
LINE
  5
16E
330
74
100
AcDbEntity
  8
0
  6
Continuous
 62
    16
100
AcDbLine
 10
24.3357533763386
 20
10.45115793553524
 30
0.0
 11
24.31669747606597
 21
10.53882731259856
 31
0.0
  0
LINE
  5
16F
330
74
100
AcDbEntity
  8
0
  6
Continuous
 62
    16
100
AcDbLine
 10
24.31669747606597
 20
10.53882731259856
 30
0.0
 11
24.2924186111571
 21
10.62550478668018
 31
0.0
  0
LINE
  5
170
330
74
100
AcDbEntity
  8
0
  6
Continuous
 62
    16
100
AcDbLine
 10
24.2924186111571
 20
10.62550478668018
 30
0.0
 11
24.26298332829251
 21
10.71095278084832
 31
0.0
  0
LINE
  5
171
330
74
100
AcDbEntity
  8
0
  6
Continuous
 62
    16
100
AcDbLine
 10
24.26298332829251
 20
10.71095278084832
 30
0.0
 11
24.22847230753663
 21
10.79493708809051
 31
0.0
  0
LINE
  5
172
330
74
100
AcDbEntity
  8
0
  6
Continuous
 62
    16
100
AcDbLine
 10
24.22847230753663
 20
10.79493708809051
 30
0.0
 11
24.18898014119927
 21
10.87722751325774
 31
0.0
  0
LINE
  5
173
330
74
100
AcDbEntity
  8
0
  6
Continuous
 62
    16
100
AcDbLine
 10
24.18898014119927
 20
10.87722751325774
 30
0.0
 11
24.14461507456267
 21
10.95759850401546
 31
0.0
  0
LINE
  5
174
330
74
100
AcDbEntity
  8
0
  6
Continuous
 62
    16
100
AcDbLine
 10
24.14461507456267
 20
10.95759850401546
 30
0.0
 11
24.09549870919076
 21
11.03582976906401
 31
0.0
  0
LINE
  5
175
330
74
100
AcDbEntity
  8
0
  6
Continuous
 62
    16
100
AcDbLine
 10
24.09549870919076
 20
11.03582976906401
 30
0.0
 11
24.0417656696271
 21
11.11170688194389
 31
0.0
  0
LINE
  5
176
330
74
100
AcDbEntity
  8
0
  6
Continuous
 62
    16
100
AcDbLine
 10
24.0417656696271
 20
11.11170688194389
 30
0.0
 11
23.98356323439779
 21
11.18502186876268
 31
0.0
  0
LINE
  5
177
330
74
100
AcDbEntity
  8
0
  6
Continuous
 62
    16
100
AcDbLine
 10
23.98356323439779
 20
11.18502186876268
 30
0.0
 11
23.9210509323328
 21
11.25557377823716
 31
0.0
  0
LINE
  5
178
330
74
100
AcDbEntity
  8
0
  6
Continuous
 62
    16
100
AcDbLine
 10
23.9210509323328
 20
11.25557377823716
 30
0.0
 11
23.85440010530678
 21
11.32316923248837
 31
0.0
  0
LINE
  5
179
330
74
100
AcDbEntity
  8
0
  6
Continuous
 62
    16
100
AcDbLine
 10
23.85440010530678
 20
11.32316923248837
 30
0.0
 11
23.78379343860328
 21
11.38762295707411
 31
0.0
  0
LINE
  5
17A
330
74
100
AcDbEntity
  8
0
  6
Continuous
 62
    16
100
AcDbLine
 10
23.78379343860328
 20
11.38762295707411
 30
0.0
 11
23.70942446018839
 21
11.44875828881541
 31
0.0
  0
LINE
  5
17B
330
74
100
AcDbEntity
  8
0
  6
Continuous
 62
    16
100
AcDbLine
 10
23.70942446018839
 20
11.44875828881541
 30
0.0
 11
23.6314970102629
 21
11.5064076600178
 31
0.0
  0
LINE
  5
17C
330
74
100
AcDbEntity
  8
0
  6
Continuous
 62
    16
100
AcDbLine
 10
23.6314970102629
 20
11.5064076600178
 30
0.0
 11
23.55022468254978
 21
11.56041305776162
 31
0.0
  0
LINE
  5
17D
330
74
100
AcDbEntity
  8
0
  6
Continuous
 62
    16
100
AcDbLine
 10
23.55022468254978
 20
11.56041305776162
 30
0.0
 11
23.46583023885009
 21
11.61062645700568
 31
0.0
  0
LINE
  5
17E
330
74
100
AcDbEntity
  8
0
  6
Continuous
 62
    16
100
AcDbLine
 10
23.46583023885009
 20
11.61062645700568
 30
0.0
 11
23.3785449984683
 21
11.65691022631282
 31
0.0
  0
LINE
  5
17F
330
74
100
AcDbEntity
  8
0
  6
Continuous
 62
    16
100
AcDbLine
 10
23.3785449984683
 20
11.65691022631282
 30
0.0
 11
23.2886082041808
 21
11.69913750508877
 31
0.0
  0
LINE
  5
180
330
74
100
AcDbEntity
  8
0
  6
Continuous
 62
    16
100
AcDbLine
 10
23.2886082041808
 20
11.69913750508877
 30
0.0
 11
23.19626636648977
 21
11.73719255129745
 31
0.0
  0
LINE
  5
181
330
74
100
AcDbEntity
  8
0
  6
Continuous
 62
    16
100
AcDbLine
 10
23.19626636648977
 20
11.73719255129745
 30
0.0
 11
23.10177258795315
 21
11.77097105870226
 31
0.0
  0
LINE
  5
182
330
74
100
AcDbEntity
  8
0
  6
Continuous
 62
    16
100
AcDbLine
 10
23.10177258795315
 20
11.77097105870226
 30
0.0
 11
23.0053858694499
 21
11.80038044276253
 31
0.0
  0
LINE
  5
183
330
74
100
AcDbEntity
  8
0
  6
Continuous
 62
    16
100
AcDbLine
 10
23.0053858694499
 20
11.80038044276253
 30
0.0
 11
22.90737040027611
 21
11.82534009440033
 31
0.0
  0
LINE
  5
184
330
74
100
AcDbEntity
  8
0
  6
Continuous
 62
    16
100
AcDbLine
 10
22.90737040027611
 20
11.82534009440033
 30
0.0
 11
22.80799483401901
 21
11.8457816009458
 31
0.0
  0
LINE
  5
185
330
74
100
AcDbEntity
  8
0
  6
Continuous
 62
    16
100
AcDbLine
 10
22.80799483401901
 20
11.8457816009458
 30
0.0
 11
22.70753155219867
 21
11.86164893365086
 31
0.0
  0
LINE
  5
186
330
74
100
AcDbEntity
  8
0
  6
Continuous
 62
    16
100
AcDbLine
 10
22.70753155219867
 20
11.86164893365086
 30
0.0
 11
22.60625591768789
 21
11.8728986012583
 31
0.0
  0
LINE
  5
187
330
74
100
AcDbEntity
  8
0
  6
Continuous
 62
    16
100
AcDbLine
 10
22.60625591768789
 20
11.8728986012583
 30
0.0
 11
22.50444551996029
 21
11.87949976921246
 31
0.0
  0
LINE
  5
188
330
74
100
AcDbEntity
  8
0
  6
Continuous
 62
    16
100
AcDbLine
 10
22.50444551996029
 20
11.87949976921246
 30
0.0
 11
22.40237941424024
 21
11.88143434416989
 31
0.0
  0
LINE
  5
189
330
74
100
AcDbEntity
  8
0
  6
Continuous
 62
    16
100
AcDbLine
 10
22.40237941424024
 20
11.88143434416989
 30
0.0
 11
22.30033735662832
 21
11.87869702359504
 31
0.0
  0
LINE
  5
18A
330
74
100
AcDbEntity
  8
0
  6
Continuous
 62
    16
100
AcDbLine
 10
22.30033735662832
 20
11.87869702359504
 30
0.0
 11
22.19859903731171
 21
11.87129531029396
 31
0.0
  0
LINE
  5
18B
330
74
100
AcDbEntity
  8
0
  6
Continuous
 62
    16
100
AcDbLine
 10
22.19859903731171
 20
11.87129531029396
 30
0.0
 11
22.09744331395254
 21
11.85924949184837
 31
0.0
  0
LINE
  5
18C
330
74
100
AcDbEntity
  8
0
  6
Continuous
 62
    16
100
AcDbLine
 10
22.09744331395254
 20
11.85924949184837
 30
0.0
 11
21.99714744735624
 21
11.8425925850087
 31
0.0
  0
LINE
  5
18D
330
74
100
AcDbEntity
  8
0
  6
Continuous
 62
    16
100
AcDbLine
 10
21.99714744735624
 20
11.8425925850087
 30
0.0
 11
21.89798634152234
 21
11.82137024519935
 31
0.0
  0
LINE
  5
18E
330
74
100
AcDbEntity
  8
0
  6
Continuous
 62
    16
100
AcDbLine
 10
21.89798634152234
 20
11.82137024519935
 30
0.0
 11
21.80023179014947
 21
11.79564064137813
 31
0.0
  0
LINE
  5
18F
330
74
100
AcDbEntity
  8
0
  6
Continuous
 62
    16
100
AcDbLine
 10
21.80023179014947
 20
11.79564064137813
 30
0.0
 11
21.70415173166734
 21
11.76547429660096
 31
0.0
  0
LINE
  5
190
330
74
100
AcDbEntity
  8
0
  6
Continuous
 62
    16
100
AcDbLine
 10
21.70415173166734
 20
11.76547429660096
 30
0.0
 11
21.61000951483888
 21
11.73095389472192
 31
0.0
  0
LINE
  5
191
330
74
100
AcDbEntity
  8
0
  6
Continuous
 62
    16
100
AcDbLine
 10
21.61000951483888
 20
11.73095389472192
 30
0.0
 11
21.51806317693567
 21
11.69217405376313
 31
0.0
  0
LINE
  5
192
330
74
100
AcDbEntity
  8
0
  6
Continuous
 62
    16
100
AcDbLine
 10
21.51806317693567
 20
11.69217405376313
 30
0.0
 11
21.42856473647939
 21
11.64924106657318
 31
0.0
  0
LINE
  5
193
330
74
100
AcDbEntity
  8
0
  6
Continuous
 62
    16
100
AcDbLine
 10
21.42856473647939
 20
11.64924106657318
 30
0.0
 11
21.34175950247422
 21
11.6022726094856
 31
0.0
  0
LINE
  5
194
330
74
100
AcDbEntity
  8
0
  6
Continuous
 62
    16
100
AcDbLine
 10
21.34175950247422
 20
11.6022726094856
 30
0.0
 11
21.25788540203243
 21
11.55139741977692
 31
0.0
  0
LINE
  5
195
330
74
100
AcDbEntity
  8
0
  6
Continuous
 62
    16
100
AcDbLine
 10
21.25788540203243
 20
11.55139741977692
 30
0.0
 11
21.17717232823392
 21
11.4967549428051
 31
0.0
  0
LINE
  5
196
330
74
100
AcDbEntity
  8
0
  6
Continuous
 62
    16
100
AcDbLine
 10
21.17717232823392
 20
11.4967549428051
 30
0.0
 11
21.09984151000376
 21
11.43849494980205
 31
0.0
  0
LINE
  5
197
330
74
100
AcDbEntity
  8
0
  6
Continuous
 62
    16
100
AcDbLine
 10
21.09984151000376
 20
11.43849494980205
 30
0.0
 11
21.02610490573883
 21
11.37677712735822
 31
0.0
  0
LINE
  5
198
330
74
100
AcDbEntity
  8
0
  6
Continuous
 62
    16
100
AcDbLine
 10
21.02610490573883
 20
11.37677712735822
 30
0.0
 11
20.95616462234634
 21
11.31177063973601
 31
0.0
  0
LINE
  5
199
330
74
100
AcDbEntity
  8
0
  6
Continuous
 62
    16
100
AcDbLine
 10
20.95616462234634
 20
11.31177063973601
 30
0.0
 11
20.89021236128187
 21
11.24365366519842
 31
0.0
  0
LINE
  5
19A
330
74
100
AcDbEntity
  8
0
  6
Continuous
 62
    16
100
AcDbLine
 10
20.89021236128187
 20
11.24365366519842
 30
0.0
 11
20.82842889310845
 21
11.17261290763864
 31
0.0
  0
LINE
  5
19B
330
74
100
AcDbEntity
  8
0
  6
Continuous
 62
    16
100
AcDbLine
 10
20.82842889310845
 20
11.17261290763864
 30
0.0
 11
20.77098356201745
 21
11.09884308483507
 31
0.0
  0
LINE
  5
19C
330
74
100
AcDbEntity
  8
0
  6
Continuous
 62
    16
100
AcDbLine
 10
20.77098356201745
 20
11.09884308483507
 30
0.0
 11
20.71803382166931
 21
11.02254639474396
 31
0.0
  0
LINE
  5
19D
330
74
100
AcDbEntity
  8
0
  6
Continuous
 62
    16
100
AcDbLine
 10
20.71803382166931
 20
11.02254639474396
 30
0.0
 11
20.66972480362105
 21
10.94393196128968
 31
0.0
  0
LINE
  5
19E
330
74
100
AcDbEntity
  8
0
  6
Continuous
 62
    16
100
AcDbLine
 10
20.66972480362105
 20
10.94393196128968
 30
0.0
 11
20.62618891953375
 21
10.86321526116981
 31
0.0
  0
LINE
  5
19F
330
74
100
AcDbEntity
  8
0
  6
Continuous
 62
    16
100
AcDbLine
 10
20.62618891953375
 20
10.86321526116981
 30
0.0
 11
20.58754549823911
 21
10.78061753324928
 31
0.0
  0
LINE
  5
1A0
330
74
100
AcDbEntity
  8
0
  6
Continuous
 62
    16
100
AcDbLine
 10
20.58754549823911
 20
10.78061753324928
 30
0.0
 11
20.55390045866929
 21
10.69636517215841
 31
0.0
  0
LINE
  5
1A1
330
74
100
AcDbEntity
  8
0
  6
Continuous
 62
    16
100
AcDbLine
 10
20.55390045866929
 20
10.69636517215841
 30
0.0
 11
20.52534601953889
 21
10.61068910776331
 31
0.0
  0
LINE
  5
1A2
330
74
100
AcDbEntity
  8
0
  6
Continuous
 62
    16
100
AcDbLine
 10
20.52534601953889
 20
10.61068910776331
 30
0.0
 11
20.50196044658045
 21
10.52382417220079
 31
0.0
  0
LINE
  5
1A3
330
74
100
AcDbEntity
  8
0
  6
Continuous
 62
    16
100
AcDbLine
 10
20.50196044658045
 20
10.52382417220079
 30
0.0
 11
20.48380783802426
 21
10.43600845622123
 31
0.0
  0
LINE
  5
1A4
330
74
100
AcDbEntity
  8
0
  6
Continuous
 62
    16
100
AcDbLine
 10
20.48380783802426
 20
10.43600845622123
 30
0.0
 11
20.47093794890893
 21
10.34748265659837
 31
0.0
  0
LINE
  5
1A5
330
74
100
AcDbEntity
  8
0
  6
Continuous
 62
    16
100
AcDbLine
 10
20.47093794890893
 20
10.34748265659837
 30
0.0
 11
20.46338605470541
 21
10.25848941639597
 31
0.0
  0
LINE
  5
1A6
330
74
100
AcDbEntity
  8
0
  6
Continuous
 62
    16
100
AcDbLine
 10
20.46338605470541
 20
10.25848941639597
 30
0.0
 11
20.46117285463092
 21
10.16927265989844
 31
0.0
  0
LINE
  5
1A7
330
74
100
AcDbEntity
  8
0
  6
Continuous
 62
    16
100
AcDbLine
 10
20.46117285463092
 20
10.16927265989844
 30
0.0
 11
20.46430441491279
 21
10.08007692403535
 31
0.0
  0
LINE
  5
1A8
330
74
100
AcDbEntity
  8
0
  6
Continuous
 62
    16
100
AcDbLine
 10
20.46430441491279
 20
10.08007692403535
 30
0.0
 11
20.47277215216249
 21
9.991146688117539
 31
0.0
  0
LINE
  5
1A9
330
74
100
AcDbEntity
  8
0
  6
Continuous
 62
    16
100
AcDbLine
 10
20.47277215216249
 20
9.991146688117539
 30
0.0
 11
20.4865528569006
 21
9.902725703740913
 31
0.0
  0
LINE
  5
1AA
330
74
100
AcDbEntity
  8
0
  6
Continuous
 62
    16
100
AcDbLine
 10
20.4865528569006
 20
9.902725703740913
 30
0.0
 11
20.50560875717323
 21
9.815056326677592
 31
0.0
  0
LINE
  5
1AB
330
74
100
AcDbEntity
  8
0
  6
Continuous
 62
    16
100
AcDbLine
 10
20.50560875717323
 20
9.815056326677592
 30
0.0
 11
20.52988762208255
 21
9.728378852595966
 31
0.0
  0
LINE
  5
1AC
330
74
100
AcDbEntity
  8
0
  6
Continuous
 62
    16
100
AcDbLine
 10
20.52988762208255
 20
9.728378852595966
 30
0.0
 11
20.55932290494715
 21
9.642930858427832
 31
0.0
  0
LINE
  5
1AD
330
74
100
AcDbEntity
  8
0
  6
Continuous
 62
    16
100
AcDbLine
 10
20.55932290494715
 20
9.642930858427832
 30
0.0
 11
20.59383392570257
 21
9.558946551186096
 31
0.0
  0
LINE
  5
1AE
330
74
100
AcDbEntity
  8
0
  6
Continuous
 62
    16
100
AcDbLine
 10
20.59383392570257
 20
9.558946551186096
 30
0.0
 11
20.63332609203994
 21
9.476656126018412
 31
0.0
  0
LINE
  5
1AF
330
74
100
AcDbEntity
  8
0
  6
Continuous
 62
    16
100
AcDbLine
 10
20.63332609203994
 20
9.476656126018412
 30
0.0
 11
20.67769115867699
 21
9.396285135260683
 31
0.0
  0
LINE
  5
1B0
330
74
100
AcDbEntity
  8
0
  6
Continuous
 62
    16
100
AcDbLine
 10
20.67769115867699
 20
9.396285135260683
 30
0.0
 11
20.72680752404889
 21
9.31805387021214
 31
0.0
  0
LINE
  5
1B1
330
74
100
AcDbEntity
  8
0
  6
Continuous
 62
    16
100
AcDbLine
 10
20.72680752404889
 20
9.31805387021214
 30
0.0
 11
20.78054056361256
 21
9.242176757332714
 31
0.0
  0
LINE
  5
1B2
330
74
100
AcDbEntity
  8
0
  6
Continuous
 62
    16
100
AcDbLine
 10
20.78054056361256
 20
9.242176757332714
 30
0.0
 11
20.83874299884141
 21
9.168861770513928
 31
0.0
  0
LINE
  5
1B3
330
74
100
AcDbEntity
  8
0
  6
Continuous
 62
    16
100
AcDbLine
 10
20.83874299884141
 20
9.168861770513928
 30
0.0
 11
20.9012553009064
 21
9.098309861038985
 31
0.0
  0
LINE
  5
1B4
330
74
100
AcDbEntity
  8
0
  6
Continuous
 62
    16
100
AcDbLine
 10
20.9012553009064
 20
9.098309861038985
 30
0.0
 11
20.96790612793288
 21
9.030714406788235
 31
0.0
  0
LINE
  5
1B5
330
74
100
AcDbEntity
  8
0
  6
Continuous
 62
    16
100
AcDbLine
 10
20.96790612793288
 20
9.030714406788235
 30
0.0
 11
21.03851279463592
 21
8.966260682202488
 31
0.0
  0
LINE
  5
1B6
330
74
100
AcDbEntity
  8
0
  6
Continuous
 62
    16
100
AcDbLine
 10
21.03851279463592
 20
8.966260682202488
 30
0.0
 11
21.11288177305082
 21
8.905125350460736
 31
0.0
  0
LINE
  5
1B7
330
74
100
AcDbEntity
  8
0
  6
Continuous
 62
    16
100
AcDbLine
 10
21.11288177305082
 20
8.905125350460736
 30
0.0
 11
21.19080922297675
 21
8.847475979258803
 31
0.0
  0
LINE
  5
1B8
330
74
100
AcDbEntity
  8
0
  6
Continuous
 62
    16
100
AcDbLine
 10
21.19080922297675
 20
8.847475979258803
 30
0.0
 11
21.27208155068988
 21
8.793470581514526
 31
0.0
  0
LINE
  5
1B9
330
74
100
AcDbEntity
  8
0
  6
Continuous
 62
    16
100
AcDbLine
 10
21.27208155068988
 20
8.793470581514526
 30
0.0
 11
21.35647599438911
 21
8.743257182270469
 31
0.0
  0
LINE
  5
1BA
330
74
100
AcDbEntity
  8
0
  6
Continuous
 62
    16
100
AcDbLine
 10
21.35647599438911
 20
8.743257182270469
 30
0.0
 11
21.4437612347709
 21
8.696973412963331
 31
0.0
  0
LINE
  5
1BB
330
74
100
AcDbEntity
  8
0
  6
Continuous
 62
    16
100
AcDbLine
 10
21.4437612347709
 20
8.696973412963331
 30
0.0
 11
21.5336980290584
 21
8.654746134187377
 31
0.0
  0
LINE
  5
1BC
330
74
100
AcDbEntity
  8
0
  6
Continuous
 62
    16
100
AcDbLine
 10
21.5336980290584
 20
8.654746134187377
 30
0.0
 11
21.62603986674989
 21
8.616691087979149
 31
0.0
  0
LINE
  5
1BD
330
74
100
AcDbEntity
  8
0
  6
Continuous
 62
    16
100
AcDbLine
 10
21.62603986674989
 20
8.616691087979149
 30
0.0
 11
21.72053364528605
 21
8.582912580574344
 31
0.0
  0
LINE
  5
1BE
330
74
100
AcDbEntity
  8
0
  6
Continuous
 62
    16
100
AcDbLine
 10
21.72053364528605
 20
8.582912580574344
 30
0.0
 11
21.81692036378931
 21
8.553503196514072
 31
0.0
  0
LINE
  5
1BF
330
74
100
AcDbEntity
  8
0
  6
Continuous
 62
    16
100
AcDbLine
 10
21.81692036378931
 20
8.553503196514072
 30
0.0
 11
21.91493583296355
 21
8.528543544875816
 31
0.0
  0
LINE
  5
1C0
330
74
100
AcDbEntity
  8
0
  6
Continuous
 62
    16
100
AcDbLine
 10
21.91493583296355
 20
8.528543544875816
 30
0.0
 11
22.01431139922019
 21
8.50810203833035
 31
0.0
  0
LINE
  5
1C1
330
74
100
AcDbEntity
  8
0
  6
Continuous
 62
    16
100
AcDbLine
 10
22.01431139922019
 20
8.50810203833035
 30
0.0
 11
22.11477468104053
 21
8.492234705625748
 31
0.0
  0
LINE
  5
1C2
330
74
100
AcDbEntity
  8
0
  6
Continuous
 62
    16
100
AcDbLine
 10
22.11477468104053
 20
8.492234705625748
 30
0.0
 11
22.21605031555177
 21
8.480985038017849
 31
0.0
  0
LINE
  5
1C3
330
74
100
AcDbEntity
  8
0
  6
Continuous
 62
    16
100
AcDbLine
 10
22.21605031555177
 20
8.480985038017849
 30
0.0
 11
22.31786071327892
 21
8.474383870064145
 31
0.0
  0
LINE
  5
1C4
330
74
100
AcDbEntity
  8
0
  6
Continuous
 62
    16
100
AcDbLine
 10
22.31786071327892
 20
8.474383870064145
 30
0.0
 11
22.41115311661983
 21
8.472432041961753
 31
0.0
  0
ARC
  5
1C5
330
74
100
AcDbEntity
  8
0
  6
Continuous
 62
    16
100
AcDbCircle
 10
18.70007023643379
 20
11.39629929253525
 30
0.0
 40
2.925000000000001
100
AcDbArc
 50
262.9150790809728
 51
301.013264262784
  0
ARC
  5
1C6
330
74
100
AcDbEntity
  8
0
  6
Continuous
 62
    16
100
AcDbCircle
 10
18.70007023643379
 20
11.39629929253525
 30
0.0
 40
2.925000000000001
100
AcDbArc
 50
262.9150790809728
 51
301.013264262784
  0
ARC
  5
1C7
330
74
100
AcDbEntity
  8
0
  6
Continuous
 62
    16
100
AcDbCircle
 10
19.41356627923219
 20
13.84215296894209
 30
0.0
 40
4.875
100
AcDbArc
 50
266.343705491231
 51
278.787123097336
  0
ARC
  5
1C8
330
74
100
AcDbEntity
  8
0
  6
Continuous
 62
    16
100
AcDbCircle
 10
19.41356627923219
 20
13.84215296894209
 30
0.0
 40
4.875
100
AcDbArc
 50
266.343705491231
 51
278.787123097336
  0
ARC
  5
1C9
330
74
100
AcDbEntity
  8
0
  6
Continuous
 62
    16
100
AcDbCircle
 10
19.12133532893799
 20
9.268980402583935
 30
0.0
 40
0.2925
100
AcDbArc
 50
180.0000000000001
 51
266.3437054912312
  0
ARC
  5
1CA
330
74
100
AcDbEntity
  8
0
  6
Continuous
 62
    16
100
AcDbCircle
 10
19.12133532893799
 20
9.268980402583935
 30
0.0
 40
0.2925
100
AcDbArc
 50
180.0000000000001
 51
266.3437054912312
  0
ARC
  5
1CB
330
74
100
AcDbEntity
  8
0
  6
Continuous
 62
    16
100
AcDbCircle
 10
18.41446032893813
 20
9.098355402583735
 30
0.0
 40
0.609375
100
AcDbArc
 50
180.0
 51
262.9150790809728
  0
ARC
  5
1CC
330
74
100
AcDbEntity
  8
0
  6
Continuous
 62
    16
100
AcDbCircle
 10
18.41446032893813
 20
9.098355402583735
 30
0.0
 40
0.609375
100
AcDbArc
 50
180.0
 51
262.9150790809728
  0
ARC
  5
1CD
330
74
100
AcDbEntity
  8
0
  6
Continuous
 62
    16
100
AcDbCircle
 10
20.16946032893824
 20
8.952105402583953
 30
0.0
 40
0.073125
100
AcDbArc
 50
293.3272787520449
 51
98.78712309733687
  0
ARC
  5
1CE
330
74
100
AcDbEntity
  8
0
  6
Continuous
 62
    16
100
AcDbCircle
 10
20.16946032893824
 20
8.952105402583953
 30
0.0
 40
0.073125
100
AcDbArc
 50
293.3272787520449
 51
98.78712309733687
  0
LINE
  5
1CF
330
74
100
AcDbEntity
  8
0
  6
Continuous
 62
    16
100
AcDbLine
 10
19.96672135826506
 20
12.10025238593508
 30
0.0
 11
19.78829130020708
 21
11.88319181963826
 31
0.0
  0
LINE
  5
1D0
330
74
100
AcDbEntity
  8
0
  6
Continuous
 62
    16
100
AcDbLine
 10
19.8282103289383
 20
11.39569181963807
 30
0.0
 11
20.09071032893766
 21
12.02569181963818
 31
0.0
  0
ARC
  5
1D1
330
74
100
AcDbEntity
  8
0
  6
Continuous
 62
    16
100
AcDbCircle
 10
20.02321032893801
 20
12.053816819638
 30
0.0
 40
0.073125
100
AcDbArc
 50
337.3801350519598
 51
140.5788072314997
  0
ARC
  5
1D2
330
74
100
AcDbEntity
  8
0
  6
Continuous
 62
    16
100
AcDbCircle
 10
20.02321032893801
 20
12.053816819638
 30
0.0
 40
0.073125
100
AcDbArc
 50
337.3801350519598
 51
140.5788072314997
  0
LINE
  5
1D3
330
74
100
AcDbEntity
  8
0
  6
Continuous
 62
    16
100
AcDbLine
 10
18.82883532893797
 20
11.88319181963826
 30
0.0
 11
18.82883532893797
 21
12.73631681963835
 31
0.0
  0
LINE
  5
1D4
330
74
100
AcDbEntity
  8
0
  6
Continuous
 62
    16
100
AcDbLine
 10
18.82883532893797
 20
11.39569181963807
 30
0.0
 11
19.8282103289383
 21
11.39569181963807
 31
0.0
  0
ARC
  5
1D5
330
74
100
AcDbEntity
  8
0
  6
Continuous
 62
    16
100
AcDbCircle
 10
11.36954426601127
 20
19.34057616759893
 30
0.0
 40
9.75
100
AcDbArc
 50
307.5845394141336
 51
318.0102642623348
  0
ARC
  5
1D6
330
74
100
AcDbEntity
  8
0
  6
Continuous
 62
    16
100
AcDbCircle
 10
11.36954426601127
 20
19.34057616759893
 30
0.0
 40
9.75
100
AcDbArc
 50
307.5845394141336
 51
318.0102642623348
  0
ARC
  5
1D7
330
74
100
AcDbEntity
  8
0
  6
Continuous
 62
    16
100
AcDbCircle
 10
18.70696032893815
 20
12.73631681963835
 30
0.0
 40
0.121875
100
AcDbArc
 50
0.0
 51
138.0102642623347
  0
ARC
  5
1D8
330
74
100
AcDbEntity
  8
0
  6
Continuous
 62
    16
100
AcDbCircle
 10
18.70696032893815
 20
12.73631681963835
 30
0.0
 40
0.121875
100
AcDbArc
 50
0.0
 51
138.0102642623347
  0
ARC
  5
1D9
330
74
100
AcDbEntity
  8
0
  6
Continuous
 62
    16
100
AcDbCircle
 10
17.3907103289383
 20
11.51756681963835
 30
0.0
 40
0.121875
100
AcDbArc
 50
127.5845394141342
 51
270.0
  0
ARC
  5
1DA
330
74
100
AcDbEntity
  8
0
  6
Continuous
 62
    16
100
AcDbCircle
 10
17.3907103289383
 20
11.51756681963835
 30
0.0
 40
0.121875
100
AcDbArc
 50
127.5845394141342
 51
270.0
  0
LINE
  5
1DB
330
74
100
AcDbEntity
  8
0
  6
Continuous
 62
    16
100
AcDbLine
 10
17.3907103289383
 20
11.39569181963807
 30
0.0
 11
17.80508532893813
 21
11.39569181963807
 31
0.0
  0
LINE
  5
1DC
330
74
100
AcDbEntity
  8
0
  6
Continuous
 62
    16
100
AcDbLine
 10
18.82883532893797
 20
9.268980402583935
 30
0.0
 11
18.82883532893797
 21
11.39569181963807
 31
0.0
  0
LINE
  5
1DD
330
74
100
AcDbEntity
  8
0
  6
Continuous
 62
    16
100
AcDbLine
 10
17.80508532893813
 20
9.098355402583735
 30
0.0
 11
17.80508532893813
 21
11.39569181963807
 31
0.0
  0
LINE
  5
1DE
330
74
100
AcDbEntity
  8
0
  6
Continuous
 62
    16
100
AcDbLine
 10
18.82883532893797
 20
11.88319181963826
 30
0.0
 11
19.78829130020708
 21
11.88319181963826
 31
0.0
  0
ARC
  5
1DF
330
74
100
AcDbEntity
  8
0
  6
Continuous
 62
    16
100
AcDbCircle
 10
14.86129181905321
 20
14.26173980630338
 30
0.0
 40
1.962906515032175
100
AcDbArc
 50
304.4189155261381
 51
325.764303502095
  0
ARC
  5
1E0
330
74
100
AcDbEntity
  8
0
  6
Continuous
 62
    16
100
AcDbCircle
 10
14.86129181905321
 20
14.26173980630338
 30
0.0
 40
1.962906515032175
100
AcDbArc
 50
304.4189155261381
 51
325.764303502095
  0
ARC
  5
1E1
330
74
100
AcDbEntity
  8
0
  6
Continuous
 62
    16
100
AcDbCircle
 10
14.86129181905321
 20
12.17922760465981
 30
0.0
 40
1.962906515032175
100
AcDbArc
 50
34.23569649790501
 51
55.58108447386191
  0
ARC
  5
1E2
330
74
100
AcDbEntity
  8
0
  6
Continuous
 62
    16
100
AcDbCircle
 10
14.86129181905321
 20
12.17922760465981
 30
0.0
 40
1.962906515032175
100
AcDbArc
 50
34.23569649790501
 51
55.58108447386191
  0
ARC
  5
1E3
330
74
100
AcDbEntity
  8
0
  6
Continuous
 62
    16
100
AcDbCircle
 10
16.9402129561748
 20
12.17922760465981
 30
0.0
 40
1.962906515032175
100
AcDbArc
 50
124.4189155261381
 51
145.764303502095
  0
ARC
  5
1E4
330
74
100
AcDbEntity
  8
0
  6
Continuous
 62
    16
100
AcDbCircle
 10
16.9402129561748
 20
12.17922760465981
 30
0.0
 40
1.962906515032175
100
AcDbArc
 50
124.4189155261381
 51
145.764303502095
  0
ARC
  5
1E5
330
74
100
AcDbEntity
  8
0
  6
Continuous
 62
    16
100
AcDbCircle
 10
16.9402129561748
 20
14.26173980630338
 30
0.0
 40
1.962906515032175
100
AcDbArc
 50
214.235696497905
 51
235.5810844738619
  0
ARC
  5
1E6
330
74
100
AcDbEntity
  8
0
  6
Continuous
 62
    16
100
AcDbCircle
 10
16.9402129561748
 20
14.26173980630338
 30
0.0
 40
1.962906515032175
100
AcDbArc
 50
214.235696497905
 51
235.5810844738619
  0
ARC
  5
1E7
330
74
100
AcDbEntity
  8
0
  6
Continuous
 62
    16
100
AcDbCircle
 10
15.90075238761378
 20
12.72688995548188
 30
0.0
 40
0.1096875
100
AcDbArc
 50
230.309072059704
 51
309.690927940296
  0
ARC
  5
1E8
330
74
100
AcDbEntity
  8
0
  6
Continuous
 62
    16
100
AcDbCircle
 10
15.90075238761378
 20
12.72688995548188
 30
0.0
 40
0.1096875
100
AcDbArc
 50
230.309072059704
 51
309.690927940296
  0
ARC
  5
1E9
330
74
100
AcDbEntity
  8
0
  6
Continuous
 62
    16
100
AcDbCircle
 10
15.40715863761383
 20
13.22048370548183
 30
0.0
 40
0.1096875
100
AcDbArc
 50
144.8991158941796
 51
215.1008841058204
  0
ARC
  5
1EA
330
74
100
AcDbEntity
  8
0
  6
Continuous
 62
    16
100
AcDbCircle
 10
15.40715863761383
 20
13.22048370548183
 30
0.0
 40
0.1096875
100
AcDbArc
 50
144.8991158941796
 51
215.1008841058204
  0
ARC
  5
1EB
330
74
100
AcDbEntity
  8
0
  6
Continuous
 62
    16
100
AcDbCircle
 10
15.90075238761378
 20
13.71407745548177
 30
0.0
 40
0.1096875
100
AcDbArc
 50
50.30907205969739
 51
129.6909279403026
  0
ARC
  5
1EC
330
74
100
AcDbEntity
  8
0
  6
Continuous
 62
    16
100
AcDbCircle
 10
15.90075238761378
 20
13.71407745548177
 30
0.0
 40
0.1096875
100
AcDbArc
 50
50.30907205969739
 51
129.6909279403026
  0
ARC
  5
1ED
330
74
100
AcDbEntity
  8
0
  6
Continuous
 62
    16
100
AcDbCircle
 10
16.39434613761418
 20
13.22048370548183
 30
0.0
 40
0.1096875
100
AcDbArc
 50
324.8991158943591
 51
35.10088410564087
  0
ARC
  5
1EE
330
74
100
AcDbEntity
  8
0
  6
Continuous
 62
    16
100
AcDbCircle
 10
16.39434613761418
 20
13.22048370548183
 30
0.0
 40
0.1096875
100
AcDbArc
 50
324.8991158943591
 51
35.10088410564087
  0
ARC
  5
1EF
330
74
100
AcDbEntity
  8
0
  6
Continuous
 62
    16
100
AcDbCircle
 10
16.54699533655852
 20
8.894240792703755
 30
0.0
 40
0.121875
100
AcDbArc
 50
180.0
 51
263.2885414092329
  0
ARC
  5
1F0
330
74
100
AcDbEntity
  8
0
  6
Continuous
 62
    16
100
AcDbCircle
 10
16.54699533655852
 20
8.894240792703755
 30
0.0
 40
0.121875
100
AcDbArc
 50
180.0
 51
263.2885414092329
  0
LINE
  5
1F1
330
74
100
AcDbEntity
  8
0
  6
Continuous
 62
    16
100
AcDbLine
 10
17.03918006754597
 20
8.713606646421255
 30
0.0
 11
16.53275188341817
 21
8.773200965920665
 31
0.0
  0
ARC
  5
1F2
330
74
100
AcDbEntity
  8
0
  6
Continuous
 62
    16
100
AcDbCircle
 10
17.02493661440562
 20
8.592566819638165
 30
0.0
 40
0.121875
100
AcDbArc
 50
270.0
 51
83.28854140923303
  0
ARC
  5
1F3
330
74
100
AcDbEntity
  8
0
  6
Continuous
 62
    16
100
AcDbCircle
 10
17.02493661440562
 20
8.592566819638165
 30
0.0
 40
0.121875
100
AcDbArc
 50
270.0
 51
83.28854140923303
  0
ARC
  5
1F4
330
74
100
AcDbEntity
  8
0
  6
Continuous
 62
    16
100
AcDbCircle
 10
15.2794953365586
 20
8.889628929448833
 30
0.0
 40
0.121875
100
AcDbArc
 50
276.7114585907671
 51
0.0
  0
ARC
  5
1F5
330
74
100
AcDbEntity
  8
0
  6
Continuous
 62
    16
100
AcDbCircle
 10
15.2794953365586
 20
8.889628929448833
 30
0.0
 40
0.121875
100
AcDbArc
 50
276.7114585907671
 51
0.0
  0
LINE
  5
1F6
330
74
100
AcDbEntity
  8
0
  6
Continuous
 62
    16
100
AcDbLine
 10
14.82650188341844
 20
8.713606646421255
 30
0.0
 11
15.29373878969849
 21
8.768589102665743
 31
0.0
  0
ARC
  5
1F7
330
74
100
AcDbEntity
  8
0
  6
Continuous
 62
    16
100
AcDbCircle
 10
14.8407453365588
 20
8.592566819638165
 30
0.0
 40
0.121875
100
AcDbArc
 50
96.71145859076694
 51
270.0
  0
ARC
  5
1F8
330
74
100
AcDbEntity
  8
0
  6
Continuous
 62
    16
100
AcDbCircle
 10
14.8407453365588
 20
8.592566819638165
 30
0.0
 40
0.121875
100
AcDbArc
 50
96.71145859076694
 51
270.0
  0
LINE
  5
1F9
330
74
100
AcDbEntity
  8
0
  6
Continuous
 62
    16
100
AcDbLine
 10
15.2794953365586
 20
11.22308308262282
 30
0.0
 11
14.8334963643691
 21
11.24965759053012
 31
0.0
  0
ARC
  5
1FA
330
74
100
AcDbEntity
  8
0
  6
Continuous
 62
    16
100
AcDbCircle
 10
15.2794953365586
 20
11.10120808262255
 30
0.0
 40
0.121875
100
AcDbArc
 50
0.0
 51
90.0
  0
ARC
  5
1FB
330
74
100
AcDbEntity
  8
0
  6
Continuous
 62
    16
100
AcDbCircle
 10
15.2794953365586
 20
11.10120808262255
 30
0.0
 40
0.121875
100
AcDbArc
 50
0.0
 51
90.0
  0
ARC
  5
1FC
330
74
100
AcDbEntity
  8
0
  6
Continuous
 62
    16
100
AcDbCircle
 10
13.0358674754269
 20
21.07679629888199
 30
0.0
 40
9.75
100
AcDbArc
 50
280.5346603333461
 51
289.3281740229292
  0
ARC
  5
1FD
330
74
100
AcDbEntity
  8
0
  6
Continuous
 62
    16
100
AcDbCircle
 10
13.0358674754269
 20
21.07679629888199
 30
0.0
 40
9.75
100
AcDbArc
 50
280.5346603333461
 51
289.3281740229292
  0
ARC
  5
1FE
330
74
100
AcDbEntity
  8
0
  6
Continuous
 62
    16
100
AcDbCircle
 10
16.30324533655843
 20
11.76131681963798
 30
0.0
 40
0.121875
100
AcDbArc
 50
0.0
 51
109.3281740229283
  0
ARC
  5
1FF
330
74
100
AcDbEntity
  8
0
  6
Continuous
 62
    16
100
AcDbCircle
 10
16.30324533655843
 20
11.76131681963798
 30
0.0
 40
0.121875
100
AcDbArc
 50
0.0
 51
109.3281740229283
  0
ARC
  5
200
330
74
100
AcDbEntity
  8
0
  6
Continuous
 62
    16
100
AcDbCircle
 10
14.8407453365588
 20
11.37131681963811
 30
0.0
 40
0.121875
100
AcDbArc
 50
100.534660333345
 51
266.5901063125458
  0
ARC
  5
201
330
74
100
AcDbEntity
  8
0
  6
Continuous
 62
    16
100
AcDbCircle
 10
14.8407453365588
 20
11.37131681963811
 30
0.0
 40
0.121875
100
AcDbArc
 50
100.534660333345
 51
266.5901063125458
  0
LINE
  5
202
330
74
100
AcDbEntity
  8
0
  6
Continuous
 62
    16
100
AcDbLine
 10
16.42512033655871
 20
8.894240792703755
 30
0.0
 11
16.42512033655871
 21
11.76131681963798
 31
0.0
  0
LINE
  5
203
330
74
100
AcDbEntity
  8
0
  6
Continuous
 62
    16
100
AcDbLine
 10
15.40137033655841
 20
8.889628929448833
 30
0.0
 11
15.40137033655841
 21
11.10120808262255
 31
0.0
  0
LINE
  5
204
330
74
100
AcDbEntity
  8
0
  6
Continuous
 62
    16
100
AcDbLine
 10
11.87887635205684
 20
8.470691819638347
 30
0.0
 11
14.07262635205674
 21
8.470691819638347
 31
0.0
  0
LINE
  5
205
330
74
100
AcDbEntity
  8
0
  6
Continuous
 62
    16
100
AcDbLine
 10
12.61012635205665
 20
11.88319181963826
 30
0.0
 11
14.07262635205674
 21
11.88319181963826
 31
0.0
  0
ARC
  5
206
330
74
100
AcDbEntity
  8
0
  6
Continuous
 62
    16
100
AcDbCircle
 10
12.83216476453694
 20
11.50272106909225
 30
0.0
 40
0.121875
100
AcDbArc
 50
308.233797137863
 51
86.30526971831486
  0
ARC
  5
207
330
74
100
AcDbEntity
  8
0
  6
Continuous
 62
    16
100
AcDbCircle
 10
12.83216476453694
 20
11.50272106909225
 30
0.0
 40
0.121875
100
AcDbArc
 50
308.233797137863
 51
86.30526971831486
  0
LINE
  5
208
330
74
100
AcDbEntity
  8
0
  6
Continuous
 62
    16
100
AcDbLine
 10
12.6022726629802
 20
11.63969513081193
 30
0.0
 11
12.84001845361294
 21
11.6243427579183
 31
0.0
  0
ARC
  5
209
330
74
100
AcDbEntity
  8
0
  6
Continuous
 62
    16
100
AcDbCircle
 10
12.61012635205665
 20
11.76131681963798
 30
0.0
 40
0.121875
100
AcDbArc
 50
90.0
 51
266.3052697183143
  0
ARC
  5
20A
330
74
100
AcDbEntity
  8
0
  6
Continuous
 62
    16
100
AcDbCircle
 10
12.61012635205665
 20
11.76131681963798
 30
0.0
 40
0.121875
100
AcDbArc
 50
90.0
 51
266.3052697183143
  0
ARC
  5
20B
330
74
100
AcDbEntity
  8
0
  6
Continuous
 62
    16
100
AcDbCircle
 10
12.22732211509069
 20
8.873010642697324
 30
0.0
 40
0.121875
100
AcDbArc
 50
275.8069532297311
 51
46.974934010882
  0
ARC
  5
20C
330
74
100
AcDbEntity
  8
0
  6
Continuous
 62
    16
100
AcDbCircle
 10
12.22732211509069
 20
8.873010642697324
 30
0.0
 40
0.121875
100
AcDbArc
 50
275.8069532297311
 51
46.974934010882
  0
LINE
  5
20D
330
74
100
AcDbEntity
  8
0
  6
Continuous
 62
    16
100
AcDbLine
 10
11.86654540129015
 20
8.713816410475289
 30
0.0
 11
12.23965306585737
 21
8.7517610518602
 31
0.0
  0
ARC
  5
20E
330
74
100
AcDbEntity
  8
0
  6
Continuous
 62
    16
100
AcDbCircle
 10
11.87887635205684
 20
8.592566819638165
 30
0.0
 40
0.121875
100
AcDbArc
 50
95.80695322973123
 51
270.0
  0
ARC
  5
20F
330
74
100
AcDbEntity
  8
0
  6
Continuous
 62
    16
100
AcDbCircle
 10
11.87887635205684
 20
8.592566819638165
 30
0.0
 40
0.121875
100
AcDbArc
 50
95.80695322973123
 51
270.0
  0
LINE
  5
210
330
74
100
AcDbEntity
  8
0
  6
Continuous
 62
    16
100
AcDbLine
 10
11.50979595642988
 20
11.64018336927657
 30
0.0
 11
11.13777093019766
 21
11.59895569180199
 31
0.0
  0
ARC
  5
211
330
74
100
AcDbEntity
  8
0
  6
Continuous
 62
    16
100
AcDbCircle
 10
11.49637199172125
 20
11.76131681963798
 30
0.0
 40
0.121875
100
AcDbArc
 50
276.3236945086078
 51
90.0
  0
ARC
  5
212
330
74
100
AcDbEntity
  8
0
  6
Continuous
 62
    16
100
AcDbCircle
 10
11.49637199172125
 20
11.76131681963798
 30
0.0
 40
0.121875
100
AcDbArc
 50
276.3236945086078
 51
90.0
  0
ARC
  5
213
330
74
100
AcDbEntity
  8
0
  6
Continuous
 62
    16
100
AcDbCircle
 10
14.64047502197204
 20
9.265731061003322
 30
0.0
 40
2.4375
100
AcDbArc
 50
102.8188940537166
 51
128.2337971378629
  0
ARC
  5
214
330
74
100
AcDbEntity
  8
0
  6
Continuous
 62
    16
100
AcDbCircle
 10
14.64047502197204
 20
9.265731061003322
 30
0.0
 40
2.4375
100
AcDbArc
 50
102.8188940537166
 51
128.2337971378629
  0
ARC
  5
215
330
74
100
AcDbEntity
  8
0
  6
Continuous
 62
    16
100
AcDbCircle
 10
14.07262635205674
 20
11.76131681963798
 30
0.0
 40
0.121875
100
AcDbArc
 50
282.8188940537166
 51
90.0
  0
ARC
  5
216
330
74
100
AcDbEntity
  8
0
  6
Continuous
 62
    16
100
AcDbCircle
 10
14.07262635205674
 20
11.76131681963798
 30
0.0
 40
0.121875
100
AcDbArc
 50
282.8188940537166
 51
90.0
  0
LINE
  5
217
330
74
100
AcDbEntity
  8
0
  6
Continuous
 62
    16
100
AcDbLine
 10
13.13197490661682
 20
11.1803677502925
 30
0.0
 11
12.13384960173002
 21
10.39396678660924
 31
0.0
  0
LINE
  5
218
330
74
100
AcDbEntity
  8
0
  6
Continuous
 62
    16
100
AcDbLine
 10
12.9075897703045
 20
11.40698923462779
 30
0.0
 11
11.89947420052098
 21
10.61271716107095
 31
0.0
  0
ARC
  5
219
330
74
100
AcDbEntity
  8
0
  6
Continuous
 62
    16
100
AcDbCircle
 10
14.3581701495294
 20
9.651622769694683
 30
0.0
 40
0.9750000000000001
100
AcDbArc
 50
226.9749340108821
 51
254.9106627487853
  0
ARC
  5
21A
330
74
100
AcDbEntity
  8
0
  6
Continuous
 62
    16
100
AcDbCircle
 10
14.3581701495294
 20
9.651622769694683
 30
0.0
 40
0.9750000000000001
100
AcDbArc
 50
226.9749340108821
 51
254.9106627487853
  0
ARC
  5
21B
330
74
100
AcDbEntity
  8
0
  6
Continuous
 62
    16
100
AcDbCircle
 10
14.07262635205674
 20
8.592566819638165
 30
0.0
 40
0.121875
100
AcDbArc
 50
270.0
 51
74.91066274878406
  0
ARC
  5
21C
330
74
100
AcDbEntity
  8
0
  6
Continuous
 62
    16
100
AcDbCircle
 10
14.07262635205674
 20
8.592566819638165
 30
0.0
 40
0.121875
100
AcDbArc
 50
270.0
 51
74.91066274878406
  0
LINE
  5
21D
330
74
100
AcDbEntity
  8
0
  6
Continuous
 62
    16
100
AcDbLine
 10
13.69290985542861
 20
8.93884388315783
 30
0.0
 11
12.13384960173002
 21
10.39396678660924
 31
0.0
  0
LINE
  5
21E
330
74
100
AcDbEntity
  8
0
  6
Continuous
 62
    16
100
AcDbLine
 10
12.31047965185357
 20
8.962108003514828
 30
0.0
 11
11.39773774317868
 21
9.814000451611633
 31
0.0
  0
ARC
  5
21F
330
74
100
AcDbEntity
  8
0
  6
Continuous
 62
    16
100
AcDbCircle
 10
29.5150859187714
 20
11.76131681963798
 30
0.0
 40
0.121875
100
AcDbArc
 50
282.8188940537166
 51
90.0
  0
ARC
  5
220
330
74
100
AcDbEntity
  8
0
  6
Continuous
 62
    16
100
AcDbCircle
 10
29.5150859187714
 20
11.76131681963798
 30
0.0
 40
0.121875
100
AcDbArc
 50
282.8188940537166
 51
90.0
  0
LINE
  5
221
330
74
100
AcDbEntity
  8
0
  6
Continuous
 62
    16
100
AcDbLine
 10
28.04473222969486
 20
11.63969513081193
 30
0.0
 11
28.28247802032806
 21
11.6243427579183
 31
0.0
  0
ARC
  5
222
330
74
100
AcDbEntity
  8
0
  6
Continuous
 62
    16
100
AcDbCircle
 10
28.2746243312516
 20
11.50272106909225
 30
0.0
 40
0.121875
100
AcDbArc
 50
308.233797137863
 51
86.30526971831486
  0
ARC
  5
223
330
74
100
AcDbEntity
  8
0
  6
Continuous
 62
    16
100
AcDbCircle
 10
28.2746243312516
 20
11.50272106909225
 30
0.0
 40
0.121875
100
AcDbArc
 50
308.233797137863
 51
86.30526971831486
  0
LINE
  5
224
330
74
100
AcDbEntity
  8
0
  6
Continuous
 62
    16
100
AcDbLine
 10
28.05258591877131
 20
11.88319181963826
 30
0.0
 11
29.5150859187714
 21
11.88319181963826
 31
0.0
  0
ARC
  5
225
330
74
100
AcDbEntity
  8
0
  6
Continuous
 62
    16
100
AcDbCircle
 10
26.93883155843591
 20
11.76131681963798
 30
0.0
 40
0.121875
100
AcDbArc
 50
276.3236945086078
 51
90.0
  0
ARC
  5
226
330
74
100
AcDbEntity
  8
0
  6
Continuous
 62
    16
100
AcDbCircle
 10
26.93883155843591
 20
11.76131681963798
 30
0.0
 40
0.121875
100
AcDbArc
 50
276.3236945086078
 51
90.0
  0
ARC
  5
227
330
74
100
AcDbEntity
  8
0
  6
Continuous
 62
    16
100
AcDbCircle
 10
26.59365446162096
 20
11.47782224144058
 30
0.0
 40
0.121875
100
AcDbArc
 50
96.32369450860737
 51
226.974934010882
  0
ARC
  5
228
330
74
100
AcDbEntity
  8
0
  6
Continuous
 62
    16
100
AcDbCircle
 10
26.59365446162096
 20
11.47782224144058
 30
0.0
 40
0.121875
100
AcDbArc
 50
96.32369450860737
 51
226.974934010882
  0
LINE
  5
229
330
74
100
AcDbEntity
  8
0
  6
Continuous
 62
    16
100
AcDbLine
 10
26.952255523145
 20
11.64018336927657
 30
0.0
 11
26.58023049691232
 21
11.59895569180199
 31
0.0
  0
ARC
  5
22A
330
74
100
AcDbEntity
  8
0
  6
Continuous
 62
    16
100
AcDbCircle
 10
28.05258591877131
 20
11.76131681963798
 30
0.0
 40
0.121875
100
AcDbArc
 50
90.0
 51
266.3052697183143
  0
ARC
  5
22B
330
74
100
AcDbEntity
  8
0
  6
Continuous
 62
    16
100
AcDbCircle
 10
28.05258591877131
 20
11.76131681963798
 30
0.0
 40
0.121875
100
AcDbArc
 50
90.0
 51
266.3052697183143
  0
LINE
  5
22C
330
74
100
AcDbEntity
  8
0
  6
Continuous
 62
    16
100
AcDbLine
 10
28.57443447333148
 20
11.1803677502925
 30
0.0
 11
27.57630916844468
 21
10.39396678660924
 31
0.0
  0
LINE
  5
22D
330
74
100
AcDbEntity
  8
0
  6
Continuous
 62
    16
100
AcDbLine
 10
27.34193376723564
 20
10.61271716107095
 30
0.0
 11
26.51049692485853
 21
11.38872488062307
 31
0.0
  0
LINE
  5
22E
330
74
100
AcDbEntity
  8
0
  6
Continuous
 62
    16
100
AcDbLine
 10
28.35004933701916
 20
11.40698923462779
 30
0.0
 11
27.34193376723564
 21
10.61271716107095
 31
0.0
  0
ARC
  5
22F
330
74
100
AcDbEntity
  8
0
  6
Continuous
 62
    16
100
AcDbCircle
 10
30.0829345886867
 20
9.265731061003322
 30
0.0
 40
2.4375
100
AcDbArc
 50
102.8188940537166
 51
128.2337971378629
  0
ARC
  5
230
330
74
100
AcDbEntity
  8
0
  6
Continuous
 62
    16
100
AcDbCircle
 10
30.0829345886867
 20
9.265731061003322
 30
0.0
 40
2.4375
100
AcDbArc
 50
102.8188940537166
 51
128.2337971378629
  0
ARC
  5
231
330
74
100
AcDbEntity
  8
0
  6
Continuous
 62
    16
100
AcDbCircle
 10
29.80062971624406
 20
9.651622769694683
 30
0.0
 40
0.9750000000000001
100
AcDbArc
 50
226.9749340108821
 51
254.9106627487853
  0
ARC
  5
232
330
74
100
AcDbEntity
  8
0
  6
Continuous
 62
    16
100
AcDbCircle
 10
29.80062971624406
 20
9.651622769694683
 30
0.0
 40
0.9750000000000001
100
AcDbArc
 50
226.9749340108821
 51
254.9106627487853
  0
ARC
  5
233
330
74
100
AcDbEntity
  8
0
  6
Continuous
 62
    16
100
AcDbCircle
 10
29.5150859187714
 20
8.592566819638165
 30
0.0
 40
0.121875
100
AcDbArc
 50
270.0
 51
74.91066274878406
  0
ARC
  5
234
330
74
100
AcDbEntity
  8
0
  6
Continuous
 62
    16
100
AcDbCircle
 10
29.5150859187714
 20
8.592566819638165
 30
0.0
 40
0.121875
100
AcDbArc
 50
270.0
 51
74.91066274878406
  0
LINE
  5
235
330
74
100
AcDbEntity
  8
0
  6
Continuous
 62
    16
100
AcDbLine
 10
27.30900496800481
 20
8.713816410475289
 30
0.0
 11
27.68211263257248
 21
8.7517610518602
 31
0.0
  0
ARC
  5
236
330
74
100
AcDbEntity
  8
0
  6
Continuous
 62
    16
100
AcDbCircle
 10
27.6697816818058
 20
8.873010642697324
 30
0.0
 40
0.121875
100
AcDbArc
 50
275.8069532297311
 51
46.974934010882
  0
ARC
  5
237
330
74
100
AcDbEntity
  8
0
  6
Continuous
 62
    16
100
AcDbCircle
 10
27.6697816818058
 20
8.873010642697324
 30
0.0
 40
0.121875
100
AcDbArc
 50
275.8069532297311
 51
46.974934010882
  0
LINE
  5
238
330
74
100
AcDbEntity
  8
0
  6
Continuous
 62
    16
100
AcDbLine
 10
26.21948531961138
 20
8.713859095133472
 30
0.0
 11
25.83120370436913
 21
8.75196549224475
 31
0.0
  0
ARC
  5
239
330
74
100
AcDbEntity
  8
0
  6
Continuous
 62
    16
100
AcDbCircle
 10
26.20758155843609
 20
8.592566819638165
 30
0.0
 40
0.121875
100
AcDbArc
 50
270.0
 51
84.3948769589973
  0
ARC
  5
23A
330
74
100
AcDbEntity
  8
0
  6
Continuous
 62
    16
100
AcDbCircle
 10
26.20758155843609
 20
8.592566819638165
 30
0.0
 40
0.121875
100
AcDbArc
 50
270.0
 51
84.3948769589973
  0
ARC
  5
23B
330
74
100
AcDbEntity
  8
0
  6
Continuous
 62
    16
100
AcDbCircle
 10
27.3213359187715
 20
8.592566819638165
 30
0.0
 40
0.121875
100
AcDbArc
 50
95.80695322973123
 51
270.0
  0
ARC
  5
23C
330
74
100
AcDbEntity
  8
0
  6
Continuous
 62
    16
100
AcDbCircle
 10
27.3213359187715
 20
8.592566819638165
 30
0.0
 40
0.121875
100
AcDbArc
 50
95.80695322973123
 51
270.0
  0
LINE
  5
23D
330
74
100
AcDbEntity
  8
0
  6
Continuous
 62
    16
100
AcDbLine
 10
27.3213359187715
 20
8.470691819638347
 30
0.0
 11
29.5150859187714
 21
8.470691819638347
 31
0.0
  0
LINE
  5
23E
330
74
100
AcDbEntity
  8
0
  6
Continuous
 62
    16
100
AcDbLine
 10
27.75293921856868
 20
8.962108003514828
 30
0.0
 11
26.84019730989334
 21
9.814000451611633
 31
0.0
  0
LINE
  5
23F
330
74
100
AcDbEntity
  8
0
  6
Continuous
 62
    16
100
AcDbLine
 10
26.84019730989334
 20
9.814000451611633
 30
0.0
 11
25.76768245977641
 21
8.968989602204516
 31
0.0
  0
LINE
  5
240
330
74
100
AcDbEntity
  8
0
  6
Continuous
 62
    16
100
AcDbLine
 10
29.13536942214327
 20
8.93884388315783
 30
0.0
 11
27.57630916844468
 21
10.39396678660924
 31
0.0
  0
ARC
  5
241
330
74
100
AcDbEntity
  8
0
  6
Continuous
 62
    16
100
AcDbCircle
 10
25.84310746554442
 20
8.873257767740057
 30
0.0
 40
0.121875
100
AcDbArc
 50
128.2337971378629
 51
264.3948769589975
  0
ARC
  5
242
330
74
100
AcDbEntity
  8
0
  6
Continuous
 62
    16
100
AcDbCircle
 10
25.84310746554442
 20
8.873257767740057
 30
0.0
 40
0.121875
100
AcDbArc
 50
128.2337971378629
 51
264.3948769589975
  0
LINE
  5
243
330
74
100
AcDbEntity
  8
0
  6
Continuous
 62
    16
100
AcDbLine
 10
26.60582190868431
 20
10.03275082607288
 30
0.0
 11
25.41838611413081
 21
9.097196293413077
 31
0.0
  0
LINE
  5
244
330
74
100
AcDbEntity
  8
0
  6
Continuous
 62
    15
100
AcDbLine
 10
11.33347203382237
 20
3.151439745242584
 30
0.0
 11
12.13898975915896
 21
3.038978602618698
 31
0.0
  0
LINE
  5
245
330
74
100
AcDbEntity
  8
0
  6
Continuous
 62
    15
100
AcDbLine
 10
12.13898975915896
 20
3.038978602618698
 30
0.0
 11
12.95547094998551
 21
2.946589133426613
 31
0.0
  0
LINE
  5
246
330
74
100
AcDbEntity
  8
0
  6
Continuous
 62
    15
100
AcDbLine
 10
12.95547094998551
 20
2.946589133426613
 30
0.0
 11
13.78076269975818
 21
2.87449548999254
 31
0.0
  0
LINE
  5
247
330
74
100
AcDbEntity
  8
0
  6
Continuous
 62
    15
100
AcDbLine
 10
13.78076269975818
 20
2.87449548999254
 30
0.0
 11
14.61268562933131
 21
2.822873499439709
 31
0.0
  0
LINE
  5
248
330
74
100
AcDbEntity
  8
0
  6
Continuous
 62
    15
100
AcDbLine
 10
14.61268562933131
 20
2.822873499439709
 30
0.0
 11
15.4490404398006
 21
2.791849537408751
 31
0.0
  0
LINE
  5
249
330
74
100
AcDbEntity
  8
0
  6
Continuous
 62
    15
100
AcDbLine
 10
15.4490404398006
 20
2.791849537408751
 30
0.0
 11
16.28761452252579
 21
2.781499740007717
 31
0.0
  0
LINE
  5
24A
330
74
100
AcDbEntity
  8
0
  6
Continuous
 62
    15
100
AcDbLine
 10
16.28761452252579
 20
2.781499740007717
 30
0.0
 11
17.12618860525097
 21
2.791849537408751
 31
0.0
  0
LINE
  5
24B
330
74
100
AcDbEntity
  8
0
  6
Continuous
 62
    15
100
AcDbLine
 10
17.12618860525097
 20
2.791849537408751
 30
0.0
 11
17.96254341572075
 21
2.822873499439737
 31
0.0
  0
LINE
  5
24C
330
74
100
AcDbEntity
  8
0
  6
Continuous
 62
    15
100
AcDbLine
 10
17.96254341572075
 20
2.822873499439737
 30
0.0
 11
18.79446634529339
 21
2.87449548999254
 31
0.0
  0
LINE
  5
24D
330
74
100
AcDbEntity
  8
0
  6
Continuous
 62
    15
100
AcDbLine
 10
18.79446634529339
 20
2.87449548999254
 30
0.0
 11
19.61975809506603
 21
2.946589133426613
 31
0.0
  0
LINE
  5
24E
330
74
100
AcDbEntity
  8
0
  6
Continuous
 62
    15
100
AcDbLine
 10
19.61975809506603
 20
2.946589133426613
 30
0.0
 11
20.43623928589255
 21
3.038978602618698
 31
0.0
  0
LINE
  5
24F
330
74
100
AcDbEntity
  8
0
  6
Continuous
 62
    15
100
AcDbLine
 10
20.43623928589255
 20
3.038978602618698
 30
0.0
 11
21.24175701122928
 21
3.151439745242584
 31
0.0
  0
LINE
  5
250
330
74
100
AcDbEntity
  8
0
  6
Continuous
 62
    15
100
AcDbLine
 10
21.24175701122928
 20
3.151439745242584
 30
0.0
 11
22.03419130756819
 21
3.283701572449417
 31
0.0
  0
LINE
  5
251
330
74
100
AcDbEntity
  8
0
  6
Continuous
 62
    15
100
AcDbLine
 10
22.03419130756819
 20
3.283701572449417
 30
0.0
 11
22.8114615105782
 21
3.435448142602098
 31
0.0
  0
LINE
  5
252
330
74
100
AcDbEntity
  8
0
  6
Continuous
 62
    15
100
AcDbLine
 10
22.8114615105782
 20
3.435448142602098
 30
0.0
 11
23.57153245503815
 21
3.606320882199583
 31
0.0
  0
LINE
  5
253
330
74
100
AcDbEntity
  8
0
  6
Continuous
 62
    15
100
AcDbLine
 10
23.57153245503815
 20
3.606320882199583
 30
0.0
 11
24.31242046141691
 21
3.795921396382681
 31
0.0
  0
LINE
  5
254
330
74
100
AcDbEntity
  8
0
  6
Continuous
 62
    15
100
AcDbLine
 10
24.31242046141691
 20
3.795921396382681
 30
0.0
 11
25.03219902950732
 21
4.003814831899376
 31
0.0
  0
LINE
  5
255
330
74
100
AcDbEntity
  8
0
  6
Continuous
 62
    15
100
AcDbLine
 10
25.03219902950732
 20
4.003814831899376
 30
0.0
 11
25.72900412642056
 21
4.229533864574876
 31
0.0
  0
LINE
  5
256
330
74
100
AcDbEntity
  8
0
  6
Continuous
 62
    15
100
AcDbLine
 10
25.72900412642056
 20
4.229533864574876
 30
0.0
 11
26.40103890826035
 21
4.472583388155243
 31
0.0
  0
LINE
  5
257
330
74
100
AcDbEntity
  8
0
  6
Continuous
 62
    15
100
AcDbLine
 10
26.40103890826035
 20
4.472583388155243
 30
0.0
 11
27.04657764599011
 21
4.732445976119465
 31
0.0
  0
LINE
  5
258
330
74
100
AcDbEntity
  8
0
  6
Continuous
 62
    15
100
AcDbLine
 10
27.04657764599011
 20
4.732445976119465
 30
0.0
 11
27.66396852953548
 21
5.008588162391987
 31
0.0
  0
LINE
  5
259
330
74
100
AcDbEntity
  8
0
  6
Continuous
 62
    15
100
AcDbLine
 10
27.66396852953548
 20
5.008588162391987
 30
0.0
 11
28.25163489250281
 21
5.300467523122137
 31
0.0
  0
LINE
  5
25A
330
74
100
AcDbEntity
  8
0
  6
Continuous
 62
    15
100
AcDbLine
 10
28.25163489250281
 20
5.300467523122137
 30
0.0
 11
28.80807422836079
 21
5.607540410639871
 31
0.0
  0
LINE
  5
25B
330
74
100
AcDbEntity
  8
0
  6
Continuous
 62
    15
100
AcDbLine
 10
28.80807422836079
 20
5.607540410639871
 30
0.0
 11
29.3318541616604
 21
5.929269946697133
 31
0.0
  0
LINE
  5
25C
330
74
100
AcDbEntity
  8
0
  6
Continuous
 62
    15
100
AcDbLine
 10
29.3318541616604
 20
5.929269946697133
 30
0.0
 11
29.8216043219123
 21
6.265133458686932
 31
0.0
  0
LINE
  5
25D
330
74
100
AcDbEntity
  8
0
  6
Continuous
 62
    15
100
AcDbLine
 10
29.8216043219123
 20
6.265133458686932
 30
0.0
 11
30.27600291848114
 21
6.614627854438226
 31
0.0
  0
LINE
  5
25E
330
74
100
AcDbEntity
  8
0
  6
Continuous
 62
    15
100
AcDbLine
 10
30.27600291848114
 20
6.614627854438226
 30
0.0
 11
30.69375689735685
 21
6.977270394876911
 31
0.0
  0
LINE
  5
25F
330
74
100
AcDbEntity
  8
0
  6
Continuous
 62
    15
100
AcDbLine
 10
30.69375689735685
 20
6.977270394876911
 30
0.0
 11
31.07357518404805
 21
7.352590922862674
 31
0.0
  0
LINE
  5
260
330
74
100
AcDbEntity
  8
0
  6
Continuous
 62
    15
100
AcDbLine
 10
31.07357518404805
 20
7.352590922862674
 30
0.0
 11
31.41413617105812
 21
7.740110039153166
 31
0.0
  0
LINE
  5
261
330
74
100
AcDbEntity
  8
0
  6
Continuous
 62
    15
100
AcDbLine
 10
31.41413617105812
 20
7.740110039153166
 30
0.0
 11
31.71405389270294
 21
8.139296656558145
 31
0.0
  0
LINE
  5
262
330
74
100
AcDbEntity
  8
0
  6
Continuous
 62
    15
100
AcDbLine
 10
31.71405389270294
 20
8.139296656558145
 30
0.0
 11
31.97185258906131
 21
8.54949927329372
 31
0.0
  0
LINE
  5
263
330
74
100
AcDbEntity
  8
0
  6
Continuous
 62
    15
100
AcDbLine
 10
31.97185258906131
 20
8.54949927329372
 30
0.0
 11
32.18596580909124
 21
8.969850476732347
 31
0.0
  0
LINE
  5
264
330
74
100
AcDbEntity
  8
0
  6
Continuous
 62
    15
100
AcDbLine
 10
32.18596580909124
 20
8.969850476732347
 30
0.0
 11
32.3547806420469
 21
9.39915575935916
 31
0.0
  0
LINE
  5
265
330
74
100
AcDbEntity
  8
0
  6
Continuous
 62
    15
100
AcDbLine
 10
32.3547806420469
 20
9.39915575935916
 30
0.0
 11
32.4767439565031
 21
9.835794901966523
 31
0.0
  0
LINE
  5
266
330
74
100
AcDbEntity
  8
0
  6
Continuous
 62
    15
100
AcDbLine
 10
32.4767439565031
 20
9.835794901966523
 30
0.0
 11
32.55052935215269
 21
10.27767944379119
 31
0.0
  0
LINE
  5
267
330
74
100
AcDbEntity
  8
0
  6
Continuous
 62
    15
100
AcDbLine
 10
32.55052935215269
 20
10.27767944379119
 30
0.0
 11
32.57523199247126
 21
10.72230872718453
 31
0.0
  0
LINE
  5
268
330
74
100
AcDbEntity
  8
0
  6
Continuous
 62
    15
100
AcDbLine
 10
32.57523199247126
 20
10.72230872718453
 30
0.0
 11
32.55052935215272
 21
11.16693801057713
 31
0.0
  0
LINE
  5
269
330
74
100
AcDbEntity
  8
0
  6
Continuous
 62
    15
100
AcDbLine
 10
32.55052935215272
 20
11.16693801057713
 30
0.0
 11
32.4767439565031
 21
11.60882255240247
 31
0.0
  0
LINE
  5
26A
330
74
100
AcDbEntity
  8
0
  6
Continuous
 62
    15
100
AcDbLine
 10
32.4767439565031
 20
11.60882255240247
 30
0.0
 11
32.35478064204693
 21
12.04546169500921
 31
0.0
  0
LINE
  5
26B
330
74
100
AcDbEntity
  8
0
  6
Continuous
 62
    15
100
AcDbLine
 10
32.35478064204693
 20
12.04546169500921
 30
0.0
 11
32.18596580909121
 21
12.47476697763619
 31
0.0
  0
LINE
  5
26C
330
74
100
AcDbEntity
  8
0
  6
Continuous
 62
    15
100
AcDbLine
 10
32.18596580909121
 20
12.47476697763619
 30
0.0
 11
31.97185258906129
 21
12.89511818107479
 31
0.0
  0
LINE
  5
26D
330
74
100
AcDbEntity
  8
0
  6
Continuous
 62
    15
100
AcDbLine
 10
31.97185258906129
 20
12.89511818107479
 30
0.0
 11
31.71405389270296
 21
13.3053207978103
 31
0.0
  0
LINE
  5
26E
330
74
100
AcDbEntity
  8
0
  6
Continuous
 62
    15
100
AcDbLine
 10
31.71405389270296
 20
13.3053207978103
 30
0.0
 11
31.4141361710582
 21
13.70450741521569
 31
0.0
  0
LINE
  5
26F
330
74
100
AcDbEntity
  8
0
  6
Continuous
 62
    15
100
AcDbLine
 10
31.4141361710582
 20
13.70450741521569
 30
0.0
 11
31.07357518404802
 21
14.09202653150631
 31
0.0
  0
LINE
  5
270
330
74
100
AcDbEntity
  8
0
  6
Continuous
 62
    15
100
AcDbLine
 10
31.07357518404802
 20
14.09202653150631
 30
0.0
 11
30.69375689735656
 21
14.46734705949186
 31
0.0
  0
LINE
  5
271
330
74
100
AcDbEntity
  8
0
  6
Continuous
 62
    15
100
AcDbLine
 10
30.69375689735656
 20
14.46734705949186
 30
0.0
 11
30.2760029184814
 21
14.82998959993004
 31
0.0
  0
LINE
  5
272
330
74
100
AcDbEntity
  8
0
  6
Continuous
 62
    15
100
AcDbLine
 10
30.2760029184814
 20
14.82998959993004
 30
0.0
 11
29.82160432191247
 21
15.17948399568188
 31
0.0
  0
LINE
  5
273
330
74
100
AcDbEntity
  8
0
  6
Continuous
 62
    15
100
AcDbLine
 10
29.82160432191247
 20
15.17948399568188
 30
0.0
 11
29.33185416166035
 21
15.51534750767183
 31
0.0
  0
LINE
  5
274
330
74
100
AcDbEntity
  8
0
  6
Continuous
 62
    15
100
AcDbLine
 10
29.33185416166035
 20
15.51534750767183
 30
0.0
 11
28.80807422836105
 21
15.83707704372844
 31
0.0
  0
LINE
  5
275
330
74
100
AcDbEntity
  8
0
  6
Continuous
 62
    15
100
AcDbLine
 10
28.80807422836105
 20
15.83707704372844
 30
0.0
 11
28.25163489250261
 21
16.14414993124693
 31
0.0
  0
LINE
  5
276
330
74
100
AcDbEntity
  8
0
  6
Continuous
 62
    15
100
AcDbLine
 10
28.25163489250261
 20
16.14414993124693
 30
0.0
 11
27.66396852953565
 21
16.43602929197642
 31
0.0
  0
LINE
  5
277
330
74
100
AcDbEntity
  8
0
  6
Continuous
 62
    15
100
AcDbLine
 10
27.66396852953565
 20
16.43602929197642
 30
0.0
 11
27.04657764599023
 21
16.71217147824896
 31
0.0
  0
LINE
  5
278
330
74
100
AcDbEntity
  8
0
  6
Continuous
 62
    15
100
AcDbLine
 10
27.04657764599023
 20
16.71217147824896
 30
0.0
 11
26.40103890825995
 21
16.97203406621337
 31
0.0
  0
LINE
  5
279
330
74
100
AcDbEntity
  8
0
  6
Continuous
 62
    15
100
AcDbLine
 10
26.40103890825995
 20
16.97203406621337
 30
0.0
 11
25.72900412642116
 21
17.21508358979388
 31
0.0
  0
LINE
  5
27A
330
74
100
AcDbEntity
  8
0
  6
Continuous
 62
    15
100
AcDbLine
 10
25.72900412642116
 20
17.21508358979388
 30
0.0
 11
25.03219902950681
 21
17.44080262246925
 31
0.0
  0
LINE
  5
27B
330
74
100
AcDbEntity
  8
0
  6
Continuous
 62
    15
100
AcDbLine
 10
25.03219902950681
 20
17.44080262246925
 30
0.0
 11
24.31242046141688
 21
17.64869605798582
 31
0.0
  0
LINE
  5
27C
330
74
100
AcDbEntity
  8
0
  6
Continuous
 62
    15
100
AcDbLine
 10
24.31242046141688
 20
17.64869605798582
 30
0.0
 11
23.57153245503832
 21
17.83829657216886
 31
0.0
  0
LINE
  5
27D
330
74
100
AcDbEntity
  8
0
  6
Continuous
 62
    15
100
AcDbLine
 10
23.57153245503832
 20
17.83829657216886
 30
0.0
 11
22.81146151057814
 21
18.00916931176687
 31
0.0
  0
LINE
  5
27E
330
74
100
AcDbEntity
  8
0
  6
Continuous
 62
    15
100
AcDbLine
 10
22.81146151057814
 20
18.00916931176687
 30
0.0
 11
22.03419130756845
 21
18.16091588191956
 31
0.0
  0
LINE
  5
27F
330
74
100
AcDbEntity
  8
0
  6
Continuous
 62
    15
100
AcDbLine
 10
22.03419130756845
 20
18.16091588191956
 30
0.0
 11
21.24175701122911
 21
18.29317770912591
 31
0.0
  0
LINE
  5
280
330
74
100
AcDbEntity
  8
0
  6
Continuous
 62
    15
100
AcDbLine
 10
21.24175701122911
 20
18.29317770912591
 30
0.0
 11
20.4362392858925
 21
18.40563885174981
 31
0.0
  0
LINE
  5
281
330
74
100
AcDbEntity
  8
0
  6
Continuous
 62
    15
100
AcDbLine
 10
20.4362392858925
 20
18.40563885174981
 30
0.0
 11
19.61975809506606
 21
18.49802832094184
 31
0.0
  0
LINE
  5
282
330
74
100
AcDbEntity
  8
0
  6
Continuous
 62
    15
100
AcDbLine
 10
19.61975809506606
 20
18.49802832094184
 30
0.0
 11
18.79446634529344
 21
18.57012196437593
 31
0.0
  0
LINE
  5
283
330
74
100
AcDbEntity
  8
0
  6
Continuous
 62
    15
100
AcDbLine
 10
18.79446634529344
 20
18.57012196437593
 30
0.0
 11
17.96254341572075
 21
18.62174395492923
 31
0.0
  0
LINE
  5
284
330
74
100
AcDbEntity
  8
0
  6
Continuous
 62
    15
100
AcDbLine
 10
17.96254341572075
 20
18.62174395492923
 30
0.0
 11
17.12618860525103
 21
18.65276791695972
 31
0.0
  0
LINE
  5
285
330
74
100
AcDbEntity
  8
0
  6
Continuous
 62
    15
100
AcDbLine
 10
17.12618860525103
 20
18.65276791695972
 30
0.0
 11
16.28761452252579
 21
18.66311771436077
 31
0.0
  0
LINE
  5
286
330
74
100
AcDbEntity
  8
0
  6
Continuous
 62
    15
100
AcDbLine
 10
16.28761452252579
 20
18.66311771436077
 30
0.0
 11
15.44904043980054
 21
18.65276791695972
 31
0.0
  0
LINE
  5
287
330
74
100
AcDbEntity
  8
0
  6
Continuous
 62
    15
100
AcDbLine
 10
15.44904043980054
 20
18.65276791695972
 30
0.0
 11
14.61268562933137
 21
18.62174395492923
 31
0.0
  0
LINE
  5
288
330
74
100
AcDbEntity
  8
0
  6
Continuous
 62
    15
100
AcDbLine
 10
14.61268562933137
 20
18.62174395492923
 30
0.0
 11
13.78076269975813
 21
18.57012196437591
 31
0.0
  0
LINE
  5
289
330
74
100
AcDbEntity
  8
0
  6
Continuous
 62
    15
100
AcDbLine
 10
13.78076269975813
 20
18.57012196437591
 30
0.0
 11
12.95547094998548
 21
18.49802832094186
 31
0.0
  0
LINE
  5
28A
330
74
100
AcDbEntity
  8
0
  6
Continuous
 62
    15
100
AcDbLine
 10
12.95547094998548
 20
18.49802832094186
 30
0.0
 11
12.13898975915896
 21
18.4056388517498
 31
0.0
  0
LINE
  5
28B
330
74
100
AcDbEntity
  8
0
  6
Continuous
 62
    15
100
AcDbLine
 10
12.13898975915896
 20
18.4056388517498
 30
0.0
 11
11.33347203382209
 21
18.29317770912587
 31
0.0
  0
LINE
  5
28C
330
74
100
AcDbEntity
  8
0
  6
Continuous
 62
    15
100
AcDbLine
 10
11.33347203382209
 20
18.29317770912587
 30
0.0
 11
10.54103773748389
 21
18.16091588191962
 31
0.0
  0
LINE
  5
28D
330
74
100
AcDbEntity
  8
0
  6
Continuous
 62
    15
100
AcDbLine
 10
10.54103773748389
 20
18.16091588191962
 30
0.0
 11
9.763767534473573
 21
18.00916931176688
 31
0.0
  0
LINE
  5
28E
330
74
100
AcDbEntity
  8
0
  6
Continuous
 62
    15
100
AcDbLine
 10
9.763767534473573
 20
18.00916931176688
 30
0.0
 11
9.00369659001359
 21
17.83829657216883
 31
0.0
  0
LINE
  5
28F
330
74
100
AcDbEntity
  8
0
  6
Continuous
 62
    15
100
AcDbLine
 10
9.00369659001359
 20
17.83829657216883
 30
0.0
 11
8.262808583634325
 21
17.6486960579857
 31
0.0
  0
LINE
  5
290
330
74
100
AcDbEntity
  8
0
  6
Continuous
 62
    15
100
AcDbLine
 10
8.262808583634325
 20
17.6486960579857
 30
0.0
 11
7.5430300155449
 21
17.44080262246915
 31
0.0
  0
LINE
  5
291
330
74
100
AcDbEntity
  8
0
  6
Continuous
 62
    15
100
AcDbLine
 10
7.5430300155449
 20
17.44080262246915
 30
0.0
 11
6.846224918631009
 21
17.21508358979409
 31
0.0
  0
LINE
  5
292
330
74
100
AcDbEntity
  8
0
  6
Continuous
 62
    15
100
AcDbLine
 10
6.846224918631009
 20
17.21508358979409
 30
0.0
 11
6.174190136791452
 21
16.97203406621331
 31
0.0
  0
LINE
  5
293
330
74
100
AcDbEntity
  8
0
  6
Continuous
 62
    15
100
AcDbLine
 10
6.174190136791452
 20
16.97203406621331
 30
0.0
 11
5.52865139906126
 21
16.71217147824893
 31
0.0
  0
LINE
  5
294
330
74
100
AcDbEntity
  8
0
  6
Continuous
 62
    15
100
AcDbLine
 10
5.52865139906126
 20
16.71217147824893
 30
0.0
 11
4.911260515516346
 21
16.43602929197664
 31
0.0
  0
LINE
  5
295
330
74
100
AcDbEntity
  8
0
  6
Continuous
 62
    15
100
AcDbLine
 10
4.911260515516346
 20
16.43602929197664
 30
0.0
 11
4.323594152548736
 21
16.14414993124682
 31
0.0
  0
LINE
  5
296
330
74
100
AcDbEntity
  8
0
  6
Continuous
 62
    15
100
AcDbLine
 10
4.323594152548736
 20
16.14414993124682
 30
0.0
 11
3.767154816690834
 21
15.83707704372864
 31
0.0
  0
LINE
  5
297
330
74
100
AcDbEntity
  8
0
  6
Continuous
 62
    15
100
AcDbLine
 10
3.767154816690834
 20
15.83707704372864
 30
0.0
 11
3.243374883390885
 21
15.51534750767161
 31
0.0
  0
LINE
  5
298
330
74
100
AcDbEntity
  8
0
  6
Continuous
 62
    15
100
AcDbLine
 10
3.243374883390885
 20
15.51534750767161
 30
0.0
 11
2.753624723139126
 21
15.17948399568191
 31
0.0
  0
LINE
  5
299
330
74
100
AcDbEntity
  8
0
  6
Continuous
 62
    15
100
AcDbLine
 10
2.753624723139126
 20
15.17948399568191
 30
0.0
 11
2.299226126570488
 21
14.82998959993031
 31
0.0
  0
LINE
  5
29A
330
74
100
AcDbEntity
  8
0
  6
Continuous
 62
    15
100
AcDbLine
 10
2.299226126570488
 20
14.82998959993031
 30
0.0
 11
1.881472147694552
 21
14.46734705949144
 31
0.0
  0
LINE
  5
29B
330
74
100
AcDbEntity
  8
0
  6
Continuous
 62
    15
100
AcDbLine
 10
1.881472147694552
 20
14.46734705949144
 30
0.0
 11
1.501653861003547
 21
14.09202653150632
 31
0.0
  0
LINE
  5
29C
330
74
100
AcDbEntity
  8
0
  6
Continuous
 62
    15
100
AcDbLine
 10
1.501653861003547
 20
14.09202653150632
 30
0.0
 11
1.161092873993368
 21
13.70450741521569
 31
0.0
  0
LINE
  5
29D
330
74
100
AcDbEntity
  8
0
  6
Continuous
 62
    15
100
AcDbLine
 10
1.161092873993368
 20
13.70450741521569
 30
0.0
 11
0.8611751523486078
 21
13.30532079781028
 31
0.0
  0
LINE
  5
29E
330
74
100
AcDbEntity
  8
0
  6
Continuous
 62
    15
100
AcDbLine
 10
0.8611751523486078
 20
13.30532079781028
 30
0.0
 11
0.6033764559904284
 21
12.89511818107503
 31
0.0
  0
LINE
  5
29F
330
74
100
AcDbEntity
  8
0
  6
Continuous
 62
    15
100
AcDbLine
 10
0.6033764559904284
 20
12.89511818107503
 30
0.0
 11
0.3892632359604988
 21
12.47476697763646
 31
0.0
  0
LINE
  5
2A0
330
74
100
AcDbEntity
  8
0
  6
Continuous
 62
    15
100
AcDbLine
 10
0.3892632359604988
 20
12.47476697763646
 30
0.0
 11
0.2204484030046387
 21
12.04546169500924
 31
0.0
  0
LINE
  5
2A1
330
74
100
AcDbEntity
  8
0
  6
Continuous
 62
    15
100
AcDbLine
 10
0.2204484030046387
 20
12.04546169500924
 30
0.0
 11
0.0984850885484718
 21
11.60882255240253
 31
0.0
  0
LINE
  5
2A2
330
74
100
AcDbEntity
  8
0
  6
Continuous
 62
    15
100
AcDbLine
 10
0.0984850885484718
 20
11.60882255240253
 30
0.0
 11
0.024699692898821
 21
11.1669380105769
 31
0.0
  0
LINE
  5
2A3
330
74
100
AcDbEntity
  8
0
  6
Continuous
 62
    15
100
AcDbLine
 10
0.024699692898821
 20
11.1669380105769
 30
0.0
 11
-0.0000029474197447
 21
10.7223087271839
 31
0.0
  0
LINE
  5
2A4
330
74
100
AcDbEntity
  8
0
  6
Continuous
 62
    15
100
AcDbLine
 10
-0.0000029474197447
 20
10.7223087271839
 30
0.0
 11
0.0246996928988494
 21
10.27767944379138
 31
0.0
  0
LINE
  5
2A5
330
74
100
AcDbEntity
  8
0
  6
Continuous
 62
    15
100
AcDbLine
 10
0.0246996928988494
 20
10.27767944379138
 30
0.0
 11
0.098485088548415
 21
9.835794901966636
 31
0.0
  0
LINE
  5
2A6
330
74
100
AcDbEntity
  8
0
  6
Continuous
 62
    15
100
AcDbLine
 10
0.098485088548415
 20
9.835794901966636
 30
0.0
 11
0.2204484030046103
 21
9.399155759359331
 31
0.0
  0
LINE
  5
2A7
330
74
100
AcDbEntity
  8
0
  6
Continuous
 62
    15
100
AcDbLine
 10
0.2204484030046103
 20
9.399155759359331
 30
0.0
 11
0.3892632359604988
 21
8.969850476731978
 31
0.0
  0
LINE
  5
2A8
330
74
100
AcDbEntity
  8
0
  6
Continuous
 62
    15
100
AcDbLine
 10
0.3892632359604988
 20
8.969850476731978
 30
0.0
 11
0.6033764559900874
 21
8.54949927329406
 31
0.0
  0
LINE
  5
2A9
330
74
100
AcDbEntity
  8
0
  6
Continuous
 62
    15
100
AcDbLine
 10
0.6033764559900874
 20
8.54949927329406
 30
0.0
 11
0.8611751523485225
 21
8.139296656558344
 31
0.0
  0
LINE
  5
2AA
330
74
100
AcDbEntity
  8
0
  6
Continuous
 62
    15
100
AcDbLine
 10
0.8611751523485225
 20
8.139296656558344
 30
0.0
 11
1.161092873993567
 21
7.740110039152995
 31
0.0
  0
LINE
  5
2AB
330
74
100
AcDbEntity
  8
0
  6
Continuous
 62
    15
100
AcDbLine
 10
1.161092873993567
 20
7.740110039152995
 30
0.0
 11
1.501653861003547
 21
7.352590922862618
 31
0.0
  0
LINE
  5
2AC
330
74
100
AcDbEntity
  8
0
  6
Continuous
 62
    15
100
AcDbLine
 10
1.501653861003547
 20
7.352590922862618
 30
0.0
 11
1.881472147695206
 21
6.977270394876854
 31
0.0
  0
LINE
  5
2AD
330
74
100
AcDbEntity
  8
0
  6
Continuous
 62
    15
100
AcDbLine
 10
1.881472147695206
 20
6.977270394876854
 30
0.0
 11
2.299226126570318
 21
6.614627854438282
 31
0.0
  0
LINE
  5
2AE
330
74
100
AcDbEntity
  8
0
  6
Continuous
 62
    15
100
AcDbLine
 10
2.299226126570318
 20
6.614627854438282
 30
0.0
 11
2.753624723139069
 21
6.265133458687103
 31
0.0
  0
LINE
  5
2AF
330
74
100
AcDbEntity
  8
0
  6
Continuous
 62
    15
100
AcDbLine
 10
2.753624723139069
 20
6.265133458687103
 30
0.0
 11
3.243374883391226
 21
5.929269946697133
 31
0.0
  0
LINE
  5
2B0
330
74
100
AcDbEntity
  8
0
  6
Continuous
 62
    15
100
AcDbLine
 10
3.243374883391226
 20
5.929269946697133
 30
0.0
 11
3.767154816690606
 21
5.607540410639984
 31
0.0
  0
LINE
  5
2B1
330
74
100
AcDbEntity
  8
0
  6
Continuous
 62
    15
100
AcDbLine
 10
3.767154816690606
 20
5.607540410639984
 30
0.0
 11
4.323594152549532
 21
5.300467523121966
 31
0.0
  0
LINE
  5
2B2
330
74
100
AcDbEntity
  8
0
  6
Continuous
 62
    15
100
AcDbLine
 10
4.323594152549532
 20
5.300467523121966
 30
0.0
 11
4.911260515515693
 21
5.008588162392158
 31
0.0
  0
LINE
  5
2B3
330
74
100
AcDbEntity
  8
0
  6
Continuous
 62
    15
100
AcDbLine
 10
4.911260515515693
 20
5.008588162392158
 30
0.0
 11
5.528651399061374
 21
4.732445976119521
 31
0.0
  0
LINE
  5
2B4
330
74
100
AcDbEntity
  8
0
  6
Continuous
 62
    15
100
AcDbLine
 10
5.528651399061374
 20
4.732445976119521
 30
0.0
 11
6.174190136791367
 21
4.472583388155186
 31
0.0
  0
LINE
  5
2B5
330
74
100
AcDbEntity
  8
0
  6
Continuous
 62
    15
100
AcDbLine
 10
6.174190136791367
 20
4.472583388155186
 30
0.0
 11
6.846224918630725
 21
4.229533864574961
 31
0.0
  0
LINE
  5
2B6
330
74
100
AcDbEntity
  8
0
  6
Continuous
 62
    15
100
AcDbLine
 10
6.846224918630725
 20
4.229533864574961
 30
0.0
 11
7.543030015544645
 21
4.003814831899405
 31
0.0
  0
LINE
  5
2B7
330
74
100
AcDbEntity
  8
0
  6
Continuous
 62
    15
100
AcDbLine
 10
7.543030015544645
 20
4.003814831899405
 30
0.0
 11
8.26280858363478
 21
3.795921396382795
 31
0.0
  0
LINE
  5
2B8
330
74
100
AcDbEntity
  8
0
  6
Continuous
 62
    15
100
AcDbLine
 10
8.26280858363478
 20
3.795921396382795
 30
0.0
 11
9.003696590014243
 21
3.606320882199498
 31
0.0
  0
LINE
  5
2B9
330
74
100
AcDbEntity
  8
0
  6
Continuous
 62
    15
100
AcDbLine
 10
9.003696590014243
 20
3.606320882199498
 30
0.0
 11
9.763767534473459
 21
3.43544814260207
 31
0.0
  0
LINE
  5
2BA
330
74
100
AcDbEntity
  8
0
  6
Continuous
 62
    15
100
AcDbLine
 10
9.763767534473459
 20
3.43544814260207
 30
0.0
 11
10.54103773748335
 21
3.283701572449417
 31
0.0
  0
LINE
  5
2BB
330
74
100
AcDbEntity
  8
0
  6
Continuous
 62
    15
100
AcDbLine
 10
10.54103773748335
 20
3.283701572449417
 30
0.0
 11
11.33347203382237
 21
3.151439745242584
 31
0.0
  0
LINE
  5
2BC
330
74
100
AcDbEntity
  8
0
  6
Continuous
 62
    16
100
AcDbLine
 10
276.9264316884766
 20
0.0000014196389486
 30
0.0
 11
276.9264316884766
 21
20.00000141963896
 31
0.0
  0
ENDBLK
  5
76
330
74
100
AcDbEntity
  8
0
100
AcDbBlockEnd
  0
BLOCK
  5
2BE
330
2BD
100
AcDbEntity
  8
0
100
AcDbBlockBegin
  2
PROTO
 70
     2
 10
0.0
 20
0.0
 30
0.0
  3
PROTO
  1
PROTO
  0
ATTDEF
  5
2C0
330
2BD
100
AcDbEntity
  8
0
100
AcDbText
 10
0.0
 20
0.0
 30
0.0
 40
1.0
  1

100
AcDbAttributeDefinition
  3
Enter PAT_NAME
  2
PAT_NAME
 70
     0
280
     0
  0
TEXT
  5
2C4
330
2BD
100
AcDbEntity
  8
0
  6
Continuous
 62
    15
100
AcDbText
 10
39.75526446987207
 20
6.753997802734375
 30
0.0
 40
1.759999990463257
  1
Mountplesent, Dundalk, Ireland
  7
ARIAL
100
AcDbText
  0
TEXT
  5
2C5
330
2BD
100
AcDbEntity
  8
0
  6
Continuous
 62
    15
100
AcDbText
 10
41.01106574634828
 20
3.76199746131897
 30
0.0
 40
1.759999990463257
  1
Telephone (353/42) 9371244
  7
ARIAL
100
AcDbText
  0
TEXT
  5
2C6
330
2BD
100
AcDbEntity
  8
0
  6
Continuous
 62
    15
100
AcDbText
 10
45.84107065587222
 20
0.7699971199035645
 30
0.0
 40
1.759999990463257
  1
Fax (353/42) 9371221
  7
ARIAL
100
AcDbText
  0
TEXT
  5
2C7
330
2BD
100
AcDbEntity
  8
0
  6
Continuous
 62
    16
100
AcDbText
 10
39.56206427349112
 20
11.70730590820312
 30
0.0
 40
3.529999971389771
  1
EXITEX LTD
  7
CALISTB
100
AcDbText
  0
TEXT
  5
2C8
330
2BD
100
AcDbEntity
  8
0
  6
Continuous
 62
    15
100
AcDbText
 10
118.7633075714111
 20
5.154260873794556
 30
0.0
 40
1.759999990463257
  1
DESCRIPTION
  7
ARIAL
100
AcDbText
  0
TEXT
  5
2C9
330
2BD
100
AcDbEntity
  8
0
  6
Continuous
 62
    15
100
AcDbText
 10
118.7633075714111
 20
15.30852723121643
 30
0.0
 40
1.759999990463257
  1
CODE
  7
ARIAL
100
AcDbText
  0
TEXT
  5
2CA
330
2BD
100
AcDbEntity
  8
0
  6
Continuous
 62
    15
100
AcDbText
 10
185.8260612487793
 20
15.30852723121643
 30
0.0
 40
1.759999990463257
  1
TOLERANCE
  7
ARIAL
100
AcDbText
  0
TEXT
  5
2CB
330
2BD
100
AcDbEntity
  8
0
  6
Continuous
 62
    15
100
AcDbText
 10
185.8260612487793
 20
5.154260873794556
 30
0.0
 40
1.759999990463257
  1
DRAWN
  7
ARIAL
100
AcDbText
  0
TEXT
  5
2CC
330
2BD
100
AcDbEntity
  8
0
  6
Continuous
 62
    15
100
AcDbText
 10
217.5286865234375
 20
5.154260873794556
 30
0.0
 40
1.759999990463257
  1
DRAWING No
  7
ARIAL
100
AcDbText
  0
TEXT
  5
2CD
330
2BD
100
AcDbEntity
  8
0
  6
Continuous
 62
    15
100
AcDbText
 10
217.5286865234375
 20
15.30852723121643
 30
0.0
 40
1.759999990463257
  1
SCALE
  7
ARIAL
100
AcDbText
  0
TEXT
  5
2CE
330
2BD
100
AcDbEntity
  8
0
  6
Continuous
 62
    15
100
AcDbText
 10
248.5798873901367
 20
15.30852723121643
 30
0.0
 40
1.759999990463257
  1
APPROVED
  7
ARIAL
100
AcDbText
  0
TEXT
  5
2CF
330
2BD
100
AcDbEntity
  8
0
  6
Continuous
 62
    15
100
AcDbText
 10
248.5798873901367
 20
5.154260873794556
 30
0.0
 40
1.759999990463257
  1
DATE
  7
ARIAL
100
AcDbText
  0
TEXT
  5
2D0
330
2BD
100
AcDbEntity
  8
0
  6
Continuous
 62
    15
100
AcDbText
 10
202.038257598877
 20
198.8399646282196
 30
0.0
 40
1.059999942779541
  1
DATE
  7
ARIAL
100
AcDbText
  0
TEXT
  5
2D1
330
2BD
100
AcDbEntity
  8
0
  6
Continuous
 62
    15
100
AcDbText
 10
210.0382614135742
 20
198.8399646282196
 30
0.0
 40
1.059999942779541
  1
ISSUE
  7
ARIAL
100
AcDbText
  0
TEXT
  5
2D2
330
2BD
100
AcDbEntity
  8
0
  6
Continuous
 62
    15
100
AcDbText
 10
233.3573379516602
 20
198.8399646282196
 30
0.0
 40
1.059999942779541
  1
CHANGE
  7
ARIAL
100
AcDbText
  0
TEXT
  5
2D3
330
2BD
100
AcDbEntity
  8
0
  6
Continuous
 62
    15
100
AcDbText
 10
266.0382537841797
 20
198.8399646282196
 30
0.0
 40
1.059999942779541
  1
SIGNED
  7
ARIAL
100
AcDbText
  0
TEXT
  5
2D4
330
2BD
100
AcDbEntity
  8
0
  6
Continuous
 62
    15
100
AcDbText
 10
0.578521728515625
 20
199.2676227092743
 30
0.0
 40
1.059999942779541
  1
THIS DRAWING  IS  THE PROPERTY OF  EXITEX  LTD  AND  MUST
  7
ARIAL
100
AcDbText
  0
TEXT
  5
2D5
330
2BD
100
AcDbEntity
  8
0
  6
Continuous
 62
    15
100
AcDbText
 10
0.578521728515625
 20
197.4656225442886
 30
0.0
 40
1.059999942779541
  1
NOT BE REPRODUCED IN WHOLE OR IN PART WITHOUT CONSENT
  7
ARIAL
100
AcDbText
  0
TEXT
  5
2D6
330
2BD
100
AcDbEntity
  8
0
  6
Continuous
 62
    15
100
AcDbText
 10
0.578521728515625
 20
195.663622379303
 30
0.0
 40
1.059999942779541
  1
C  COPYRIGHT EXITEX.
  7
ARIAL
100
AcDbText
  0
LINE
  5
2D7
330
2BD
100
AcDbEntity
  8
0
  6
Continuous
 62
     9
100
AcDbLine
 10
210.0382620519195
 20
201.8699631799705
 30
0.0
 11
210.0382620519195
 21
187.7889839942247
 31
0.0
  0
LINE
  5
2D8
330
2BD
100
AcDbEntity
  8
0
  6
Continuous
 62
     9
100
AcDbLine
 10
218.0382620519195
 20
201.8699631799705
 30
0.0
 11
218.0382620519195
 21
187.7889839942247
 31
0.0
  0
LINE
  5
2D9
330
2BD
100
AcDbEntity
  8
0
  6
Continuous
 62
     9
100
AcDbLine
 10
266.0382620519195
 20
201.8699631799705
 30
0.0
 11
266.0382620519195
 21
187.7889839942247
 31
0.0
  0
LINE
  5
2DA
330
2BD
100
AcDbEntity
  8
0
  6
Continuous
 62
     9
100
AcDbLine
 10
278.0382620519195
 20
196.8699631799705
 30
0.0
 11
202.0382620519195
 21
196.8699631799705
 31
0.0
  0
LINE
  5
2DB
330
2BD
100
AcDbEntity
  8
0
  6
Continuous
 62
     9
100
AcDbLine
 10
202.0382620519195
 20
201.8699631799705
 30
0.0
 11
202.0382620519195
 21
187.7889839942247
 31
0.0
  0
CIRCLE
  5
2DC
330
2BD
100
AcDbEntity
  8
0
  6
Continuous
 62
    15
100
AcDbCircle
 10
1.349239231467607
 20
196.1649503844371
 30
0.0
 40
0.7858324255611161
  0
ARC
  5
2DD
330
2BD
100
AcDbEntity
  8
0
  6
Continuous
 62
    15
100
AcDbCircle
 10
1.349239231467607
 20
196.1649503844371
 30
0.0
 40
0.7858324255611161
100
AcDbArc
 50
0.0
 51
0.0
  0
ENDBLK
  5
2BF
330
2BD
100
AcDbEntity
  8
0
100
AcDbBlockEnd
  0
BLOCK
  5
2E0
330
2DF
100
AcDbEntity
  8
0
100
AcDbBlockBegin
  2
GEN_BLOCK00000
 70
     0
 10
0.0
 20
0.0
 30
0.0
  3
GEN_BLOCK00000
  1
GEN_BLOCK00000
  0
TEXT
  5
2E3
330
2DF
100
AcDbEntity
  8
DIM__QA
  6
Continuous
 62
    15
100
AcDbText
 10
1.412139892578125
 20
86.10555362701416
 30
0.0
 40
2.5
  1
MDS 80 FRONT
100
AcDbText
  0
TEXT
  5
2E4
330
2DF
100
AcDbEntity
  8
DIM__QA
  6
Continuous
 62
    15
100
AcDbText
 10
1.412139892578125
 20
81.10555362701416
 30
0.0
 40
2.5
  1
   RAMP
100
AcDbText
  0
TEXT
  5
2E5
330
2DF
100
AcDbEntity
  8
DIM__QA
  6
Continuous
 62
    15
100
AcDbText
 10
82.58044624328613
 20
91.73401260375977
 30
0.0
 40
2.5
  1
MDS RANGE
100
AcDbText
  0
TEXT
  5
2E6
330
2DF
100
AcDbEntity
  8
DIM__QA
  6
Continuous
 62
    15
100
AcDbText
 10
82.58044624328613
 20
86.73401260375977
 30
0.0
 40
2.5
  1
REAR RAMP
100
AcDbText
  0
TEXT
  5
2E7
330
2DF
100
AcDbEntity
  8
DIM__QA
  6
Continuous
 62
    15
100
AcDbText
 10
51.43053436279297
 20
1.09375
 30
0.0
 40
2.5
  1
MDS RAMPS
100
AcDbText
  0
TEXT
  5
2E8
330
2DF
100
AcDbEntity
  8
DIM__QA
  6
Continuous
 62
    15
100
AcDbText
 10
146.2418899536133
 20
12.43869781494141
 30
0.0
 40
2.5
  1
1:1
100
AcDbText
  0
TEXT
  5
2E9
330
2DF
100
AcDbEntity
  8
DIM__QA
  6
Continuous
 62
    15
100
AcDbText
 10
179.8715591430664
 20
10.21022796630859
 30
0.0
 40
2.5
  1
PBA
100
AcDbText
  0
TEXT
  5
2EA
330
2DF
100
AcDbEntity
  8
DIM__QA
  6
Continuous
 62
    15
100
AcDbText
 10
175.8197937011719
 20
1.296333312988281
 30
0.0
 40
2.5
  1
2.11.14
100
AcDbText
  0
ENDBLK
  5
2E1
330
2DF
100
AcDbEntity
  8
0
100
AcDbBlockEnd
  0
BLOCK
  5
2ED
330
2EC
100
AcDbEntity
  8
0
100
AcDbBlockBegin
  2
GEN_BLOCK00001
 70
     0
 10
0.0
 20
0.0
 30
0.0
  3
GEN_BLOCK00001
  1
GEN_BLOCK00001
  0
LINE
  5
2F0
330
2EC
100
AcDbEntity
  8
GEN_LAYER
  6
Continuous
 62
    15
100
AcDbLine
 10
22.7000004199375
 20
0.4999998486961097
 30
0.0
 11
22.7000004199375
 21
4.486544094995718
 31
0.0
  0
ARC
  5
2F1
330
2EC
100
AcDbEntity
  8
GEN_LAYER
  6
Continuous
 62
    15
100
AcDbCircle
 10
-1.984223686427853
 20
-28.98071645138696
 30
0.0
 40
42.0
100
AcDbArc
 50
54.71359180118519
 51
57.43426938188924
  0
ARC
  5
2F2
330
2EC
100
AcDbEntity
  8
GEN_LAYER
  6
Continuous
 62
    15
100
AcDbCircle
 10
-1.984223686427853
 20
-28.98071645138696
 30
0.0
 40
42.0
100
AcDbArc
 50
54.71359180118519
 51
57.43426938188924
  0
ARC
  5
2F3
330
2EC
100
AcDbEntity
  8
GEN_LAYER
  6
Continuous
 62
    15
100
AcDbCircle
 10
-1.984223686427853
 20
-28.98071645138696
 30
0.0
 40
42.0
100
AcDbArc
 50
58.79846266422614
 51
65.16656651488483
  0
ARC
  5
2F4
330
2EC
100
AcDbEntity
  8
GEN_LAYER
  6
Continuous
 62
    15
100
AcDbCircle
 10
-1.984223686427853
 20
-28.98071645138696
 30
0.0
 40
42.0
100
AcDbArc
 50
58.79846266422614
 51
65.16656651488483
  0
ARC
  5
2F5
330
2EC
100
AcDbEntity
  8
GEN_LAYER
  6
Continuous
 62
    15
100
AcDbCircle
 10
-1.984223686427853
 20
-28.98071645138696
 30
0.0
 40
42.0
100
AcDbArc
 50
66.5307597972196
 51
72.45392602512995
  0
ARC
  5
2F6
330
2EC
100
AcDbEntity
  8
GEN_LAYER
  6
Continuous
 62
    15
100
AcDbCircle
 10
-1.984223686427853
 20
-28.98071645138696
 30
0.0
 40
42.0
100
AcDbArc
 50
66.5307597972196
 51
72.45392602512995
  0
ARC
  5
2F7
330
2EC
100
AcDbEntity
  8
GEN_LAYER
  6
Continuous
 62
    15
100
AcDbCircle
 10
-1.984223686427853
 20
-28.98071645138696
 30
0.0
 40
42.0
100
AcDbArc
 50
73.81811930746471
 51
79.4688576453648
  0
ARC
  5
2F8
330
2EC
100
AcDbEntity
  8
GEN_LAYER
  6
Continuous
 62
    15
100
AcDbCircle
 10
-1.984223686427853
 20
-28.98071645138696
 30
0.0
 40
42.0
100
AcDbArc
 50
73.81811930746471
 51
79.4688576453648
  0
ARC
  5
2F9
330
2EC
100
AcDbEntity
  8
GEN_LAYER
  6
Continuous
 62
    15
100
AcDbCircle
 10
-1.984223686427853
 20
-28.98071645138696
 30
0.0
 40
42.0
100
AcDbArc
 50
80.83305092769956
 51
82.82380271754278
  0
ARC
  5
2FA
330
2EC
100
AcDbEntity
  8
GEN_LAYER
  6
Continuous
 62
    15
100
AcDbCircle
 10
-1.984223686427853
 20
-28.98071645138696
 30
0.0
 40
42.0
100
AcDbArc
 50
80.83305092769956
 51
82.82380271754278
  0
LINE
  5
2FB
330
2EC
100
AcDbEntity
  8
GEN_LAYER
  6
Continuous
 62
    15
100
AcDbLine
 10
2.700000419937496
 20
12.19420091847524
 30
0.0
 11
2.700000419937496
 21
8.999999848696103
 31
0.0
  0
LINE
  5
2FC
330
2EC
100
AcDbEntity
  8
GEN_LAYER
  6
Continuous
 62
    15
100
AcDbLine
 10
2.700000419937496
 20
8.999999848696103
 30
0.0
 11
1.000000419937479
 21
8.999999848696103
 31
0.0
  0
LINE
  5
2FD
330
2EC
100
AcDbEntity
  8
GEN_LAYER
  6
Continuous
 62
    15
100
AcDbLine
 10
1.000000419937479
 20
8.999999848696103
 30
0.0
 11
1.000000419937479
 21
10.4999998486961
 31
0.0
  0
LINE
  5
2FE
330
2EC
100
AcDbEntity
  8
GEN_LAYER
  6
Continuous
 62
    15
100
AcDbLine
 10
0.0000004199374786
 20
10.4999998486961
 30
0.0
 11
0.0000004199374786
 21
0.5006775574981752
 31
0.0
  0
LINE
  5
2FF
330
2EC
100
AcDbEntity
  8
GEN_LAYER
  6
Continuous
 62
    15
100
AcDbLine
 10
1.200000419937481
 20
0.5006775574981752
 30
0.0
 11
1.200000419937481
 21
7.799999848696107
 31
0.0
  0
LINE
  5
300
330
2EC
100
AcDbEntity
  8
GEN_LAYER
  6
Continuous
 62
    15
100
AcDbLine
 10
1.200000419937481
 20
7.799999848696107
 30
0.0
 11
2.900000419937498
 21
7.799999848696107
 31
0.0
  0
LINE
  5
301
330
2EC
100
AcDbEntity
  8
GEN_LAYER
  6
Continuous
 62
    15
100
AcDbLine
 10
3.900000419937498
 20
8.799999848696107
 30
0.0
 11
3.900000419937498
 21
11.39273901957896
 31
0.0
  0
LINE
  5
302
330
2EC
100
AcDbEntity
  8
GEN_LAYER
  6
Continuous
 62
    15
100
AcDbLine
 10
22.2000004199375
 20
-0.0000001513038903
 30
0.0
 11
19.2000004199375
 21
-0.0000001513038903
 31
0.0
  0
LINE
  5
303
330
2EC
100
AcDbEntity
  8
GEN_LAYER
  6
Continuous
 62
    15
100
AcDbLine
 10
18.7000004199375
 20
0.4999998486961097
 30
0.0
 11
18.7000004199375
 21
0.4999998486961097
 31
0.0
  0
LINE
  5
304
330
2EC
100
AcDbEntity
  8
GEN_LAYER
  6
Continuous
 62
    15
100
AcDbLine
 10
19.2000004199375
 20
0.9999998486961097
 30
0.0
 11
21.50000041993749
 21
0.9999998486961097
 31
0.0
  0
LINE
  5
305
330
2EC
100
AcDbEntity
  8
GEN_LAYER
  6
Continuous
 62
    15
100
AcDbLine
 10
21.50000041993749
 20
0.9999998486961097
 30
0.0
 11
21.50000041993749
 21
4.38290472680664
 31
0.0
  0
ARC
  5
306
330
2EC
100
AcDbEntity
  8
GEN_LAYER
  6
Continuous
 62
    15
100
AcDbCircle
 10
-1.984223686427853
 20
-28.98071645138696
 30
0.0
 40
40.8
100
AcDbArc
 50
54.85877805366181
 51
80.14345199113663
  0
ARC
  5
307
330
2EC
100
AcDbEntity
  8
GEN_LAYER
  6
Continuous
 62
    15
100
AcDbCircle
 10
-1.984223686427853
 20
-28.98071645138696
 30
0.0
 40
40.8
100
AcDbArc
 50
54.85877805366181
 51
80.14345199113663
  0
LINE
  5
308
330
2EC
100
AcDbEntity
  8
GEN_LAYER
  6
Continuous
 62
    15
100
AcDbLine
 10
5.000000419937479
 20
11.21705231296195
 30
0.0
 11
3.900000419937498
 21
11.39273901957896
 31
0.0
  0
ARC
  5
309
330
2EC
100
AcDbEntity
  8
GEN_LAYER
  6
Continuous
 62
    15
100
AcDbCircle
 10
3.200000419937496
 20
12.19420091847524
 30
0.0
 40
0.5
100
AcDbArc
 50
82.82380271754276
 51
180.0
  0
ARC
  5
30A
330
2EC
100
AcDbEntity
  8
GEN_LAYER
  6
Continuous
 62
    15
100
AcDbCircle
 10
3.200000419937496
 20
12.19420091847524
 30
0.0
 40
0.5
100
AcDbArc
 50
82.82380271754276
 51
180.0
  0
ARC
  5
30B
330
2EC
100
AcDbEntity
  8
GEN_LAYER
  6
Continuous
 62
    15
100
AcDbCircle
 10
2.900000419937498
 20
8.799999848696107
 30
0.0
 40
1.0
100
AcDbArc
 50
270.0
 51
0.0
  0
ARC
  5
30C
330
2EC
100
AcDbEntity
  8
GEN_LAYER
  6
Continuous
 62
    15
100
AcDbCircle
 10
2.900000419937498
 20
8.799999848696107
 30
0.0
 40
1.0
100
AcDbArc
 50
270.0
 51
0.0
  0
ARC
  5
30D
330
2EC
100
AcDbEntity
  8
GEN_LAYER
  6
Continuous
 62
    15
100
AcDbCircle
 10
19.2000004199375
 20
0.4999998486961097
 30
0.0
 40
0.5
100
AcDbArc
 50
90.0
 51
180.0
  0
ARC
  5
30E
330
2EC
100
AcDbEntity
  8
GEN_LAYER
  6
Continuous
 62
    15
100
AcDbCircle
 10
19.2000004199375
 20
0.4999998486961097
 30
0.0
 40
0.5
100
AcDbArc
 50
90.0
 51
180.0
  0
ARC
  5
30F
330
2EC
100
AcDbEntity
  8
GEN_LAYER
  6
Continuous
 62
    15
100
AcDbCircle
 10
19.2000004199375
 20
0.4999998486961097
 30
0.0
 40
0.5
100
AcDbArc
 50
180.0
 51
270.0
  0
ARC
  5
310
330
2EC
100
AcDbEntity
  8
GEN_LAYER
  6
Continuous
 62
    15
100
AcDbCircle
 10
19.2000004199375
 20
0.4999998486961097
 30
0.0
 40
0.5
100
AcDbArc
 50
180.0
 51
270.0
  0
ARC
  5
311
330
2EC
100
AcDbEntity
  8
GEN_LAYER
  6
Continuous
 62
    15
100
AcDbCircle
 10
22.2000004199375
 20
0.4999998486961097
 30
0.0
 40
0.5
100
AcDbArc
 50
270.0
 51
0.0
  0
ARC
  5
312
330
2EC
100
AcDbEntity
  8
GEN_LAYER
  6
Continuous
 62
    15
100
AcDbCircle
 10
22.2000004199375
 20
0.4999998486961097
 30
0.0
 40
0.5
100
AcDbArc
 50
270.0
 51
0.0
  0
ARC
  5
313
330
2EC
100
AcDbEntity
  8
GEN_LAYER
  6
Continuous
 62
    15
100
AcDbCircle
 10
0.5000004199374786
 20
10.4999998486961
 30
0.0
 40
0.5000000000000036
100
AcDbArc
 50
0.0
 51
180.0
  0
ARC
  5
314
330
2EC
100
AcDbEntity
  8
GEN_LAYER
  6
Continuous
 62
    15
100
AcDbCircle
 10
0.5000004199374786
 20
10.4999998486961
 30
0.0
 40
0.5000000000000036
100
AcDbArc
 50
0.0
 51
180.0
  0
ARC
  5
315
330
2EC
100
AcDbEntity
  8
GEN_LAYER
  6
Continuous
 62
    15
100
AcDbCircle
 10
5.200000419937496
 20
12.40028068485322
 30
0.0
 40
0.5
100
AcDbArc
 50
0.0
 51
170.4920026071159
  0
ARC
  5
316
330
2EC
100
AcDbEntity
  8
GEN_LAYER
  6
Continuous
 62
    15
100
AcDbCircle
 10
5.200000419937496
 20
12.40028068485322
 30
0.0
 40
0.5
100
AcDbArc
 50
0.0
 51
170.4920026071159
  0
ARC
  5
317
330
2EC
100
AcDbEntity
  8
GEN_LAYER
  6
Continuous
 62
    15
100
AcDbCircle
 10
5.200000419937496
 20
12.40028068485322
 30
0.0
 40
0.5
100
AcDbArc
 50
349.8099059659485
 51
0.0
  0
ARC
  5
318
330
2EC
100
AcDbEntity
  8
GEN_LAYER
  6
Continuous
 62
    15
100
AcDbCircle
 10
5.200000419937496
 20
12.40028068485322
 30
0.0
 40
0.5
100
AcDbArc
 50
349.8099059659485
 51
0.0
  0
ARC
  5
319
330
2EC
100
AcDbEntity
  8
GEN_LAYER
  6
Continuous
 62
    15
100
AcDbCircle
 10
10.2000004199375
 20
11.21312241635326
 30
0.0
 40
0.5
100
AcDbArc
 50
0.0
 51
163.4770709868812
  0
ARC
  5
31A
330
2EC
100
AcDbEntity
  8
GEN_LAYER
  6
Continuous
 62
    15
100
AcDbCircle
 10
10.2000004199375
 20
11.21312241635326
 30
0.0
 40
0.5
100
AcDbArc
 50
0.0
 51
163.4770709868812
  0
ARC
  5
31B
330
2EC
100
AcDbEntity
  8
GEN_LAYER
  6
Continuous
 62
    15
100
AcDbCircle
 10
10.2000004199375
 20
11.21312241635326
 30
0.0
 40
0.5
100
AcDbArc
 50
342.7949743457135
 51
0.0
  0
ARC
  5
31C
330
2EC
100
AcDbEntity
  8
GEN_LAYER
  6
Continuous
 62
    15
100
AcDbCircle
 10
10.2000004199375
 20
11.21312241635326
 30
0.0
 40
0.5
100
AcDbArc
 50
342.7949743457135
 51
0.0
  0
ARC
  5
31D
330
2EC
100
AcDbEntity
  8
GEN_LAYER
  6
Continuous
 62
    15
100
AcDbCircle
 10
15.2000004199375
 20
9.342937365312341
 30
0.0
 40
0.5
100
AcDbArc
 50
0.0
 51
156.1897114766359
  0
ARC
  5
31E
330
2EC
100
AcDbEntity
  8
GEN_LAYER
  6
Continuous
 62
    15
100
AcDbCircle
 10
15.2000004199375
 20
9.342937365312341
 30
0.0
 40
0.5
100
AcDbArc
 50
0.0
 51
156.1897114766359
  0
ARC
  5
31F
330
2EC
100
AcDbEntity
  8
GEN_LAYER
  6
Continuous
 62
    15
100
AcDbCircle
 10
15.2000004199375
 20
9.342937365312341
 30
0.0
 40
0.5
100
AcDbArc
 50
335.5076148354682
 51
0.0
  0
ARC
  5
320
330
2EC
100
AcDbEntity
  8
GEN_LAYER
  6
Continuous
 62
    15
100
AcDbCircle
 10
15.2000004199375
 20
9.342937365312341
 30
0.0
 40
0.5
100
AcDbArc
 50
335.5076148354682
 51
0.0
  0
ARC
  5
321
330
2EC
100
AcDbEntity
  8
GEN_LAYER
  6
Continuous
 62
    15
100
AcDbCircle
 10
20.2000004199375
 20
6.682432607530391
 30
0.0
 40
0.5
100
AcDbArc
 50
0.0
 51
148.4574143436405
  0
ARC
  5
322
330
2EC
100
AcDbEntity
  8
GEN_LAYER
  6
Continuous
 62
    15
100
AcDbCircle
 10
20.2000004199375
 20
6.682432607530391
 30
0.0
 40
0.5
100
AcDbArc
 50
0.0
 51
148.4574143436405
  0
ARC
  5
323
330
2EC
100
AcDbEntity
  8
GEN_LAYER
  6
Continuous
 62
    15
100
AcDbCircle
 10
20.2000004199375
 20
6.682432607530391
 30
0.0
 40
0.5
100
AcDbArc
 50
327.7753177024748
 51
0.0
  0
ARC
  5
324
330
2EC
100
AcDbEntity
  8
GEN_LAYER
  6
Continuous
 62
    15
100
AcDbCircle
 10
20.2000004199375
 20
6.682432607530391
 30
0.0
 40
0.5
100
AcDbArc
 50
327.7753177024748
 51
0.0
  0
ARC
  5
325
330
2EC
100
AcDbEntity
  8
GEN_LAYER
  6
Continuous
 62
    15
100
AcDbCircle
 10
21.7000004199375
 20
4.486544094995718
 30
0.0
 40
1.0
100
AcDbArc
 50
0.0
 51
54.71359180118517
  0
ARC
  5
326
330
2EC
100
AcDbEntity
  8
GEN_LAYER
  6
Continuous
 62
    15
100
AcDbCircle
 10
21.7000004199375
 20
4.486544094995718
 30
0.0
 40
1.0
100
AcDbArc
 50
0.0
 51
54.71359180118517
  0
LINE
  5
327
330
2EC
100
AcDbEntity
  8
GEN_LAYER
  6
Continuous
 62
    15
100
AcDbLine
 10
0.5000004199374786
 20
0.0006775574981752
 30
0.0
 11
0.7000004199374814
 21
0.0006775574981752
 31
0.0
  0
ARC
  5
328
330
2EC
100
AcDbEntity
  8
GEN_LAYER
  6
Continuous
 62
    15
100
AcDbCircle
 10
0.5000004199374786
 20
0.5006775574981752
 30
0.0
 40
0.5
100
AcDbArc
 50
180.0
 51
270.0
  0
ARC
  5
329
330
2EC
100
AcDbEntity
  8
GEN_LAYER
  6
Continuous
 62
    15
100
AcDbCircle
 10
0.5000004199374786
 20
0.5006775574981752
 30
0.0
 40
0.5
100
AcDbArc
 50
180.0
 51
270.0
  0
ARC
  5
32A
330
2EC
100
AcDbEntity
  8
GEN_LAYER
  6
Continuous
 62
    15
100
AcDbCircle
 10
0.7000004199374814
 20
0.5006775574981752
 30
0.0
 40
0.5
100
AcDbArc
 50
270.0
 51
0.0
  0
ARC
  5
32B
330
2EC
100
AcDbEntity
  8
GEN_LAYER
  6
Continuous
 62
    15
100
AcDbCircle
 10
0.7000004199374814
 20
0.5006775574981752
 30
0.0
 40
0.5
100
AcDbArc
 50
270.0
 51
0.0
  0
ENDBLK
  5
2EE
330
2EC
100
AcDbEntity
  8
0
100
AcDbBlockEnd
  0
BLOCK
  5
32D
330
32C
100
AcDbEntity
  8
0
100
AcDbBlockBegin
  2
GEN_BLOCK00002
 70
     0
 10
0.0
 20
0.0
 30
0.0
  3
GEN_BLOCK00002
  1
GEN_BLOCK00002
  0
LINE
  5
330
330
32C
100
AcDbEntity
  8
0
  6
Continuous
 62
    16
100
AcDbLine
 10
0.0000056894531326
 20
0.0000014196389486
 30
0.0
 11
0.0000056894531326
 21
203.7372880090721
 31
0.0
  0
LINE
  5
331
330
32C
100
AcDbEntity
  8
0
  6
Continuous
 62
    16
100
AcDbLine
 10
0.0000056894531326
 20
0.0000014196389486
 30
0.0
 11
279.274956387857
 21
0.0000014196389486
 31
0.0
  0
LINE
  5
332
330
32C
100
AcDbEntity
  8
0
  6
Continuous
 62
    16
100
AcDbLine
 10
0.0000056894531326
 20
203.7372880090721
 30
0.0
 11
279.274956387857
 21
203.7372880090721
 31
0.0
  0
LINE
  5
333
330
32C
100
AcDbEntity
  8
0
  6
Continuous
 62
    16
100
AcDbLine
 10
279.274956387857
 20
0.0000014196389486
 30
0.0
 11
279.274956387857
 21
203.7372880090721
 31
0.0
  0
LINE
  5
334
330
32C
100
AcDbEntity
  8
0
  6
Continuous
 62
    16
100
AcDbLine
 10
0.0000056894531326
 20
20.00000141963896
 30
0.0
 11
279.2749576894531
 21
20.00000141963896
 31
0.0
  0
LINE
  5
335
330
32C
100
AcDbEntity
  8
0
  6
Continuous
 62
    16
100
AcDbLine
 10
120.0000056894531
 20
20.00000141963896
 30
0.0
 11
120.0000056894531
 21
0.0000014196389486
 31
0.0
  0
LINE
  5
336
330
32C
100
AcDbEntity
  8
0
  6
Continuous
 62
    16
100
AcDbLine
 10
185.0000056894531
 20
20.00000141963896
 30
0.0
 11
185.0000056894531
 21
0.0000014196389486
 31
0.0
  0
LINE
  5
337
330
32C
100
AcDbEntity
  8
0
  6
Continuous
 62
    16
100
AcDbLine
 10
216.4249896894531
 20
0.0000014196389486
 30
0.0
 11
216.4249896894531
 21
20.00000141963896
 31
0.0
  0
LINE
  5
338
330
32C
100
AcDbEntity
  8
0
  6
Continuous
 62
    16
100
AcDbLine
 10
247.8499736894531
 20
0.0000014196389486
 30
0.0
 11
247.8499736894531
 21
20.00000141963896
 31
0.0
  0
LINE
  5
339
330
32C
100
AcDbEntity
  8
0
  6
Continuous
 62
    16
100
AcDbLine
 10
120.0000056894531
 20
10.00000141963895
 30
0.0
 11
279.2749576894531
 21
10.00000141963898
 31
0.0
  0
ENDBLK
  5
32E
330
32C
100
AcDbEntity
  8
0
100
AcDbBlockEnd
  0
BLOCK
  5
33C
330
33B
100
AcDbEntity
  8
0
100
AcDbBlockBegin
  2
GEN_BLOCK00003
 70
     0
 10
0.0
 20
0.0
 30
0.0
  3
GEN_BLOCK00003
  1
GEN_BLOCK00003
  0
LINE
  5
33F
330
33B
100
AcDbEntity
  8
1
  6
Continuous
 62
    15
100
AcDbLine
 10
29.41610874581448
 20
16.50095302781065
 30
0.0
 11
29.41610874581448
 21
14.37640343509409
 31
0.0
  0
LINE
  5
340
330
33B
100
AcDbEntity
  8
1
  6
Continuous
 62
    15
100
AcDbLine
 10
29.91610875326506
 20
13.87640342764353
 30
0.0
 11
30.91610876816622
 21
13.87640342764353
 31
0.0
  0
LINE
  5
341
330
33B
100
AcDbEntity
  8
1
  6
Continuous
 62
    15
100
AcDbLine
 10
31.4161087756168
 20
14.37640343509409
 30
0.0
 11
31.4161087756168
 21
15.87640345744585
 31
0.0
  0
LINE
  5
342
330
33B
100
AcDbEntity
  8
1
  6
Continuous
 62
    15
100
AcDbLine
 10
31.91610878306738
 20
16.37640346489643
 30
0.0
 11
32.41610879051796
 21
16.37640346489643
 31
0.0
  0
LINE
  5
343
330
33B
100
AcDbEntity
  8
1
  6
Continuous
 62
    15
100
AcDbLine
 10
6.655484689771725
 20
1.137750728715932
 30
0.0
 11
27.69020643582338
 21
2.22891057705191
 31
0.0
  0
LINE
  5
344
330
33B
100
AcDbEntity
  8
1
  6
Continuous
 62
    15
100
AcDbLine
 10
29.89020646860597
 20
2.343033869534286
 30
0.0
 11
32.44201107517705
 21
2.47540675095888
 31
0.0
  0
LINE
  5
345
330
33B
100
AcDbEntity
  8
1
  6
Continuous
 62
    15
100
AcDbLine
 10
32.91610879796854
 20
15.87640345744585
 30
0.0
 11
32.91610879796854
 21
14.17640343211387
 31
0.0
  0
LINE
  5
346
330
33B
100
AcDbEntity
  8
1
  6
Continuous
 62
    15
100
AcDbLine
 10
32.91610879796854
 20
3.17290873523087
 30
0.0
 11
32.91610879796854
 21
2.974735379319013
 31
0.0
  0
ARC
  5
347
330
33B
100
AcDbEntity
  8
1
  6
Continuous
 62
    15
100
AcDbCircle
 10
71.75370139126295
 20
-152.9250369269741
 30
0.0
 40
173.5000025853515
100
AcDbArc
 50
104.7470735585399
 51
112.8659700156262
  0
ARC
  5
348
330
33B
100
AcDbEntity
  8
1
  6
Continuous
 62
    15
100
AcDbCircle
 10
71.75370139126295
 20
-152.9250369269741
 30
0.0
 40
173.5000025853515
100
AcDbArc
 50
104.7470735585399
 51
112.8659700156262
  0
LINE
  5
349
330
33B
100
AcDbEntity
  8
1
  6
Continuous
 62
    15
100
AcDbLine
 10
28.21610872793309
 20
3.457804844079431
 30
0.0
 11
6.060370083998635
 21
2.308493115103274
 31
0.0
  0
LINE
  5
34A
330
33B
100
AcDbEntity
  8
1
  6
Continuous
 62
    15
100
AcDbLine
 10
28.21610872793309
 20
1.729581948691759
 30
0.0
 11
28.21610872793309
 21
0.500000172191597
 31
0.0
  0
LINE
  5
34B
330
33B
100
AcDbEntity
  8
1
  6
Continuous
 62
    15
100
AcDbLine
 10
28.71610873538367
 20
0.0000001647410253
 30
0.0
 11
28.9161087383639
 21
0.0000001647410253
 31
0.0
  0
LINE
  5
34C
330
33B
100
AcDbEntity
  8
1
  6
Continuous
 62
    15
100
AcDbLine
 10
29.41610874581448
 20
0.500000172191597
 30
0.0
 11
29.41610874581448
 21
1.843705241174143
 31
0.0
  0
ARC
  5
34D
330
33B
100
AcDbEntity
  8
1
  6
Continuous
 62
    15
100
AcDbCircle
 10
3.916108365834546
 20
8.391614058633973
 30
0.0
 40
0.2500000037252903
100
AcDbArc
 50
0.0
 51
22.7670174980685
  0
ARC
  5
34E
330
33B
100
AcDbEntity
  8
1
  6
Continuous
 62
    15
100
AcDbCircle
 10
3.916108365834546
 20
8.391614058633973
 30
0.0
 40
0.2500000037252903
100
AcDbArc
 50
0.0
 51
22.7670174980685
  0
ARC
  5
34F
330
33B
100
AcDbEntity
  8
1
  6
Continuous
 62
    15
100
AcDbCircle
 10
3.916108365834546
 20
8.391614058633973
 30
0.0
 40
0.2500000037252903
100
AcDbArc
 50
22.7670174980685
 51
202.8488686186214
  0
ARC
  5
350
330
33B
100
AcDbEntity
  8
1
  6
Continuous
 62
    15
100
AcDbCircle
 10
3.916108365834546
 20
8.391614058633973
 30
0.0
 40
0.2500000037252903
100
AcDbArc
 50
22.7670174980685
 51
202.8488686186214
  0
ARC
  5
351
330
33B
100
AcDbEntity
  8
1
  6
Continuous
 62
    15
100
AcDbCircle
 10
8.916108440340352
 20
10.40419445807315
 30
0.0
 40
0.2500000037252903
100
AcDbArc
 50
0.0
 51
201.0841380651712
  0
ARC
  5
352
330
33B
100
AcDbEntity
  8
1
  6
Continuous
 62
    15
100
AcDbCircle
 10
8.916108440340352
 20
10.40419445807315
 30
0.0
 40
0.2500000037252903
100
AcDbArc
 50
0.0
 51
201.0841380651712
  0
ARC
  5
353
330
33B
100
AcDbEntity
  8
1
  6
Continuous
 62
    15
100
AcDbCircle
 10
13.91610851484616
 20
12.24098186308451
 30
0.0
 40
0.2500000037252903
100
AcDbArc
 50
0.0
 51
199.3400837368997
  0
ARC
  5
354
330
33B
100
AcDbEntity
  8
1
  6
Continuous
 62
    15
100
AcDbCircle
 10
13.91610851484616
 20
12.24098186308451
 30
0.0
 40
0.2500000037252903
100
AcDbArc
 50
0.0
 51
199.3400837368997
  0
ARC
  5
355
330
33B
100
AcDbEntity
  8
1
  6
Continuous
 62
    15
100
AcDbCircle
 10
18.91610858935196
 20
13.90778268474254
 30
0.0
 40
0.2500000037252903
100
AcDbArc
 50
0.0
 51
197.6144316402483
  0
ARC
  5
356
330
33B
100
AcDbEntity
  8
1
  6
Continuous
 62
    15
100
AcDbCircle
 10
18.91610858935196
 20
13.90778268474254
 30
0.0
 40
0.2500000037252903
100
AcDbArc
 50
0.0
 51
197.6144316402483
  0
ARC
  5
357
330
33B
100
AcDbEntity
  8
1
  6
Continuous
 62
    15
100
AcDbCircle
 10
71.75370139126295
 20
-152.9250369269741
 30
0.0
 40
175.0000026077032
100
AcDbArc
 50
111.1250636254347
 51
112.7260919377975
  0
ARC
  5
358
330
33B
100
AcDbEntity
  8
1
  6
Continuous
 62
    15
100
AcDbCircle
 10
71.75370139126295
 20
-152.9250369269741
 30
0.0
 40
175.0000026077032
100
AcDbArc
 50
111.1250636254347
 51
112.7260919377975
  0
ARC
  5
359
330
33B
100
AcDbEntity
  8
1
  6
Continuous
 62
    15
100
AcDbCircle
 10
71.75370139126295
 20
-152.9250369269741
 30
0.0
 40
175.0000026077032
100
AcDbArc
 50
109.3810092971752
 51
110.9613613843404
  0
ARC
  5
35A
330
33B
100
AcDbEntity
  8
1
  6
Continuous
 62
    15
100
AcDbCircle
 10
71.75370139126295
 20
-152.9250369269741
 30
0.0
 40
175.0000026077032
100
AcDbArc
 50
109.3810092971752
 51
110.9613613843404
  0
ARC
  5
35B
330
33B
100
AcDbEntity
  8
1
  6
Continuous
 62
    15
100
AcDbCircle
 10
71.75370139126295
 20
-152.9250369269741
 30
0.0
 40
175.0000026077032
100
AcDbArc
 50
107.6553572005216
 51
109.2173070560809
  0
ARC
  5
35C
330
33B
100
AcDbEntity
  8
1
  6
Continuous
 62
    15
100
AcDbCircle
 10
71.75370139126295
 20
-152.9250369269741
 30
0.0
 40
175.0000026077032
100
AcDbArc
 50
107.6553572005216
 51
109.2173070560809
  0
ARC
  5
35D
330
33B
100
AcDbEntity
  8
1
  6
Continuous
 62
    15
100
AcDbCircle
 10
23.91610866385777
 20
15.40964647113924
 30
0.0
 40
0.2500000037252903
100
AcDbArc
 50
0.0
 51
195.9050913808526
  0
ARC
  5
35E
330
33B
100
AcDbEntity
  8
1
  6
Continuous
 62
    15
100
AcDbCircle
 10
23.91610866385777
 20
15.40964647113924
 30
0.0
 40
0.2500000037252903
100
AcDbArc
 50
0.0
 51
195.9050913808526
  0
ARC
  5
35F
330
33B
100
AcDbEntity
  8
1
  6
Continuous
 62
    15
100
AcDbCircle
 10
28.91610873836358
 20
16.75095303153592
 30
0.0
 40
0.2500000037252903
100
AcDbArc
 50
0.0
 51
194.2101270985731
  0
ARC
  5
360
330
33B
100
AcDbEntity
  8
1
  6
Continuous
 62
    15
100
AcDbCircle
 10
28.91610873836358
 20
16.75095303153592
 30
0.0
 40
0.2500000037252903
100
AcDbArc
 50
0.0
 51
194.2101270985731
  0
ARC
  5
361
330
33B
100
AcDbEntity
  8
1
  6
Continuous
 62
    15
100
AcDbCircle
 10
71.75370139126295
 20
-152.9250369269741
 30
0.0
 40
175.0000026077032
100
AcDbArc
 50
105.9460169411213
 51
107.4916549594273
  0
ARC
  5
362
330
33B
100
AcDbEntity
  8
1
  6
Continuous
 62
    15
100
AcDbCircle
 10
71.75370139126295
 20
-152.9250369269741
 30
0.0
 40
175.0000026077032
100
AcDbArc
 50
105.9460169411213
 51
107.4916549594273
  0
ARC
  5
363
330
33B
100
AcDbEntity
  8
1
  6
Continuous
 62
    15
100
AcDbCircle
 10
71.75370139126295
 20
-152.9250369269741
 30
0.0
 40
175.0000026077032
100
AcDbArc
 50
104.2510526588625
 51
105.782314700027
  0
ARC
  5
364
330
33B
100
AcDbEntity
  8
1
  6
Continuous
 62
    15
100
AcDbCircle
 10
71.75370139126295
 20
-152.9250369269741
 30
0.0
 40
175.0000026077032
100
AcDbArc
 50
104.2510526588625
 51
105.782314700027
  0
ARC
  5
365
330
33B
100
AcDbEntity
  8
1
  6
Continuous
 62
    15
100
AcDbCircle
 10
3.916108365834546
 20
8.391614058633973
 30
0.0
 40
0.2500000037252903
100
AcDbArc
 50
0.0
 51
22.7670174980685
  0
ARC
  5
366
330
33B
100
AcDbEntity
  8
1
  6
Continuous
 62
    15
100
AcDbCircle
 10
3.916108365834546
 20
8.391614058633973
 30
0.0
 40
0.2500000037252903
100
AcDbArc
 50
0.0
 51
22.7670174980685
  0
ARC
  5
367
330
33B
100
AcDbEntity
  8
1
  6
Continuous
 62
    15
100
AcDbCircle
 10
3.916108365834546
 20
8.391614058633973
 30
0.0
 40
0.2500000037252903
100
AcDbArc
 50
22.7670174980685
 51
202.8488686186214
  0
ARC
  5
368
330
33B
100
AcDbEntity
  8
1
  6
Continuous
 62
    15
100
AcDbCircle
 10
3.916108365834546
 20
8.391614058633973
 30
0.0
 40
0.2500000037252903
100
AcDbArc
 50
22.7670174980685
 51
202.8488686186214
  0
ARC
  5
369
330
33B
100
AcDbEntity
  8
1
  6
Continuous
 62
    15
100
AcDbCircle
 10
8.916108440340352
 20
10.40419445807315
 30
0.0
 40
0.2500000037252903
100
AcDbArc
 50
0.0
 51
201.0841380651712
  0
ARC
  5
36A
330
33B
100
AcDbEntity
  8
1
  6
Continuous
 62
    15
100
AcDbCircle
 10
8.916108440340352
 20
10.40419445807315
 30
0.0
 40
0.2500000037252903
100
AcDbArc
 50
0.0
 51
201.0841380651712
  0
ARC
  5
36B
330
33B
100
AcDbEntity
  8
1
  6
Continuous
 62
    15
100
AcDbCircle
 10
13.91610851484616
 20
12.24098186308451
 30
0.0
 40
0.2500000037252903
100
AcDbArc
 50
0.0
 51
199.3400837368997
  0
ARC
  5
36C
330
33B
100
AcDbEntity
  8
1
  6
Continuous
 62
    15
100
AcDbCircle
 10
13.91610851484616
 20
12.24098186308451
 30
0.0
 40
0.2500000037252903
100
AcDbArc
 50
0.0
 51
199.3400837368997
  0
ARC
  5
36D
330
33B
100
AcDbEntity
  8
1
  6
Continuous
 62
    15
100
AcDbCircle
 10
18.91610858935196
 20
13.90778268474254
 30
0.0
 40
0.2500000037252903
100
AcDbArc
 50
0.0
 51
197.6144316402483
  0
ARC
  5
36E
330
33B
100
AcDbEntity
  8
1
  6
Continuous
 62
    15
100
AcDbCircle
 10
18.91610858935196
 20
13.90778268474254
 30
0.0
 40
0.2500000037252903
100
AcDbArc
 50
0.0
 51
197.6144316402483
  0
ARC
  5
36F
330
33B
100
AcDbEntity
  8
1
  6
Continuous
 62
    15
100
AcDbCircle
 10
71.75370139126295
 20
-152.9250369269741
 30
0.0
 40
175.0000026077032
100
AcDbArc
 50
112.8897941788918
 51
113.9974371182807
  0
ARC
  5
370
330
33B
100
AcDbEntity
  8
1
  6
Continuous
 62
    15
100
AcDbCircle
 10
71.75370139126295
 20
-152.9250369269741
 30
0.0
 40
175.0000026077032
100
AcDbArc
 50
112.8897941788918
 51
113.9974371182807
  0
ARC
  5
371
330
33B
100
AcDbEntity
  8
1
  6
Continuous
 62
    15
100
AcDbCircle
 10
71.75370139126295
 20
-152.9250369269741
 30
0.0
 40
175.0000026077032
100
AcDbArc
 50
111.1250636254347
 51
112.7260919377975
  0
ARC
  5
372
330
33B
100
AcDbEntity
  8
1
  6
Continuous
 62
    15
100
AcDbCircle
 10
71.75370139126295
 20
-152.9250369269741
 30
0.0
 40
175.0000026077032
100
AcDbArc
 50
111.1250636254347
 51
112.7260919377975
  0
ARC
  5
373
330
33B
100
AcDbEntity
  8
1
  6
Continuous
 62
    15
100
AcDbCircle
 10
71.75370139126295
 20
-152.9250369269741
 30
0.0
 40
175.0000026077032
100
AcDbArc
 50
109.3810092971752
 51
110.9613613843404
  0
ARC
  5
374
330
33B
100
AcDbEntity
  8
1
  6
Continuous
 62
    15
100
AcDbCircle
 10
71.75370139126295
 20
-152.9250369269741
 30
0.0
 40
175.0000026077032
100
AcDbArc
 50
109.3810092971752
 51
110.9613613843404
  0
ARC
  5
375
330
33B
100
AcDbEntity
  8
1
  6
Continuous
 62
    15
100
AcDbCircle
 10
71.75370139126295
 20
-152.9250369269741
 30
0.0
 40
175.0000026077032
100
AcDbArc
 50
107.6553572005216
 51
109.2173070560809
  0
ARC
  5
376
330
33B
100
AcDbEntity
  8
1
  6
Continuous
 62
    15
100
AcDbCircle
 10
71.75370139126295
 20
-152.9250369269741
 30
0.0
 40
175.0000026077032
100
AcDbArc
 50
107.6553572005216
 51
109.2173070560809
  0
ARC
  5
377
330
33B
100
AcDbEntity
  8
1
  6
Continuous
 62
    15
100
AcDbCircle
 10
23.91610866385777
 20
15.40964647113924
 30
0.0
 40
0.2500000037252903
100
AcDbArc
 50
0.0
 51
195.9050913808526
  0
ARC
  5
378
330
33B
100
AcDbEntity
  8
1
  6
Continuous
 62
    15
100
AcDbCircle
 10
23.91610866385777
 20
15.40964647113924
 30
0.0
 40
0.2500000037252903
100
AcDbArc
 50
0.0
 51
195.9050913808526
  0
ARC
  5
379
330
33B
100
AcDbEntity
  8
1
  6
Continuous
 62
    15
100
AcDbCircle
 10
28.91610873836358
 20
16.75095303153592
 30
0.0
 40
0.2500000037252903
100
AcDbArc
 50
0.0
 51
194.2101270985731
  0
ARC
  5
37A
330
33B
100
AcDbEntity
  8
1
  6
Continuous
 62
    15
100
AcDbCircle
 10
28.91610873836358
 20
16.75095303153592
 30
0.0
 40
0.2500000037252903
100
AcDbArc
 50
0.0
 51
194.2101270985731
  0
ARC
  5
37B
330
33B
100
AcDbEntity
  8
1
  6
Continuous
 62
    15
100
AcDbCircle
 10
71.75370139126295
 20
-152.9250369269741
 30
0.0
 40
175.0000026077032
100
AcDbArc
 50
105.9460169411213
 51
107.4916549594273
  0
ARC
  5
37C
330
33B
100
AcDbEntity
  8
1
  6
Continuous
 62
    15
100
AcDbCircle
 10
71.75370139126295
 20
-152.9250369269741
 30
0.0
 40
175.0000026077032
100
AcDbArc
 50
105.9460169411213
 51
107.4916549594273
  0
ARC
  5
37D
330
33B
100
AcDbEntity
  8
1
  6
Continuous
 62
    15
100
AcDbCircle
 10
71.75370139126295
 20
-152.9250369269741
 30
0.0
 40
175.0000026077032
100
AcDbArc
 50
104.2510526588625
 51
105.782314700027
  0
ARC
  5
37E
330
33B
100
AcDbEntity
  8
1
  6
Continuous
 62
    15
100
AcDbCircle
 10
71.75370139126295
 20
-152.9250369269741
 30
0.0
 40
175.0000026077032
100
AcDbArc
 50
104.2510526588625
 51
105.782314700027
  0
ARC
  5
37F
330
33B
100
AcDbEntity
  8
1
  6
Continuous
 62
    15
100
AcDbCircle
 10
27.71610872048251
 20
1.729581948691759
 30
0.0
 40
0.5000000074505806
100
AcDbArc
 50
0.0
 51
92.96951236853471
  0
ARC
  5
380
330
33B
100
AcDbEntity
  8
1
  6
Continuous
 62
    15
100
AcDbCircle
 10
27.71610872048251
 20
1.729581948691759
 30
0.0
 40
0.5000000074505806
100
AcDbArc
 50
0.0
 51
92.96951236853471
  0
ARC
  5
381
330
33B
100
AcDbEntity
  8
1
  6
Continuous
 62
    15
100
AcDbCircle
 10
29.91610875326506
 20
1.843705241174143
 30
0.0
 40
0.5000000074505806
100
AcDbArc
 50
92.96951236853477
 51
180.0
  0
ARC
  5
382
330
33B
100
AcDbEntity
  8
1
  6
Continuous
 62
    15
100
AcDbCircle
 10
29.91610875326506
 20
1.843705241174143
 30
0.0
 40
0.5000000074505806
100
AcDbArc
 50
92.96951236853477
 51
180.0
  0
ARC
  5
383
330
33B
100
AcDbEntity
  8
1
  6
Continuous
 62
    15
100
AcDbCircle
 10
28.9161087383639
 20
0.500000172191597
 30
0.0
 40
0.5000000074505806
100
AcDbArc
 50
270.0
 51
0.0
  0
ARC
  5
384
330
33B
100
AcDbEntity
  8
1
  6
Continuous
 62
    15
100
AcDbCircle
 10
28.9161087383639
 20
0.500000172191597
 30
0.0
 40
0.5000000074505806
100
AcDbArc
 50
270.0
 51
0.0
  0
ARC
  5
385
330
33B
100
AcDbEntity
  8
1
  6
Continuous
 62
    15
100
AcDbCircle
 10
28.71610873538367
 20
0.500000172191597
 30
0.0
 40
0.5000000074505806
100
AcDbArc
 50
180.0
 51
270.0
  0
ARC
  5
386
330
33B
100
AcDbEntity
  8
1
  6
Continuous
 62
    15
100
AcDbCircle
 10
28.71610873538367
 20
0.500000172191597
 30
0.0
 40
0.5000000074505806
100
AcDbArc
 50
180.0
 51
270.0
  0
ARC
  5
387
330
33B
100
AcDbEntity
  8
1
  6
Continuous
 62
    15
100
AcDbCircle
 10
32.41610879051796
 20
2.974735379319013
 30
0.0
 40
0.5000000074505806
100
AcDbArc
 50
272.9695123685347
 51
0.0
  0
ARC
  5
388
330
33B
100
AcDbEntity
  8
1
  6
Continuous
 62
    15
100
AcDbCircle
 10
32.41610879051796
 20
2.974735379319013
 30
0.0
 40
0.5000000074505806
100
AcDbArc
 50
272.9695123685347
 51
0.0
  0
ARC
  5
389
330
33B
100
AcDbEntity
  8
1
  6
Continuous
 62
    15
100
AcDbCircle
 10
31.91610878306738
 20
15.87640345744585
 30
0.0
 40
0.5000000074505806
100
AcDbArc
 50
90.0
 51
180.0
  0
ARC
  5
38A
330
33B
100
AcDbEntity
  8
1
  6
Continuous
 62
    15
100
AcDbCircle
 10
31.91610878306738
 20
15.87640345744585
 30
0.0
 40
0.5000000074505806
100
AcDbArc
 50
90.0
 51
180.0
  0
ARC
  5
38B
330
33B
100
AcDbEntity
  8
1
  6
Continuous
 62
    15
100
AcDbCircle
 10
30.91610876816622
 20
14.37640343509409
 30
0.0
 40
0.5000000074505806
100
AcDbArc
 50
270.0
 51
0.0
  0
ARC
  5
38C
330
33B
100
AcDbEntity
  8
1
  6
Continuous
 62
    15
100
AcDbCircle
 10
30.91610876816622
 20
14.37640343509409
 30
0.0
 40
0.5000000074505806
100
AcDbArc
 50
270.0
 51
0.0
  0
ARC
  5
38D
330
33B
100
AcDbEntity
  8
1
  6
Continuous
 62
    15
100
AcDbCircle
 10
29.91610875326506
 20
14.37640343509409
 30
0.0
 40
0.5000000074505806
100
AcDbArc
 50
180.0
 51
270.0
  0
ARC
  5
38E
330
33B
100
AcDbEntity
  8
1
  6
Continuous
 62
    15
100
AcDbCircle
 10
29.91610875326506
 20
14.37640343509409
 30
0.0
 40
0.5000000074505806
100
AcDbArc
 50
180.0
 51
270.0
  0
LINE
  5
38F
330
33B
100
AcDbEntity
  8
1
  6
Continuous
 62
    15
100
AcDbLine
 10
29.16610874208887
 20
16.75095303153592
 30
0.0
 11
29.16610874208919
 21
16.75095303153592
 31
0.0
  0
ARC
  5
390
330
33B
100
AcDbEntity
  8
1
  6
Continuous
 62
    15
100
AcDbCircle
 10
29.16610874208919
 20
16.50095302781065
 30
0.0
 40
0.2500000037252903
100
AcDbArc
 50
0.0
 51
90.0
  0
ARC
  5
391
330
33B
100
AcDbEntity
  8
1
  6
Continuous
 62
    15
100
AcDbCircle
 10
29.16610874208919
 20
16.50095302781065
 30
0.0
 40
0.2500000037252903
100
AcDbArc
 50
0.0
 51
90.0
  0
ARC
  5
392
330
33B
100
AcDbEntity
  8
1
  6
Continuous
 62
    15
100
AcDbCircle
 10
32.41610879051796
 20
15.87640345744585
 30
0.0
 40
0.5000000074505806
100
AcDbArc
 50
0.0
 51
90.0
  0
ARC
  5
393
330
33B
100
AcDbEntity
  8
1
  6
Continuous
 62
    15
100
AcDbCircle
 10
32.41610879051796
 20
15.87640345744585
 30
0.0
 40
0.5000000074505806
100
AcDbArc
 50
0.0
 51
90.0
  0
LINE
  5
394
330
33B
100
AcDbEntity
  8
1
  6
Continuous
 62
    15
100
AcDbLine
 10
28.21610872793309
 20
14.37616248210407
 30
0.0
 11
28.21610872793309
 21
3.457804844079431
 31
0.0
  0
LINE
  5
395
330
33B
100
AcDbEntity
  8
1
  6
Continuous
 62
    15
100
AcDbLine
 10
31.4161087756168
 20
12.67640340976213
 30
0.0
 11
29.91610875326506
 21
12.67640340976213
 31
0.0
  0
LINE
  5
396
330
33B
100
AcDbEntity
  8
1
  6
Continuous
 62
    15
100
AcDbLine
 10
29.41610874581448
 20
12.17640340231155
 30
0.0
 11
29.41610874581448
 21
6.260446806732055
 31
0.0
  0
LINE
  5
397
330
33B
100
AcDbEntity
  8
1
  6
Continuous
 62
    15
100
AcDbLine
 10
29.41610874581448
 20
5.760446799281475
 30
0.0
 11
29.41610874581448
 21
3.506133689973168
 31
0.0
  0
LINE
  5
398
330
33B
100
AcDbEntity
  8
1
  6
Continuous
 62
    15
100
AcDbLine
 10
29.16610874208919
 20
6.010446803006765
 30
0.0
 11
29.41610874581448
 21
5.760446799281475
 31
0.0
  0
LINE
  5
399
330
33B
100
AcDbEntity
  8
1
  6
Continuous
 62
    15
100
AcDbLine
 10
29.41610874581448
 20
6.260446806732055
 30
0.0
 11
29.16610874208919
 21
6.010446803006765
 31
0.0
  0
ARC
  5
39A
330
33B
100
AcDbEntity
  8
1
  6
Continuous
 62
    15
100
AcDbCircle
 10
31.4161087756168
 20
14.17640343211387
 30
0.0
 40
1.500000022351742
100
AcDbArc
 50
270.0
 51
0.0
  0
ARC
  5
39B
330
33B
100
AcDbEntity
  8
1
  6
Continuous
 62
    15
100
AcDbCircle
 10
31.4161087756168
 20
14.17640343211387
 30
0.0
 40
1.500000022351742
100
AcDbArc
 50
270.0
 51
0.0
  0
ARC
  5
39C
330
33B
100
AcDbEntity
  8
1
  6
Continuous
 62
    15
100
AcDbCircle
 10
32.41610879051796
 20
3.17290873523087
 30
0.0
 40
0.5000000074505806
100
AcDbArc
 50
0.0
 51
93.1967300107707
  0
ARC
  5
39D
330
33B
100
AcDbEntity
  8
1
  6
Continuous
 62
    15
100
AcDbCircle
 10
32.41610879051796
 20
3.17290873523087
 30
0.0
 40
0.5000000074505806
100
AcDbArc
 50
0.0
 51
93.1967300107707
  0
LINE
  5
39E
330
33B
100
AcDbEntity
  8
1
  6
Continuous
 62
    15
100
AcDbLine
 10
29.41610874581448
 20
3.506133689973168
 30
0.0
 11
32.39020650585887
 21
3.672237363591004
 31
0.0
  0
LINE
  5
39F
330
33B
100
AcDbEntity
  8
1
  6
Continuous
 62
    15
100
AcDbLine
 10
6.181386966980199
 20
0.6384221003557977
 30
0.0
 11
6.181386966980199
 21
0.500000172191597
 31
0.0
  0
LINE
  5
3A0
330
33B
100
AcDbEntity
  8
1
  6
Continuous
 62
    15
100
AcDbLine
 10
5.681386959529618
 20
0.0000001647410253
 30
0.0
 11
5.481386956549386
 21
0.0000001647410253
 31
0.0
  0
LINE
  5
3A1
330
33B
100
AcDbEntity
  8
1
  6
Continuous
 62
    15
100
AcDbLine
 10
4.981386949098848
 20
0.500000172191597
 30
0.0
 11
4.981386949098848
 21
1.780195273464895
 31
0.0
  0
LINE
  5
3A2
330
33B
100
AcDbEntity
  8
1
  6
Continuous
 62
    15
100
AcDbLine
 10
4.981386949098848
 20
1.780195273464895
 30
0.0
 11
4.089840925683376
 21
3.84582435525051
 31
0.0
  0
LINE
  5
3A3
330
33B
100
AcDbEntity
  8
1
  6
Continuous
 62
    15
100
AcDbLine
 10
3.89170349410422
 20
4.304890326171712
 30
0.0
 11
3.099689431203259
 21
6.13991312762392
 31
0.0
  0
LINE
  5
3A4
330
33B
100
AcDbEntity
  8
1
  6
Continuous
 62
    15
100
AcDbLine
 10
2.769685038868076
 20
6.269766884001861
 30
0.0
 11
1.055688291786879
 21
5.517513673877033
 31
0.0
  0
LINE
  5
3A5
330
33B
100
AcDbEntity
  8
1
  6
Continuous
 62
    15
100
AcDbLine
 10
0.5819389849192333
 20
6.948604267161095
 30
0.0
 11
0.444466276517673
 21
6.887333996074613
 31
0.0
  0
ARC
  5
3A6
330
33B
100
AcDbEntity
  8
1
  6
Continuous
 62
    15
100
AcDbCircle
 10
0.7500771485533306
 20
6.202424138868977
 30
0.0
 40
0.7500773215370462
100
AcDbArc
 50
114.0467142540052
 51
294.0467142540042
  0
ARC
  5
3A7
330
33B
100
AcDbEntity
  8
1
  6
Continuous
 62
    15
100
AcDbCircle
 10
0.7500771485533306
 20
6.202424138868977
 30
0.0
 40
0.7500773215370462
100
AcDbArc
 50
114.0467142540052
 51
294.0467142540042
  0
LINE
  5
3A8
330
33B
100
AcDbEntity
  8
1
  6
Continuous
 62
    15
100
AcDbLine
 10
4.200012651188956
 20
6.883442305906925
 30
0.0
 11
4.103415466767672
 21
6.84257465763649
 31
0.0
  0
LINE
  5
3A9
330
33B
100
AcDbEntity
  8
1
  6
Continuous
 62
    15
100
AcDbLine
 10
4.203244246380223
 20
6.611280675103842
 30
0.0
 11
6.060370083998635
 21
2.308493115103274
 31
0.0
  0
LINE
  5
3AA
330
33B
100
AcDbEntity
  8
1
  6
Continuous
 62
    15
100
AcDbLine
 10
3.89170349410422
 20
4.304890326171712
 30
0.0
 11
4.220305195354371
 21
4.174426056500678
 31
0.0
  0
LINE
  5
3AB
330
33B
100
AcDbEntity
  8
1
  6
Continuous
 62
    15
100
AcDbLine
 10
4.220305195354371
 20
4.174426056500678
 30
0.0
 11
4.089840925683333
 21
3.84582435525051
 31
0.0
  0
ARC
  5
3AC
330
33B
100
AcDbEntity
  8
1
  6
Continuous
 62
    15
100
AcDbCircle
 10
2.870156445742651
 20
6.040844411834346
 30
0.0
 40
0.2500000037252903
100
AcDbArc
 50
23.34550739068734
 51
113.6961108223454
  0
ARC
  5
3AD
330
33B
100
AcDbEntity
  8
1
  6
Continuous
 62
    15
100
AcDbCircle
 10
2.870156445742651
 20
6.040844411834346
 30
0.0
 40
0.2500000037252903
100
AcDbArc
 50
23.34550739068734
 51
113.6961108223454
  0
ARC
  5
3AE
330
33B
100
AcDbEntity
  8
1
  6
Continuous
 62
    15
100
AcDbCircle
 10
4.432777231840831
 20
6.710349390893423
 30
0.0
 40
0.2500000037252903
100
AcDbArc
 50
112.8659700156251
 51
203.345507390691
  0
ARC
  5
3AF
330
33B
100
AcDbEntity
  8
1
  6
Continuous
 62
    15
100
AcDbCircle
 10
4.432777231840831
 20
6.710349390893423
 30
0.0
 40
0.2500000037252903
100
AcDbArc
 50
112.8659700156251
 51
203.345507390691
  0
ARC
  5
3B0
330
33B
100
AcDbEntity
  8
1
  6
Continuous
 62
    15
100
AcDbCircle
 10
5.481386956549386
 20
0.500000172191597
 30
0.0
 40
0.5000000074505806
100
AcDbArc
 50
180.0
 51
270.0
  0
ARC
  5
3B1
330
33B
100
AcDbEntity
  8
1
  6
Continuous
 62
    15
100
AcDbCircle
 10
5.481386956549386
 20
0.500000172191597
 30
0.0
 40
0.5000000074505806
100
AcDbArc
 50
180.0
 51
270.0
  0
ARC
  5
3B2
330
33B
100
AcDbEntity
  8
1
  6
Continuous
 62
    15
100
AcDbCircle
 10
5.681386959529618
 20
0.500000172191597
 30
0.0
 40
0.5000000074505806
100
AcDbArc
 50
270.0
 51
0.0
  0
ARC
  5
3B3
330
33B
100
AcDbEntity
  8
1
  6
Continuous
 62
    15
100
AcDbCircle
 10
5.681386959529618
 20
0.500000172191597
 30
0.0
 40
0.5000000074505806
100
AcDbArc
 50
270.0
 51
0.0
  0
ARC
  5
3B4
330
33B
100
AcDbEntity
  8
1
  6
Continuous
 62
    15
100
AcDbCircle
 10
6.681386974430779
 20
0.6384221003557977
 30
0.0
 40
0.5000000074505806
100
AcDbArc
 50
92.96951236853477
 51
180.0
  0
ARC
  5
3B5
330
33B
100
AcDbEntity
  8
1
  6
Continuous
 62
    15
100
AcDbCircle
 10
6.681386974430779
 20
0.6384221003557977
 30
0.0
 40
0.5000000074505806
100
AcDbArc
 50
92.96951236853477
 51
180.0
  0
ARC
  5
3B6
330
33B
100
AcDbEntity
  8
1
  6
Continuous
 62
    15
100
AcDbCircle
 10
27.71610872048251
 20
14.37616248210407
 30
0.0
 40
0.5000000074505806
100
AcDbArc
 50
0.0
 51
104.7470735585399
  0
ARC
  5
3B7
330
33B
100
AcDbEntity
  8
1
  6
Continuous
 62
    15
100
AcDbCircle
 10
27.71610872048251
 20
14.37616248210407
 30
0.0
 40
0.5000000074505806
100
AcDbArc
 50
0.0
 51
104.7470735585399
  0
ARC
  5
3B8
330
33B
100
AcDbEntity
  8
1
  6
Continuous
 62
    15
100
AcDbCircle
 10
29.91610875326506
 20
12.17640340231155
 30
0.0
 40
0.5000000074505806
100
AcDbArc
 50
90.0
 51
180.0
  0
ARC
  5
3B9
330
33B
100
AcDbEntity
  8
1
  6
Continuous
 62
    15
100
AcDbCircle
 10
29.91610875326506
 20
12.17640340231155
 30
0.0
 40
0.5000000074505806
100
AcDbArc
 50
90.0
 51
180.0
  0
ENDBLK
  5
33D
330
33B
100
AcDbEntity
  8
0
100
AcDbBlockEnd
  0
ENDSEC
  0
SECTION
  2
ENTITIES
  0
INSERT
  5
77
330
1F
100
AcDbEntity
  8
0
100
AcDbBlockReference
  2
GEN_BLOCK
 10
-142.2889556884766
 20
-101.8686447143555
 30
0.0
  0
INSERT
  5
2C1
330
1F
100
AcDbEntity
  8
0
100
AcDbBlockReference
 66
     1
  2
PROTO
 10
-143.4007873535156
 20
-100.0013198852539
 30
0.0
  0
ATTRIB
  5
2C2
330
2C1
100
AcDbEntity
  8
0
100
AcDbText
 10
0.0
 20
0.0
 30
0.0
 40
1.0
  1
PROTO
100
AcDbAttribute
  2
PAT_NAME
 70
     1
280
     0
  0
SEQEND
  5
2C3
330
2C1
100
AcDbEntity
  8
0
  0
INSERT
  5
2E2
330
1F
100
AcDbEntity
  8
DIM__QA
100
AcDbBlockReference
  2
GEN_BLOCK00000
 10
-70.06866455078125
 20
-101.2068710327148
 30
0.0
  0
INSERT
  5
2EF
330
1F
100
AcDbEntity
  8
GEN_LAYER
100
AcDbBlockReference
  2
GEN_BLOCK00001
 10
11.41594123840332
 20
4.238609313964844
 30
0.0
  0
INSERT
  5
32F
330
1F
100
AcDbEntity
  8
0
100
AcDbBlockReference
  2
GEN_BLOCK00002
 10
-144.6374816894531
 20
-101.8686447143555
 30
0.0
  0
INSERT
  5
33E
330
1F
100
AcDbEntity
  8
1
100
AcDbBlockReference
  2
GEN_BLOCK00003
 10
-71.08876037597656
 20
4.302420616149902
 30
0.0
  0
ENDSEC
  0
SECTION
  2
OBJECTS
  0
DICTIONARY
  5
C
330
0
100
AcDbDictionary
281
     1
  3
ACAD_DETAILVIEWSTYLE
350
3EE
  3
ACAD_GROUP
350
D
  3
ACAD_LAYOUT
350
1A
  3
ACAD_MATERIAL
350
43
  3
ACAD_MLEADERSTYLE
350
3ED
  3
ACAD_MLINESTYLE
350
17
  3
ACAD_PLOTSETTINGS
350
19
  3
ACAD_PLOTSTYLENAME
350
E
  3
ACAD_SCALELIST
350
47
  3
ACAD_SECTIONVIEWSTYLE
350
3EF
  3
ACAD_TABLESTYLE
350
3EC
  3
ACAD_VISUALSTYLE
350
2A
  3
AcDbVariableDictionary
350
3BA
  0
SUN
  5
69
330
29
100
AcDbSun
 90
        1
290
     0
 63
     7
421
 16777215
 40
1.0
291
     1
 91
  2455826
 92
 54000000
292
     0
 70
     2
 71
   256
280
     1
  0
DICTIONARY
  5
3EE
102
{ACAD_REACTORS
330
C
102
}
330
C
100
AcDbDictionary
281
     1
  0
DICTIONARY
  5
D
102
{ACAD_REACTORS
330
C
102
}
330
C
100
AcDbDictionary
281
     1
  0
DICTIONARY
  5
1A
102
{ACAD_REACTORS
330
C
102
}
330
C
100
AcDbDictionary
281
     1
  3
Layout1
350
1E
  3
Layout2
350
26
  3
Model
350
22
  0
DICTIONARY
  5
43
102
{ACAD_REACTORS
330
C
102
}
330
C
100
AcDbDictionary
281
     1
  3
ByBlock
350
45
  3
ByLayer
350
44
  3
Global
350
46
  0
DICTIONARY
  5
3ED
102
{ACAD_REACTORS
330
C
102
}
330
C
100
AcDbDictionary
281
     1
  0
DICTIONARY
  5
17
102
{ACAD_REACTORS
330
C
102
}
330
C
100
AcDbDictionary
281
     1
  3
Standard
350
18
  0
DICTIONARY
  5
19
102
{ACAD_REACTORS
330
C
102
}
330
C
100
AcDbDictionary
281
     1
  0
ACDBDICTIONARYWDFLT
  5
E
102
{ACAD_REACTORS
330
C
102
}
330
C
100
AcDbDictionary
281
     1
  3
Normal
350
F
100
AcDbDictionaryWithDefault
340
F
  0
DICTIONARY
  5
47
102
{ACAD_REACTORS
330
C
102
}
330
C
100
AcDbDictionary
281
     1
  3
A0
350
48
  3
A1
350
49
  3
A2
350
4A
  3
A3
350
4B
  3
A4
350
4C
  3
A5
350
4D
  3
A6
350
4E
  3
A7
350
4F
  3
A8
350
50
  3
A9
350
51
  3
B0
350
52
  3
B1
350
53
  3
B2
350
54
  3
B3
350
55
  3
B4
350
56
  3
B5
350
57
  3
B6
350
58
  3
B7
350
59
  3
B8
350
5A
  3
B9
350
5B
  3
C0
350
5C
  3
C1
350
5D
  3
C2
350
5E
  3
C3
350
5F
  3
C4
350
60
  3
C5
350
61
  3
C6
350
62
  3
C7
350
63
  3
C8
350
64
  3
C9
350
65
  3
D0
350
66
  3
D1
350
67
  3
D2
350
68
  0
DICTIONARY
  5
3EF
102
{ACAD_REACTORS
330
C
102
}
330
C
100
AcDbDictionary
281
     1
  0
DICTIONARY
  5
3EC
102
{ACAD_REACTORS
330
C
102
}
330
C
100
AcDbDictionary
281
     1
  0
DICTIONARY
  5
2A
102
{ACAD_REACTORS
330
C
102
}
330
C
100
AcDbDictionary
281
     1
  3
2dWireframe
350
2F
  3
Basic
350
32
  3
Brighten
350
36
  3
ColorChange
350
3A
  3
Conceptual
350
34
  3
Dim
350
35
  3
EdgeColorOff
350
3D
  3
Facepattern
350
39
  3
Flat
350
2B
  3
FlatWithEdges
350
2C
  3
Gouraud
350
2D
  3
GouraudWithEdges
350
2E
  3
Hidden
350
31
  3
JitterOff
350
3B
  3
Linepattern
350
38
  3
OverhangOff
350
3C
  3
Realistic
350
33
  3
Shaded
350
42
  3
Shaded with edges
350
41
  3
Shades of Gray
350
3E
  3
Sketchy
350
3F
  3
Thicken
350
37
  3
Wireframe
350
30
  3
X-Ray
350
40
  0
DICTIONARY
  5
3BA
102
{ACAD_REACTORS
330
C
102
}
330
C
100
AcDbDictionary
281
     1
  3
CANNOSCALE
350
3BB
  0
LAYOUT
  5
1E
102
{ACAD_REACTORS
330
1A
102
}
330
1A
100
AcDbPlotSettings
  1

  2
none_device
  4

  6

 40
0.0
 41
0.0
 42
0.0
 43
0.0
 44
0.0
 45
0.0
 46
0.0
 47
0.0
 48
0.0
 49
0.0
140
0.0
141
0.0
142
1.0
143
1.0
 70
   688
 72
     1
 73
     0
 74
     5
  7

 75
    16
 76
     0
 77
     2
 78
   300
147
1.0
148
0.0
149
0.0
100
AcDbLayout
  1
Layout1
 70
     1
 71
     1
 10
0.0
 20
0.0
 11
420.0
 21
297.0
 12
0.0
 22
0.0
 32
0.0
 14
1.000000000000000E+20
 24
1.000000000000000E+20
 34
1.000000000000000E+20
 15
-1.000000000000000E+20
 25
-1.000000000000000E+20
 35
-1.000000000000000E+20
146
0.0
 13
0.0
 23
0.0
 33
0.0
 16
1.0
 26
0.0
 36
0.0
 17
0.0
 27
1.0
 37
0.0
 76
     0
330
1B
  0
LAYOUT
  5
26
102
{ACAD_REACTORS
330
1A
102
}
330
1A
100
AcDbPlotSettings
  1

  2
none_device
  4

  6

 40
0.0
 41
0.0
 42
0.0
 43
0.0
 44
0.0
 45
0.0
 46
0.0
 47
0.0
 48
0.0
 49
0.0
140
0.0
141
0.0
142
1.0
143
1.0
 70
   688
 72
     1
 73
     0
 74
     5
  7

 75
    16
 76
     0
 77
     2
 78
   300
147
1.0
148
0.0
149
0.0
100
AcDbLayout
  1
Layout2
 70
     1
 71
     2
 10
0.0
 20
0.0
 11
0.0
 21
0.0
 12
0.0
 22
0.0
 32
0.0
 14
0.0
 24
0.0
 34
0.0
 15
0.0
 25
0.0
 35
0.0
146
0.0
 13
0.0
 23
0.0
 33
0.0
 16
1.0
 26
0.0
 36
0.0
 17
0.0
 27
1.0
 37
0.0
 76
     0
330
23
  0
LAYOUT
  5
22
102
{ACAD_REACTORS
330
1A
102
}
330
1A
100
AcDbPlotSettings
  1

  2
none_device
  4
Letter_(8.50_x_11.00_Inches)
  6

 40
6.35
 41
6.35
 42
6.35000508
 43
6.35000508
 44
215.9
 45
279.4
 46
0.0
 47
0.0
 48
0.0
 49
0.0
140
0.0
141
0.0
142
1.0
143
1.0
 70
  1712
 72
     1
 73
     0
 74
     0
  7

 75
     0
 76
     0
 77
     2
 78
   300
147
1.0
148
0.0
149
0.0
100
AcDbLayout
  1
Model
 70
     1
 71
     0
 10
0.0
 20
0.0
 11
420.0
 21
297.0
 12
0.0
 22
0.0
 32
0.0
 14
-144.637476
 24
-101.8686432947165
 34
0.0
 15
134.637476
 25
101.8686432947166
 35
0.0
146
0.0
 13
0.0
 23
0.0
 33
0.0
 16
1.0
 26
0.0
 36
0.0
 17
0.0
 27
1.0
 37
0.0
 76
     0
330
1F
331
29
  0
MATERIAL
  5
45
102
{ACAD_REACTORS
330
43
102
}
330
43
100
AcDbMaterial
  1
ByBlock
 72
     1
 94
      127
  0
MATERIAL
  5
44
102
{ACAD_REACTORS
330
43
102
}
330
43
100
AcDbMaterial
  1
ByLayer
 72
     1
 94
      127
  0
MATERIAL
  5
46
102
{ACAD_REACTORS
330
43
102
}
330
43
100
AcDbMaterial
  1
Global
 72
     1
 94
      127
  0
MLINESTYLE
  5
18
102
{ACAD_REACTORS
330
17
102
}
330
17
100
AcDbMlineStyle
  2
Standard
 70
     0
  3

 62
   256
 51
90.0
 52
90.0
 71
     2
 49
0.5
 62
   256
  6
BYLAYER
 49
-0.5
 62
   256
  6
BYLAYER
  0
ACDBPLACEHOLDER
  5
F
102
{ACAD_REACTORS
330
E
102
}
330
E
  0
SCALE
  5
48
102
{ACAD_REACTORS
330
47
102
}
330
47
100
AcDbScale
 70
     0
300
1:1
140
1.0
141
1.0
290
     1
  0
SCALE
  5
49
102
{ACAD_REACTORS
330
47
102
}
330
47
100
AcDbScale
 70
     0
300
1:2
140
1.0
141
2.0
290
     0
  0
SCALE
  5
4A
102
{ACAD_REACTORS
330
47
102
}
330
47
100
AcDbScale
 70
     0
300
1:4
140
1.0
141
4.0
290
     0
  0
SCALE
  5
4B
102
{ACAD_REACTORS
330
47
102
}
330
47
100
AcDbScale
 70
     0
300
1:5
140
1.0
141
5.0
290
     0
  0
SCALE
  5
4C
102
{ACAD_REACTORS
330
47
102
}
330
47
100
AcDbScale
 70
     0
300
1:8
140
1.0
141
8.0
290
     0
  0
SCALE
  5
4D
102
{ACAD_REACTORS
330
47
102
}
330
47
100
AcDbScale
 70
     0
300
1:10
140
1.0
141
10.0
290
     0
  0
SCALE
  5
4E
102
{ACAD_REACTORS
330
47
102
}
330
47
100
AcDbScale
 70
     0
300
1:16
140
1.0
141
16.0
290
     0
  0
SCALE
  5
4F
102
{ACAD_REACTORS
330
47
102
}
330
47
100
AcDbScale
 70
     0
300
1:20
140
1.0
141
20.0
290
     0
  0
SCALE
  5
50
102
{ACAD_REACTORS
330
47
102
}
330
47
100
AcDbScale
 70
     0
300
1:30
140
1.0
141
30.0
290
     0
  0
SCALE
  5
51
102
{ACAD_REACTORS
330
47
102
}
330
47
100
AcDbScale
 70
     0
300
1:40
140
1.0
141
40.0
290
     0
  0
SCALE
  5
52
102
{ACAD_REACTORS
330
47
102
}
330
47
100
AcDbScale
 70
     0
300
1:50
140
1.0
141
50.0
290
     0
  0
SCALE
  5
53
102
{ACAD_REACTORS
330
47
102
}
330
47
100
AcDbScale
 70
     0
300
1:100
140
1.0
141
100.0
290
     0
  0
SCALE
  5
54
102
{ACAD_REACTORS
330
47
102
}
330
47
100
AcDbScale
 70
     0
300
2:1
140
2.0
141
1.0
290
     0
  0
SCALE
  5
55
102
{ACAD_REACTORS
330
47
102
}
330
47
100
AcDbScale
 70
     0
300
4:1
140
4.0
141
1.0
290
     0
  0
SCALE
  5
56
102
{ACAD_REACTORS
330
47
102
}
330
47
100
AcDbScale
 70
     0
300
8:1
140
8.0
141
1.0
290
     0
  0
SCALE
  5
57
102
{ACAD_REACTORS
330
47
102
}
330
47
100
AcDbScale
 70
     0
300
10:1
140
10.0
141
1.0
290
     0
  0
SCALE
  5
58
102
{ACAD_REACTORS
330
47
102
}
330
47
100
AcDbScale
 70
     0
300
100:1
140
100.0
141
1.0
290
     0
  0
SCALE
  5
59
102
{ACAD_REACTORS
330
47
102
}
330
47
100
AcDbScale
 70
     0
300
1/128" = 1'-0"
140
0.0078125
141
12.0
290
     0
  0
SCALE
  5
5A
102
{ACAD_REACTORS
330
47
102
}
330
47
100
AcDbScale
 70
     0
300
1/64" = 1'-0"
140
0.015625
141
12.0
290
     0
  0
SCALE
  5
5B
102
{ACAD_REACTORS
330
47
102
}
330
47
100
AcDbScale
 70
     0
300
1/32" = 1'-0"
140
0.03125
141
12.0
290
     0
  0
SCALE
  5
5C
102
{ACAD_REACTORS
330
47
102
}
330
47
100
AcDbScale
 70
     0
300
1/16" = 1'-0"
140
0.0625
141
12.0
290
     0
  0
SCALE
  5
5D
102
{ACAD_REACTORS
330
47
102
}
330
47
100
AcDbScale
 70
     0
300
3/32" = 1'-0"
140
0.09375
141
12.0
290
     0
  0
SCALE
  5
5E
102
{ACAD_REACTORS
330
47
102
}
330
47
100
AcDbScale
 70
     0
300
1/8" = 1'-0"
140
0.125
141
12.0
290
     0
  0
SCALE
  5
5F
102
{ACAD_REACTORS
330
47
102
}
330
47
100
AcDbScale
 70
     0
300
3/16" = 1'-0"
140
0.1875
141
12.0
290
     0
  0
SCALE
  5
60
102
{ACAD_REACTORS
330
47
102
}
330
47
100
AcDbScale
 70
     0
300
1/4" = 1'-0"
140
0.25
141
12.0
290
     0
  0
SCALE
  5
61
102
{ACAD_REACTORS
330
47
102
}
330
47
100
AcDbScale
 70
     0
300
3/8" = 1'-0"
140
0.375
141
12.0
290
     0
  0
SCALE
  5
62
102
{ACAD_REACTORS
330
47
102
}
330
47
100
AcDbScale
 70
     0
300
1/2" = 1'-0"
140
0.5
141
12.0
290
     0
  0
SCALE
  5
63
102
{ACAD_REACTORS
330
47
102
}
330
47
100
AcDbScale
 70
     0
300
3/4" = 1'-0"
140
0.75
141
12.0
290
     0
  0
SCALE
  5
64
102
{ACAD_REACTORS
330
47
102
}
330
47
100
AcDbScale
 70
     0
300
1" = 1'-0"
140
1.0
141
12.0
290
     0
  0
SCALE
  5
65
102
{ACAD_REACTORS
330
47
102
}
330
47
100
AcDbScale
 70
     0
300
1-1/2" = 1'-0"
140
1.5
141
12.0
290
     0
  0
SCALE
  5
66
102
{ACAD_REACTORS
330
47
102
}
330
47
100
AcDbScale
 70
     0
300
3" = 1'-0"
140
3.0
141
12.0
290
     0
  0
SCALE
  5
67
102
{ACAD_REACTORS
330
47
102
}
330
47
100
AcDbScale
 70
     0
300
6" = 1'-0"
140
6.0
141
12.0
290
     0
  0
SCALE
  5
68
102
{ACAD_REACTORS
330
47
102
}
330
47
100
AcDbScale
 70
     0
300
1'-0" = 1'-0"
140
12.0
141
12.0
290
     0
  0
VISUALSTYLE
  5
2F
102
{ACAD_REACTORS
330
2A
102
}
102
{ACAD_XDICTIONARY
360
3C4
102
}
330
2A
100
AcDbVisualStyle
  2
2dWireframe
 70
     4
177
     2
291
     0
 71
     0
176
     1
 72
     2
176
     1
 73
     0
176
     1
 90
        0
176
     1
 40
0.6
176
     1
 41
30.0
176
     1
 62
     5
 63
     7
421
 16777215
176
     1
 74
     1
176
     1
 91
        4
176
     1
 64
     7
176
     1
 65
   257
176
     1
 75
     1
176
     1
175
     1
176
     1
 42
1.0
176
     1
 92
        0
176
     1
 66
   257
176
     1
 43
1.0
176
     1
 76
     1
176
     1
 77
     6
176
     1
 78
     2
176
     1
 67
     7
176
     1
 79
     5
176
     1
170
     0
176
     1
171
     0
176
     1
290
     0
176
     1
 93
        1
176
     1
 44
0.0
176
     1
173
     0
176
     1
  0
VISUALSTYLE
  5
32
102
{ACAD_REACTORS
330
2A
102
}
102
{ACAD_XDICTIONARY
360
3CA
102
}
330
2A
100
AcDbVisualStyle
  2
Basic
 70
     7
177
     2
291
     1
 71
     1
176
     1
 72
     0
176
     1
 73
     1
176
     1
 90
        0
176
     1
 40
0.6
176
     1
 41
30.0
176
     1
 62
     5
 63
     7
421
 16777215
176
     1
 74
     0
176
     1
 91
        4
176
     1
 64
     7
176
     1
 65
   257
176
     1
 75
     1
176
     1
175
     1
176
     1
 42
1.0
176
     1
 92
        8
176
     1
 66
     7
176
     1
 43
1.0
176
     1
 76
     1
176
     1
 77
     6
176
     1
 78
     2
176
     1
 67
     7
176
     1
 79
     5
176
     1
170
     0
176
     1
171
     0
176
     1
290
     0
176
     1
 93
        1
176
     1
 44
0.0
176
     1
173
     0
176
     1
  0
VISUALSTYLE
  5
36
102
{ACAD_REACTORS
330
2A
102
}
102
{ACAD_XDICTIONARY
360
3D2
102
}
330
2A
100
AcDbVisualStyle
  2
Brighten
 70
    12
177
     2
291
     1
 71
     2
176
     1
 72
     2
176
     1
 73
     0
176
     1
 90
        0
176
     1
 40
0.6
176
     1
 41
30.0
176
     1
 62
     5
 63
     7
421
 16777215
176
     1
 74
     1
176
     1
 91
        4
176
     1
 64
     7
176
     1
 65
   257
176
     1
 75
     1
176
     1
175
     1
176
     1
 42
1.0
176
     1
 92
        8
176
     1
 66
     7
176
     1
 43
1.0
176
     1
 76
     1
176
     1
 77
     6
176
     1
 78
     2
176
     1
 67
     7
176
     1
 79
     5
176
     1
170
     0
176
     1
171
     0
176
     1
290
     0
176
     1
 93
        1
176
     1
 44
50.0
176
     1
173
     0
176
     1
  0
VISUALSTYLE
  5
3A
102
{ACAD_REACTORS
330
2A
102
}
102
{ACAD_XDICTIONARY
360
3DA
102
}
330
2A
100
AcDbVisualStyle
  2
ColorChange
 70
    16
177
     2
291
     1
 71
     2
176
     1
 72
     2
176
     1
 73
     3
176
     1
 90
        0
176
     1
 40
0.6
176
     1
 41
30.0
176
     1
 62
     5
 63
     8
421
  8421504
176
     1
 74
     1
176
     1
 91
        4
176
     1
 64
     7
176
     1
 65
   257
176
     1
 75
     1
176
     1
175
     1
176
     1
 42
1.0
176
     1
 92
        8
176
     1
 66
     8
424
  8421504
176
     1
 43
1.0
176
     1
 76
     1
176
     1
 77
     6
176
     1
 78
     2
176
     1
 67
     7
176
     1
 79
     5
176
     1
170
     0
176
     1
171
     0
176
     1
290
     0
176
     1
 93
        1
176
     1
 44
0.0
176
     1
173
     0
176
     1
  0
VISUALSTYLE
  5
34
102
{ACAD_REACTORS
330
2A
102
}
102
{ACAD_XDICTIONARY
360
3CE
102
}
330
2A
100
AcDbVisualStyle
  2
Conceptual
 70
     9
177
     2
291
     0
 71
     3
176
     1
 72
     2
176
     1
 73
     0
176
     1
 90
        0
176
     1
 40
0.6
176
     1
 41
30.0
176
     1
 62
     5
 63
     7
421
 16777215
176
     1
 74
     2
176
     1
 91
        2
176
     1
 64
     7
176
     1
 65
   257
176
     1
 75
     1
176
     1
175
     1
176
     1
 42
179.0
176
     1
 92
        8
176
     1
 66
     7
176
     1
 43
1.0
176
     1
 76
     1
176
     1
 77
     6
176
     1
 78
     2
176
     1
 67
     7
176
     1
 79
     3
176
     1
170
     0
176
     1
171
     0
176
     1
290
     0
176
     1
 93
        1
176
     1
 44
0.0
176
     1
173
     0
176
     1
  0
VISUALSTYLE
  5
35
102
{ACAD_REACTORS
330
2A
102
}
102
{ACAD_XDICTIONARY
360
3D0
102
}
330
2A
100
AcDbVisualStyle
  2
Dim
 70
    11
177
     2
291
     1
 71
     2
176
     1
 72
     2
176
     1
 73
     0
176
     1
 90
        0
176
     1
 40
0.6
176
     1
 41
30.0
176
     1
 62
     5
 63
     7
421
 16777215
176
     1
 74
     1
176
     1
 91
        4
176
     1
 64
     7
176
     1
 65
   257
176
     1
 75
     1
176
     1
175
     1
176
     1
 42
1.0
176
     1
 92
        8
176
     1
 66
     7
176
     1
 43
1.0
176
     1
 76
     1
176
     1
 77
     6
176
     1
 78
     2
176
     1
 67
     7
176
     1
 79
     5
176
     1
170
     0
176
     1
171
     0
176
     1
290
     0
176
     1
 93
        1
176
     1
 44
-50.0
176
     1
173
     0
176
     1
  0
VISUALSTYLE
  5
3D
102
{ACAD_REACTORS
330
2A
102
}
102
{ACAD_XDICTIONARY
360
3E0
102
}
330
2A
100
AcDbVisualStyle
  2
EdgeColorOff
 70
    22
177
     2
291
     1
 71
     2
176
     0
 72
     2
176
     0
 73
     0
176
     0
 90
        0
176
     0
 40
0.6
176
     0
 41
30.0
176
     0
 62
     5
 63
     7
421
 16777215
176
     0
 74
     1
176
     0
 91
        4
176
     0
 64
     7
176
     0
 65
   257
176
     0
 75
     1
176
     0
175
     1
176
     0
 42
1.0
176
     0
 92
        8
176
     2
 66
     7
176
     0
 43
1.0
176
     0
 76
     1
176
     0
 77
     6
176
     0
 78
     2
176
     0
 67
     7
176
     0
 79
     5
176
     0
170
     0
176
     0
171
     0
176
     0
290
     0
176
     0
 93
        1
176
     0
 44
0.0
176
     0
173
     0
176
     0
  0
VISUALSTYLE
  5
39
102
{ACAD_REACTORS
330
2A
102
}
102
{ACAD_XDICTIONARY
360
3D8
102
}
330
2A
100
AcDbVisualStyle
  2
Facepattern
 70
    15
177
     2
291
     1
 71
     2
176
     1
 72
     2
176
     1
 73
     0
176
     1
 90
        0
176
     1
 40
0.6
176
     1
 41
30.0
176
     1
 62
     5
 63
     7
421
 16777215
176
     1
 74
     1
176
     1
 91
        4
176
     1
 64
     7
176
     1
 65
   257
176
     1
 75
     1
176
     1
175
     1
176
     1
 42
1.0
176
     1
 92
        8
176
     1
 66
     7
176
     1
 43
1.0
176
     1
 76
     1
176
     1
 77
     6
176
     1
 78
     2
176
     1
 67
     7
176
     1
 79
     5
176
     1
170
     0
176
     1
171
     0
176
     1
290
     0
176
     1
 93
        1
176
     1
 44
0.0
176
     1
173
     0
176
     1
  0
VISUALSTYLE
  5
2B
102
{ACAD_REACTORS
330
2A
102
}
102
{ACAD_XDICTIONARY
360
3BC
102
}
330
2A
100
AcDbVisualStyle
  2
Flat
 70
     0
177
     2
291
     1
 71
     2
176
     1
 72
     1
176
     1
 73
     1
176
     1
 90
        2
176
     1
 40
0.6
176
     1
 41
30.0
176
     1
 62
     5
 63
     7
421
 16777215
176
     1
 74
     0
176
     1
 91
        0
176
     1
 64
     7
176
     1
 65
   257
176
     1
 75
     1
176
     1
175
     1
176
     1
 42
1.0
176
     1
 92
        8
176
     1
 66
     7
176
     1
 43
1.0
176
     1
 76
     1
176
     1
 77
     6
176
     1
 78
     2
176
     1
 67
     7
176
     1
 79
     5
176
     1
170
     0
176
     1
171
     0
176
     1
290
     0
176
     1
 93
       13
176
     1
 44
0.0
176
     1
173
     0
176
     1
  0
VISUALSTYLE
  5
2C
102
{ACAD_REACTORS
330
2A
102
}
102
{ACAD_XDICTIONARY
360
3BE
102
}
330
2A
100
AcDbVisualStyle
  2
FlatWithEdges
 70
     1
177
     2
291
     1
 71
     2
176
     1
 72
     1
176
     1
 73
     1
176
     1
 90
        2
176
     1
 40
0.6
176
     1
 41
30.0
176
     1
 62
     5
 63
     7
421
 16777215
176
     1
 74
     1
176
     1
 91
        0
176
     1
 64
     7
176
     1
 65
   257
176
     1
 75
     1
176
     1
175
     1
176
     1
 42
1.0
176
     1
 92
        0
176
     1
 66
   257
176
     1
 43
1.0
176
     1
 76
     1
176
     1
 77
     6
176
     1
 78
     2
176
     1
 67
     7
176
     1
 79
     5
176
     1
170
     0
176
     1
171
     0
176
     1
290
     0
176
     1
 93
       13
176
     1
 44
0.0
176
     1
173
     0
176
     1
  0
VISUALSTYLE
  5
2D
102
{ACAD_REACTORS
330
2A
102
}
102
{ACAD_XDICTIONARY
360
3C0
102
}
330
2A
100
AcDbVisualStyle
  2
Gouraud
 70
     2
177
     2
291
     1
 71
     2
176
     1
 72
     2
176
     1
 73
     1
176
     1
 90
        2
176
     1
 40
0.6
176
     1
 41
30.0
176
     1
 62
     5
 63
     7
421
 16777215
176
     1
 74
     0
176
     1
 91
        0
176
     1
 64
     7
176
     1
 65
   257
176
     1
 75
     1
176
     1
175
     1
176
     1
 42
1.0
176
     1
 92
        0
176
     1
 66
     7
176
     1
 43
1.0
176
     1
 76
     1
176
     1
 77
     6
176
     1
 78
     2
176
     1
 67
     7
176
     1
 79
     5
176
     1
170
     0
176
     1
171
     0
176
     1
290
     0
176
     1
 93
       13
176
     1
 44
0.0
176
     1
173
     0
176
     1
  0
VISUALSTYLE
  5
2E
102
{ACAD_REACTORS
330
2A
102
}
102
{ACAD_XDICTIONARY
360
3C2
102
}
330
2A
100
AcDbVisualStyle
  2
GouraudWithEdges
 70
     3
177
     2
291
     1
 71
     2
176
     1
 72
     2
176
     1
 73
     1
176
     1
 90
        2
176
     1
 40
0.6
176
     1
 41
30.0
176
     1
 62
     5
 63
     7
421
 16777215
176
     1
 74
     1
176
     1
 91
        0
176
     1
 64
     7
176
     1
 65
   257
176
     1
 75
     1
176
     1
175
     1
176
     1
 42
1.0
176
     1
 92
        0
176
     1
 66
   257
176
     1
 43
1.0
176
     1
 76
     1
176
     1
 77
     6
176
     1
 78
     2
176
     1
 67
     7
176
     1
 79
     5
176
     1
170
     0
176
     1
171
     0
176
     1
290
     0
176
     1
 93
       13
176
     1
 44
0.0
176
     1
173
     0
176
     1
  0
VISUALSTYLE
  5
31
102
{ACAD_REACTORS
330
2A
102
}
102
{ACAD_XDICTIONARY
360
3C8
102
}
330
2A
100
AcDbVisualStyle
  2
Hidden
 70
     6
177
     2
291
     0
 71
     1
176
     1
 72
     2
176
     1
 73
     2
176
     1
 90
        0
176
     1
 40
0.6
176
     1
 41
30.0
176
     1
 62
     5
 63
     7
421
 16777215
176
     1
 74
     2
176
     1
 91
        2
176
     1
 64
     7
176
     1
 65
   257
176
     1
 75
     2
176
     1
175
     1
176
     1
 42
40.0
176
     1
 92
        0
176
     1
 66
   257
176
     1
 43
1.0
176
     1
 76
     1
176
     1
 77
     6
176
     1
 78
     2
176
     1
 67
     7
176
     1
 79
     3
176
     1
170
     0
176
     1
171
     0
176
     1
290
     0
176
     1
 93
        1
176
     1
 44
0.0
176
     1
173
     0
176
     1
  0
VISUALSTYLE
  5
3B
102
{ACAD_REACTORS
330
2A
102
}
102
{ACAD_XDICTIONARY
360
3DC
102
}
330
2A
100
AcDbVisualStyle
  2
JitterOff
 70
    20
177
     2
291
     1
 71
     2
176
     0
 72
     2
176
     0
 73
     0
176
     0
 90
        0
176
     0
 40
0.6
176
     0
 41
30.0
176
     0
 62
     5
 63
     7
421
 16777215
176
     0
 74
     1
176
     0
 91
        4
176
     0
 64
     7
176
     0
 65
   257
176
     0
 75
     1
176
     0
175
     1
176
     0
 42
1.0
176
     0
 92
       10
176
     2
 66
     7
176
     0
 43
1.0
176
     0
 76
     1
176
     0
 77
     6
176
     0
 78
     2
176
     0
 67
     7
176
     0
 79
     5
176
     0
170
     0
176
     0
171
     0
176
     0
290
     0
176
     0
 93
        1
176
     0
 44
0.0
176
     0
173
     0
176
     0
  0
VISUALSTYLE
  5
38
102
{ACAD_REACTORS
330
2A
102
}
102
{ACAD_XDICTIONARY
360
3D6
102
}
330
2A
100
AcDbVisualStyle
  2
Linepattern
 70
    14
177
     2
291
     1
 71
     2
176
     1
 72
     2
176
     1
 73
     0
176
     1
 90
        0
176
     1
 40
0.6
176
     1
 41
30.0
176
     1
 62
     5
 63
     7
421
 16777215
176
     1
 74
     1
176
     1
 91
        4
176
     1
 64
     7
176
     1
 65
   257
176
     1
 75
     7
176
     1
175
     7
176
     1
 42
1.0
176
     1
 92
        8
176
     1
 66
     7
176
     1
 43
1.0
176
     1
 76
     1
176
     1
 77
     6
176
     1
 78
     2
176
     1
 67
     7
176
     1
 79
     5
176
     1
170
     0
176
     1
171
     0
176
     1
290
     0
176
     1
 93
        1
176
     1
 44
0.0
176
     1
173
     0
176
     1
  0
VISUALSTYLE
  5
3C
102
{ACAD_REACTORS
330
2A
102
}
102
{ACAD_XDICTIONARY
360
3DE
102
}
330
2A
100
AcDbVisualStyle
  2
OverhangOff
 70
    21
177
     2
291
     1
 71
     2
176
     0
 72
     2
176
     0
 73
     0
176
     0
 90
        0
176
     0
 40
0.6
176
     0
 41
30.0
176
     0
 62
     5
 63
     7
421
 16777215
176
     0
 74
     1
176
     0
 91
        4
176
     0
 64
     7
176
     0
 65
   257
176
     0
 75
     1
176
     0
175
     1
176
     0
 42
1.0
176
     0
 92
        9
176
     2
 66
     7
176
     0
 43
1.0
176
     0
 76
     1
176
     0
 77
     6
176
     0
 78
     2
176
     0
 67
     7
176
     0
 79
     5
176
     0
170
     0
176
     0
171
     0
176
     0
290
     0
176
     0
 93
        1
176
     0
 44
0.0
176
     0
173
     0
176
     0
  0
VISUALSTYLE
  5
33
102
{ACAD_REACTORS
330
2A
102
}
102
{ACAD_XDICTIONARY
360
3CC
102
}
330
2A
100
AcDbVisualStyle
  2
Realistic
 70
     8
177
     2
291
     0
 71
     2
176
     1
 72
     3
176
     1
 73
     0
176
     1
 90
        2
176
     1
 40
0.6
176
     1
 41
30.0
176
     1
 62
     5
 63
     7
421
 16777215
176
     1
 74
     0
176
     1
 91
        0
176
     1
 64
     7
176
     1
 65
   257
176
     1
 75
     1
176
     1
175
     1
176
     1
 42
1.0
176
     1
 92
        8
176
     1
 66
   257
176
     1
 43
1.0
176
     1
 76
     1
176
     1
 77
     6
176
     1
 78
     2
176
     1
 67
     7
176
     1
 79
     3
176
     1
170
     0
176
     1
171
     0
176
     1
290
     0
176
     1
 93
       13
176
     1
 44
0.0
176
     1
173
     0
176
     1
  0
VISUALSTYLE
  5
42
102
{ACAD_REACTORS
330
2A
102
}
102
{ACAD_XDICTIONARY
360
3EA
102
}
330
2A
100
AcDbVisualStyle
  2
Shaded
 70
    27
177
     2
291
     0
 71
     2
176
     1
 72
     2
176
     1
 73
     1
176
     1
 90
        2
176
     1
 40
0.6
176
     1
 41
30.0
176
     1
 62
     5
 63
     7
421
 16777215
176
     1
 74
     0
176
     1
 91
        4
176
     1
 64
     7
176
     1
 65
   257
176
     1
 75
     1
176
     1
175
     1
176
     1
 42
1.0
176
     1
 92
        8
176
     1
 66
   257
176
     1
 43
1.0
176
     1
 76
     1
176
     1
 77
     6
176
     1
 78
     2
176
     1
 67
     8
425
  7895160
176
     1
 79
     3
176
     1
170
     0
176
     1
171
     0
176
     1
290
     0
176
     1
 93
        5
176
     1
 44
0.0
176
     1
173
     0
176
     1
  0
VISUALSTYLE
  5
41
102
{ACAD_REACTORS
330
2A
102
}
102
{ACAD_XDICTIONARY
360
3E8
102
}
330
2A
100
AcDbVisualStyle
  2
Shaded with edges
 70
    26
177
     2
291
     0
 71
     2
176
     1
 72
     2
176
     1
 73
     1
176
     1
 90
        2
176
     1
 40
0.6
176
     1
 41
30.0
176
     1
 62
     5
 63
     7
421
 16777215
176
     1
 74
     1
176
     1
 91
       10
176
     1
 64
     7
176
     1
 65
   257
176
     1
 75
     2
176
     1
175
     1
176
     1
 42
1.0
176
     1
 92
        8
176
     1
 66
   257
176
     1
 43
1.0
176
     1
 76
     1
176
     1
 77
     6
176
     1
 78
     2
176
     1
 67
     7
176
     1
 79
     3
176
     1
170
     0
176
     1
171
     0
176
     1
290
     0
176
     1
 93
        5
176
     1
 44
0.0
176
     1
173
     0
176
     1
  0
VISUALSTYLE
  5
3E
102
{ACAD_REACTORS
330
2A
102
}
102
{ACAD_XDICTIONARY
360
3E2
102
}
330
2A
100
AcDbVisualStyle
  2
Shades of Gray
 70
    23
177
     2
291
     0
 71
     2
176
     1
 72
     2
176
     1
 73
     3
176
     1
 90
        0
176
     1
 40
0.6
176
     1
 41
30.0
176
     1
 62
     5
 63
     7
421
 16777215
176
     1
 74
     2
176
     1
 91
        2
176
     1
 64
     7
176
     1
 65
     7
176
     1
 75
     1
176
     1
175
     1
176
     1
 42
40.0
176
     1
 92
        8
176
     1
 66
     7
176
     1
 43
1.0
176
     1
 76
     1
176
     1
 77
     6
176
     1
 78
     2
176
     1
 67
     7
176
     1
 79
     3
176
     1
170
     0
176
     1
171
     0
176
     1
290
     0
176
     1
 93
        1
176
     1
 44
0.0
176
     1
173
     0
176
     1
  0
VISUALSTYLE
  5
3F
102
{ACAD_REACTORS
330
2A
102
}
102
{ACAD_XDICTIONARY
360
3E4
102
}
330
2A
100
AcDbVisualStyle
  2
Sketchy
 70
    24
177
     2
291
     0
 71
     1
176
     1
 72
     2
176
     1
 73
     2
176
     1
 90
        0
176
     1
 40
0.6
176
     1
 41
30.0
176
     1
 62
     5
 63
     7
421
 16777215
176
     1
 74
     2
176
     1
 91
        2
176
     1
 64
     7
176
     1
 65
     7
176
     1
 75
     1
176
     1
175
     1
176
     1
 42
40.0
176
     1
 92
       11
176
     1
 66
     7
176
     1
 43
1.0
176
     1
 76
     1
176
     1
 77
     6
176
     1
 78
     2
176
     1
 67
     7
176
     1
 79
     6
176
     1
170
     0
176
     1
171
     0
176
     1
290
     0
176
     1
 93
        1
176
     1
 44
0.0
176
     1
173
     0
176
     1
  0
VISUALSTYLE
  5
37
102
{ACAD_REACTORS
330
2A
102
}
102
{ACAD_XDICTIONARY
360
3D4
102
}
330
2A
100
AcDbVisualStyle
  2
Thicken
 70
    13
177
     2
291
     1
 71
     2
176
     1
 72
     2
176
     1
 73
     0
176
     1
 90
        0
176
     1
 40
0.6
176
     1
 41
30.0
176
     1
 62
     5
 63
     7
421
 16777215
176
     1
 74
     1
176
     1
 91
        4
176
     1
 64
     7
176
     1
 65
   257
176
     1
 75
     1
176
     1
175
     1
176
     1
 42
1.0
176
     1
 92
       12
176
     1
 66
     7
176
     1
 43
1.0
176
     1
 76
     1
176
     1
 77
     6
176
     1
 78
     2
176
     1
 67
     7
176
     1
 79
     5
176
     1
170
     0
176
     1
171
     0
176
     1
290
     0
176
     1
 93
        1
176
     1
 44
0.0
176
     1
173
     0
176
     1
  0
VISUALSTYLE
  5
30
102
{ACAD_REACTORS
330
2A
102
}
102
{ACAD_XDICTIONARY
360
3C6
102
}
330
2A
100
AcDbVisualStyle
  2
Wireframe
 70
     5
177
     2
291
     0
 71
     0
176
     1
 72
     2
176
     1
 73
     0
176
     1
 90
        0
176
     1
 40
0.6
176
     1
 41
30.0
176
     1
 62
     5
 63
     7
421
 16777215
176
     1
 74
     1
176
     1
 91
        4
176
     1
 64
     7
176
     1
 65
   257
176
     1
 75
     1
176
     1
175
     1
176
     1
 42
1.0
176
     1
 92
        0
176
     1
 66
   257
176
     1
 43
1.0
176
     1
 76
     1
176
     1
 77
     6
176
     1
 78
     2
176
     1
 67
     7
176
     1
 79
     3
176
     1
170
     0
176
     1
171
     0
176
     1
290
     0
176
     1
 93
        1
176
     1
 44
0.0
176
     1
173
     0
176
     1
  0
VISUALSTYLE
  5
40
102
{ACAD_REACTORS
330
2A
102
}
102
{ACAD_XDICTIONARY
360
3E6
102
}
330
2A
100
AcDbVisualStyle
  2
X-Ray
 70
    25
177
     2
291
     0
 71
     2
176
     1
 72
     2
176
     1
 73
     1
176
     1
 90
        1
176
     1
 40
0.5
176
     1
 41
30.0
176
     1
 62
     5
 63
     7
421
 16777215
176
     1
 74
     1
176
     1
 91
        0
176
     1
 64
     7
176
     1
 65
   257
176
     1
 75
     1
176
     1
175
     1
176
     1
 42
1.0
176
     1
 92
        8
176
     1
 66
     7
176
     1
 43
1.0
176
     1
 76
     1
176
     1
 77
     6
176
     1
 78
     2
176
     1
 67
     7
176
     1
 79
     3
176
     1
170
     0
176
     1
171
     0
176
     1
290
     0
176
     1
 93
       13
176
     1
 44
0.0
176
     1
173
     0
176
     1
  0
DICTIONARYVAR
  5
3BB
102
{ACAD_REACTORS
330
3BA
102
}
330
3BA
100
DictionaryVariables
280
     0
  1
1:1
  0
DICTIONARY
  5
3C4
330
2F
100
AcDbDictionary
280
     1
281
     1
  3
ACAD_XREC_ROUNDTRIP
360
3C5
  0
DICTIONARY
  5
3CA
330
32
100
AcDbDictionary
280
     1
281
     1
  3
ACAD_XREC_ROUNDTRIP
360
3CB
  0
DICTIONARY
  5
3D2
330
36
100
AcDbDictionary
280
     1
281
     1
  3
ACAD_XREC_ROUNDTRIP
360
3D3
  0
DICTIONARY
  5
3DA
330
3A
100
AcDbDictionary
280
     1
281
     1
  3
ACAD_XREC_ROUNDTRIP
360
3DB
  0
DICTIONARY
  5
3CE
330
34
100
AcDbDictionary
280
     1
281
     1
  3
ACAD_XREC_ROUNDTRIP
360
3CF
  0
DICTIONARY
  5
3D0
330
35
100
AcDbDictionary
280
     1
281
     1
  3
ACAD_XREC_ROUNDTRIP
360
3D1
  0
DICTIONARY
  5
3E0
330
3D
100
AcDbDictionary
280
     1
281
     1
  3
ACAD_XREC_ROUNDTRIP
360
3E1
  0
DICTIONARY
  5
3D8
330
39
100
AcDbDictionary
280
     1
281
     1
  3
ACAD_XREC_ROUNDTRIP
360
3D9
  0
DICTIONARY
  5
3BC
330
2B
100
AcDbDictionary
280
     1
281
     1
  3
ACAD_XREC_ROUNDTRIP
360
3BD
  0
DICTIONARY
  5
3BE
330
2C
100
AcDbDictionary
280
     1
281
     1
  3
ACAD_XREC_ROUNDTRIP
360
3BF
  0
DICTIONARY
  5
3C0
330
2D
100
AcDbDictionary
280
     1
281
     1
  3
ACAD_XREC_ROUNDTRIP
360
3C1
  0
DICTIONARY
  5
3C2
330
2E
100
AcDbDictionary
280
     1
281
     1
  3
ACAD_XREC_ROUNDTRIP
360
3C3
  0
DICTIONARY
  5
3C8
330
31
100
AcDbDictionary
280
     1
281
     1
  3
ACAD_XREC_ROUNDTRIP
360
3C9
  0
DICTIONARY
  5
3DC
330
3B
100
AcDbDictionary
280
     1
281
     1
  3
ACAD_XREC_ROUNDTRIP
360
3DD
  0
DICTIONARY
  5
3D6
330
38
100
AcDbDictionary
280
     1
281
     1
  3
ACAD_XREC_ROUNDTRIP
360
3D7
  0
DICTIONARY
  5
3DE
330
3C
100
AcDbDictionary
280
     1
281
     1
  3
ACAD_XREC_ROUNDTRIP
360
3DF
  0
DICTIONARY
  5
3CC
330
33
100
AcDbDictionary
280
     1
281
     1
  3
ACAD_XREC_ROUNDTRIP
360
3CD
  0
DICTIONARY
  5
3EA
330
42
100
AcDbDictionary
280
     1
281
     1
  3
ACAD_XREC_ROUNDTRIP
360
3EB
  0
DICTIONARY
  5
3E8
330
41
100
AcDbDictionary
280
     1
281
     1
  3
ACAD_XREC_ROUNDTRIP
360
3E9
  0
DICTIONARY
  5
3E2
330
3E
100
AcDbDictionary
280
     1
281
     1
  3
ACAD_XREC_ROUNDTRIP
360
3E3
  0
DICTIONARY
  5
3E4
330
3F
100
AcDbDictionary
280
     1
281
     1
  3
ACAD_XREC_ROUNDTRIP
360
3E5
  0
DICTIONARY
  5
3D4
330
37
100
AcDbDictionary
280
     1
281
     1
  3
ACAD_XREC_ROUNDTRIP
360
3D5
  0
DICTIONARY
  5
3C6
330
30
100
AcDbDictionary
280
     1
281
     1
  3
ACAD_XREC_ROUNDTRIP
360
3C7
  0
DICTIONARY
  5
3E6
330
40
100
AcDbDictionary
280
     1
281
     1
  3
ACAD_XREC_ROUNDTRIP
360
3E7
  0
XRECORD
  5
3C5
102
{ACAD_REACTORS
330
3C4
102
}
330
3C4
100
AcDbXrecord
280
     1
102
RTVSPost2010Prop28
280
     1
102
RTVSPost2010PropOp28
 70
     1
102
RTVSPost2010Prop29
280
     1
102
RTVSPost2010PropOp29
 70
     1
102
RTVSPost2010Prop30
280
     0
102
RTVSPost2010PropOp30
 70
     1
102
RTVSPost2010Prop31
280
     0
102
RTVSPost2010PropOp31
 70
     1
102
RTVSPost2010Prop32
280
     0
102
RTVSPost2010PropOp32
 70
     1
102
RTVSPost2010Prop33
280
     0
102
RTVSPost2010PropOp33
 70
     1
102
RTVSPost2010Prop34
280
     0
102
RTVSPost2010PropOp34
 70
     1
102
RTVSPost2010Prop35
280
     0
102
RTVSPost2010PropOp35
 70
     1
102
RTVSPost2010Prop36
280
     0
102
RTVSPost2010PropOp36
 70
     1
102
RTVSPost2010Prop37
 90
       50
102
RTVSPost2010PropOp37
 70
     1
102
RTVSPost2010Prop38
140
0.0
102
RTVSPost2010PropOp38
 70
     1
102
RTVSPost2010Prop39
140
1.0
102
RTVSPost2010PropOp39
 70
     1
102
RTVSPost2010Prop40
 90
        0
102
RTVSPost2010PropOp40
 70
     1
102
RTVSPost2010Prop41ColorIndex
 90
       18
102
RTVSPost2010Prop41ColorRGB
 90
        0
102
RTVSPost2010PropOp41
 70
     1
102
RTVSPost2010Prop42
 90
       50
102
RTVSPost2010PropOp42
 70
     1
102
RTVSPost2010Prop43
 90
        3
102
RTVSPost2010PropOp43
 70
     1
102
RTVSPost2010Prop44ColorIndex
 90
        5
102
RTVSPost2010Prop44ColorRGB
 90
      255
102
RTVSPost2010PropOp44
 70
     1
102
RTVSPost2010Prop45
280
     0
102
RTVSPost2010PropOp45
 70
     1
102
RTVSPost2010Prop46
 90
       50
102
RTVSPost2010PropOp46
 70
     1
102
RTVSPost2010Prop47
 90
       50
102
RTVSPost2010PropOp47
 70
     1
102
RTVSPost2010Prop48
 90
       50
102
RTVSPost2010PropOp48
 70
     1
102
RTVSPost2010Prop49
280
     0
102
RTVSPost2010PropOp49
 70
     1
102
RTVSPost2010Prop50
 90
       50
102
RTVSPost2010PropOp50
 70
     1
102
RTVSPost2010Prop51ColorIndex
 90
      256
102
RTVSPost2010Prop51ColorRGB
 90
-16777216
102
RTVSPost2010PropOp51
 70
     0
102
RTVSPost2010Prop52
140
1.0
102
RTVSPost2010PropOp52
 70
     0
102
RTVSPost2010Prop53
 90
        2
102
RTVSPost2010PropOp53
 70
     1
102
RTVSPost2010Prop54
  1
strokes_ogs.tif
102
RTVSPost2010PropOp54
 70
     1
102
RTVSPost2010Prop55
280
     0
102
RTVSPost2010PropOp55
 70
     1
102
RTVSPost2010Prop56
140
1.0
102
RTVSPost2010PropOp56
 70
     1
102
RTVSPost2010Prop57
140
1.0
102
RTVSPost2010PropOp57
 70
     1
  0
XRECORD
  5
3CB
102
{ACAD_REACTORS
330
3CA
102
}
330
3CA
100
AcDbXrecord
280
     1
102
RTVSPost2010Prop28
280
     0
102
RTVSPost2010PropOp28
 70
     1
102
RTVSPost2010Prop29
280
     1
102
RTVSPost2010PropOp29
 70
     1
102
RTVSPost2010Prop30
280
     1
102
RTVSPost2010PropOp30
 70
     1
102
RTVSPost2010Prop31
280
     0
102
RTVSPost2010PropOp31
 70
     1
102
RTVSPost2010Prop32
280
     0
102
RTVSPost2010PropOp32
 70
     1
102
RTVSPost2010Prop33
280
     0
102
RTVSPost2010PropOp33
 70
     1
102
RTVSPost2010Prop34
280
     0
102
RTVSPost2010PropOp34
 70
     1
102
RTVSPost2010Prop35
280
     0
102
RTVSPost2010PropOp35
 70
     1
102
RTVSPost2010Prop36
280
     0
102
RTVSPost2010PropOp36
 70
     1
102
RTVSPost2010Prop37
 90
       50
102
RTVSPost2010PropOp37
 70
     1
102
RTVSPost2010Prop38
140
0.0
102
RTVSPost2010PropOp38
 70
     1
102
RTVSPost2010Prop39
140
1.0
102
RTVSPost2010PropOp39
 70
     1
102
RTVSPost2010Prop40
 90
        0
102
RTVSPost2010PropOp40
 70
     1
102
RTVSPost2010Prop41ColorIndex
 90
       18
102
RTVSPost2010Prop41ColorRGB
 90
        0
102
RTVSPost2010PropOp41
 70
     1
102
RTVSPost2010Prop42
 90
       50
102
RTVSPost2010PropOp42
 70
     1
102
RTVSPost2010Prop43
 90
        3
102
RTVSPost2010PropOp43
 70
     1
102
RTVSPost2010Prop44ColorIndex
 90
        5
102
RTVSPost2010Prop44ColorRGB
 90
      255
102
RTVSPost2010PropOp44
 70
     1
102
RTVSPost2010Prop45
280
     0
102
RTVSPost2010PropOp45
 70
     1
102
RTVSPost2010Prop46
 90
       50
102
RTVSPost2010PropOp46
 70
     1
102
RTVSPost2010Prop47
 90
       50
102
RTVSPost2010PropOp47
 70
     1
102
RTVSPost2010Prop48
 90
       50
102
RTVSPost2010PropOp48
 70
     1
102
RTVSPost2010Prop49
280
     0
102
RTVSPost2010PropOp49
 70
     1
102
RTVSPost2010Prop50
 90
       50
102
RTVSPost2010PropOp50
 70
     1
102
RTVSPost2010Prop51ColorIndex
 90
      256
102
RTVSPost2010Prop51ColorRGB
 90
-16777216
102
RTVSPost2010PropOp51
 70
     0
102
RTVSPost2010Prop52
140
1.0
102
RTVSPost2010PropOp52
 70
     0
102
RTVSPost2010Prop53
 90
        2
102
RTVSPost2010PropOp53
 70
     1
102
RTVSPost2010Prop54
  1
strokes_ogs.tif
102
RTVSPost2010PropOp54
 70
     1
102
RTVSPost2010Prop55
280
     0
102
RTVSPost2010PropOp55
 70
     1
102
RTVSPost2010Prop56
140
1.0
102
RTVSPost2010PropOp56
 70
     1
102
RTVSPost2010Prop57
140
1.0
102
RTVSPost2010PropOp57
 70
     1
  0
XRECORD
  5
3D3
102
{ACAD_REACTORS
330
3D2
102
}
330
3D2
100
AcDbXrecord
280
     1
102
RTVSPost2010Prop28
280
     0
102
RTVSPost2010PropOp28
 70
     1
102
RTVSPost2010Prop29
280
     1
102
RTVSPost2010PropOp29
 70
     1
102
RTVSPost2010Prop30
280
     1
102
RTVSPost2010PropOp30
 70
     1
102
RTVSPost2010Prop31
280
     0
102
RTVSPost2010PropOp31
 70
     1
102
RTVSPost2010Prop32
280
     0
102
RTVSPost2010PropOp32
 70
     1
102
RTVSPost2010Prop33
280
     0
102
RTVSPost2010PropOp33
 70
     1
102
RTVSPost2010Prop34
280
     0
102
RTVSPost2010PropOp34
 70
     1
102
RTVSPost2010Prop35
280
     0
102
RTVSPost2010PropOp35
 70
     1
102
RTVSPost2010Prop36
280
     0
102
RTVSPost2010PropOp36
 70
     1
102
RTVSPost2010Prop37
 90
       50
102
RTVSPost2010PropOp37
 70
     1
102
RTVSPost2010Prop38
140
0.0
102
RTVSPost2010PropOp38
 70
     1
102
RTVSPost2010Prop39
140
1.0
102
RTVSPost2010PropOp39
 70
     1
102
RTVSPost2010Prop40
 90
        0
102
RTVSPost2010PropOp40
 70
     1
102
RTVSPost2010Prop41ColorIndex
 90
       18
102
RTVSPost2010Prop41ColorRGB
 90
        0
102
RTVSPost2010PropOp41
 70
     1
102
RTVSPost2010Prop42
 90
       50
102
RTVSPost2010PropOp42
 70
     1
102
RTVSPost2010Prop43
 90
        3
102
RTVSPost2010PropOp43
 70
     1
102
RTVSPost2010Prop44ColorIndex
 90
        5
102
RTVSPost2010Prop44ColorRGB
 90
      255
102
RTVSPost2010PropOp44
 70
     1
102
RTVSPost2010Prop45
280
     0
102
RTVSPost2010PropOp45
 70
     1
102
RTVSPost2010Prop46
 90
       50
102
RTVSPost2010PropOp46
 70
     1
102
RTVSPost2010Prop47
 90
       50
102
RTVSPost2010PropOp47
 70
     1
102
RTVSPost2010Prop48
 90
       50
102
RTVSPost2010PropOp48
 70
     1
102
RTVSPost2010Prop49
280
     0
102
RTVSPost2010PropOp49
 70
     1
102
RTVSPost2010Prop50
 90
       50
102
RTVSPost2010PropOp50
 70
     1
102
RTVSPost2010Prop51ColorIndex
 90
      256
102
RTVSPost2010Prop51ColorRGB
 90
-16777216
102
RTVSPost2010PropOp51
 70
     0
102
RTVSPost2010Prop52
140
1.0
102
RTVSPost2010PropOp52
 70
     0
102
RTVSPost2010Prop53
 90
        2
102
RTVSPost2010PropOp53
 70
     1
102
RTVSPost2010Prop54
  1
strokes_ogs.tif
102
RTVSPost2010PropOp54
 70
     1
102
RTVSPost2010Prop55
280
     0
102
RTVSPost2010PropOp55
 70
     1
102
RTVSPost2010Prop56
140
1.0
102
RTVSPost2010PropOp56
 70
     1
102
RTVSPost2010Prop57
140
1.0
102
RTVSPost2010PropOp57
 70
     1
  0
XRECORD
  5
3DB
102
{ACAD_REACTORS
330
3DA
102
}
330
3DA
100
AcDbXrecord
280
     1
102
RTVSPost2010Prop28
280
     0
102
RTVSPost2010PropOp28
 70
     1
102
RTVSPost2010Prop29
280
     1
102
RTVSPost2010PropOp29
 70
     1
102
RTVSPost2010Prop30
280
     1
102
RTVSPost2010PropOp30
 70
     1
102
RTVSPost2010Prop31
280
     0
102
RTVSPost2010PropOp31
 70
     1
102
RTVSPost2010Prop32
280
     0
102
RTVSPost2010PropOp32
 70
     1
102
RTVSPost2010Prop33
280
     0
102
RTVSPost2010PropOp33
 70
     1
102
RTVSPost2010Prop34
280
     0
102
RTVSPost2010PropOp34
 70
     1
102
RTVSPost2010Prop35
280
     0
102
RTVSPost2010PropOp35
 70
     1
102
RTVSPost2010Prop36
280
     0
102
RTVSPost2010PropOp36
 70
     1
102
RTVSPost2010Prop37
 90
       50
102
RTVSPost2010PropOp37
 70
     1
102
RTVSPost2010Prop38
140
0.0
102
RTVSPost2010PropOp38
 70
     1
102
RTVSPost2010Prop39
140
1.0
102
RTVSPost2010PropOp39
 70
     1
102
RTVSPost2010Prop40
 90
        0
102
RTVSPost2010PropOp40
 70
     1
102
RTVSPost2010Prop41ColorIndex
 90
       18
102
RTVSPost2010Prop41ColorRGB
 90
        0
102
RTVSPost2010PropOp41
 70
     1
102
RTVSPost2010Prop42
 90
       50
102
RTVSPost2010PropOp42
 70
     1
102
RTVSPost2010Prop43
 90
        3
102
RTVSPost2010PropOp43
 70
     1
102
RTVSPost2010Prop44ColorIndex
 90
        5
102
RTVSPost2010Prop44ColorRGB
 90
      255
102
RTVSPost2010PropOp44
 70
     1
102
RTVSPost2010Prop45
280
     0
102
RTVSPost2010PropOp45
 70
     1
102
RTVSPost2010Prop46
 90
       50
102
RTVSPost2010PropOp46
 70
     1
102
RTVSPost2010Prop47
 90
       50
102
RTVSPost2010PropOp47
 70
     1
102
RTVSPost2010Prop48
 90
       50
102
RTVSPost2010PropOp48
 70
     1
102
RTVSPost2010Prop49
280
     0
102
RTVSPost2010PropOp49
 70
     1
102
RTVSPost2010Prop50
 90
       50
102
RTVSPost2010PropOp50
 70
     1
102
RTVSPost2010Prop51ColorIndex
 90
      256
102
RTVSPost2010Prop51ColorRGB
 90
-16777216
102
RTVSPost2010PropOp51
 70
     0
102
RTVSPost2010Prop52
140
1.0
102
RTVSPost2010PropOp52
 70
     0
102
RTVSPost2010Prop53
 90
        2
102
RTVSPost2010PropOp53
 70
     1
102
RTVSPost2010Prop54
  1
strokes_ogs.tif
102
RTVSPost2010PropOp54
 70
     1
102
RTVSPost2010Prop55
280
     0
102
RTVSPost2010PropOp55
 70
     1
102
RTVSPost2010Prop56
140
1.0
102
RTVSPost2010PropOp56
 70
     1
102
RTVSPost2010Prop57
140
1.0
102
RTVSPost2010PropOp57
 70
     1
  0
XRECORD
  5
3CF
102
{ACAD_REACTORS
330
3CE
102
}
330
3CE
100
AcDbXrecord
280
     1
102
RTVSPost2010Prop28
280
     0
102
RTVSPost2010PropOp28
 70
     1
102
RTVSPost2010Prop29
280
     1
102
RTVSPost2010PropOp29
 70
     1
102
RTVSPost2010Prop30
280
     1
102
RTVSPost2010PropOp30
 70
     1
102
RTVSPost2010Prop31
280
     0
102
RTVSPost2010PropOp31
 70
     1
102
RTVSPost2010Prop32
280
     0
102
RTVSPost2010PropOp32
 70
     1
102
RTVSPost2010Prop33
280
     0
102
RTVSPost2010PropOp33
 70
     1
102
RTVSPost2010Prop34
280
     0
102
RTVSPost2010PropOp34
 70
     1
102
RTVSPost2010Prop35
280
     0
102
RTVSPost2010PropOp35
 70
     1
102
RTVSPost2010Prop36
280
     0
102
RTVSPost2010PropOp36
 70
     1
102
RTVSPost2010Prop37
 90
       50
102
RTVSPost2010PropOp37
 70
     1
102
RTVSPost2010Prop38
140
0.0
102
RTVSPost2010PropOp38
 70
     1
102
RTVSPost2010Prop39
140
1.0
102
RTVSPost2010PropOp39
 70
     1
102
RTVSPost2010Prop40
 90
        0
102
RTVSPost2010PropOp40
 70
     1
102
RTVSPost2010Prop41ColorIndex
 90
       18
102
RTVSPost2010Prop41ColorRGB
 90
        0
102
RTVSPost2010PropOp41
 70
     1
102
RTVSPost2010Prop42
 90
       50
102
RTVSPost2010PropOp42
 70
     1
102
RTVSPost2010Prop43
 90
        3
102
RTVSPost2010PropOp43
 70
     1
102
RTVSPost2010Prop44ColorIndex
 90
        5
102
RTVSPost2010Prop44ColorRGB
 90
      255
102
RTVSPost2010PropOp44
 70
     1
102
RTVSPost2010Prop45
280
     0
102
RTVSPost2010PropOp45
 70
     1
102
RTVSPost2010Prop46
 90
       50
102
RTVSPost2010PropOp46
 70
     1
102
RTVSPost2010Prop47
 90
       50
102
RTVSPost2010PropOp47
 70
     1
102
RTVSPost2010Prop48
 90
       50
102
RTVSPost2010PropOp48
 70
     1
102
RTVSPost2010Prop49
280
     0
102
RTVSPost2010PropOp49
 70
     1
102
RTVSPost2010Prop50
 90
       50
102
RTVSPost2010PropOp50
 70
     1
102
RTVSPost2010Prop51ColorIndex
 90
      256
102
RTVSPost2010Prop51ColorRGB
 90
-16777216
102
RTVSPost2010PropOp51
 70
     0
102
RTVSPost2010Prop52
140
1.0
102
RTVSPost2010PropOp52
 70
     0
102
RTVSPost2010Prop53
 90
        2
102
RTVSPost2010PropOp53
 70
     1
102
RTVSPost2010Prop54
  1
strokes_ogs.tif
102
RTVSPost2010PropOp54
 70
     1
102
RTVSPost2010Prop55
280
     0
102
RTVSPost2010PropOp55
 70
     1
102
RTVSPost2010Prop56
140
1.0
102
RTVSPost2010PropOp56
 70
     1
102
RTVSPost2010Prop57
140
1.0
102
RTVSPost2010PropOp57
 70
     1
  0
XRECORD
  5
3D1
102
{ACAD_REACTORS
330
3D0
102
}
330
3D0
100
AcDbXrecord
280
     1
102
RTVSPost2010Prop28
280
     0
102
RTVSPost2010PropOp28
 70
     1
102
RTVSPost2010Prop29
280
     1
102
RTVSPost2010PropOp29
 70
     1
102
RTVSPost2010Prop30
280
     1
102
RTVSPost2010PropOp30
 70
     1
102
RTVSPost2010Prop31
280
     0
102
RTVSPost2010PropOp31
 70
     1
102
RTVSPost2010Prop32
280
     0
102
RTVSPost2010PropOp32
 70
     1
102
RTVSPost2010Prop33
280
     0
102
RTVSPost2010PropOp33
 70
     1
102
RTVSPost2010Prop34
280
     0
102
RTVSPost2010PropOp34
 70
     1
102
RTVSPost2010Prop35
280
     0
102
RTVSPost2010PropOp35
 70
     1
102
RTVSPost2010Prop36
280
     0
102
RTVSPost2010PropOp36
 70
     1
102
RTVSPost2010Prop37
 90
       50
102
RTVSPost2010PropOp37
 70
     1
102
RTVSPost2010Prop38
140
0.0
102
RTVSPost2010PropOp38
 70
     1
102
RTVSPost2010Prop39
140
1.0
102
RTVSPost2010PropOp39
 70
     1
102
RTVSPost2010Prop40
 90
        0
102
RTVSPost2010PropOp40
 70
     1
102
RTVSPost2010Prop41ColorIndex
 90
       18
102
RTVSPost2010Prop41ColorRGB
 90
        0
102
RTVSPost2010PropOp41
 70
     1
102
RTVSPost2010Prop42
 90
       50
102
RTVSPost2010PropOp42
 70
     1
102
RTVSPost2010Prop43
 90
        3
102
RTVSPost2010PropOp43
 70
     1
102
RTVSPost2010Prop44ColorIndex
 90
        5
102
RTVSPost2010Prop44ColorRGB
 90
      255
102
RTVSPost2010PropOp44
 70
     1
102
RTVSPost2010Prop45
280
     0
102
RTVSPost2010PropOp45
 70
     1
102
RTVSPost2010Prop46
 90
       50
102
RTVSPost2010PropOp46
 70
     1
102
RTVSPost2010Prop47
 90
       50
102
RTVSPost2010PropOp47
 70
     1
102
RTVSPost2010Prop48
 90
       50
102
RTVSPost2010PropOp48
 70
     1
102
RTVSPost2010Prop49
280
     0
102
RTVSPost2010PropOp49
 70
     1
102
RTVSPost2010Prop50
 90
       50
102
RTVSPost2010PropOp50
 70
     1
102
RTVSPost2010Prop51ColorIndex
 90
      256
102
RTVSPost2010Prop51ColorRGB
 90
-16777216
102
RTVSPost2010PropOp51
 70
     0
102
RTVSPost2010Prop52
140
1.0
102
RTVSPost2010PropOp52
 70
     0
102
RTVSPost2010Prop53
 90
        2
102
RTVSPost2010PropOp53
 70
     1
102
RTVSPost2010Prop54
  1
strokes_ogs.tif
102
RTVSPost2010PropOp54
 70
     1
102
RTVSPost2010Prop55
280
     0
102
RTVSPost2010PropOp55
 70
     1
102
RTVSPost2010Prop56
140
1.0
102
RTVSPost2010PropOp56
 70
     1
102
RTVSPost2010Prop57
140
1.0
102
RTVSPost2010PropOp57
 70
     1
  0
XRECORD
  5
3E1
102
{ACAD_REACTORS
330
3E0
102
}
330
3E0
100
AcDbXrecord
280
     1
102
RTVSPost2010Prop28
280
     0
102
RTVSPost2010PropOp28
 70
     0
102
RTVSPost2010Prop29
280
     1
102
RTVSPost2010PropOp29
 70
     0
102
RTVSPost2010Prop30
280
     1
102
RTVSPost2010PropOp30
 70
     0
102
RTVSPost2010Prop31
280
     0
102
RTVSPost2010PropOp31
 70
     0
102
RTVSPost2010Prop32
280
     0
102
RTVSPost2010PropOp32
 70
     0
102
RTVSPost2010Prop33
280
     0
102
RTVSPost2010PropOp33
 70
     0
102
RTVSPost2010Prop34
280
     0
102
RTVSPost2010PropOp34
 70
     0
102
RTVSPost2010Prop35
280
     0
102
RTVSPost2010PropOp35
 70
     0
102
RTVSPost2010Prop36
280
     0
102
RTVSPost2010PropOp36
 70
     0
102
RTVSPost2010Prop37
 90
       50
102
RTVSPost2010PropOp37
 70
     0
102
RTVSPost2010Prop38
140
0.0
102
RTVSPost2010PropOp38
 70
     0
102
RTVSPost2010Prop39
140
1.0
102
RTVSPost2010PropOp39
 70
     0
102
RTVSPost2010Prop40
 90
        0
102
RTVSPost2010PropOp40
 70
     0
102
RTVSPost2010Prop41ColorIndex
 90
       18
102
RTVSPost2010Prop41ColorRGB
 90
        0
102
RTVSPost2010PropOp41
 70
     0
102
RTVSPost2010Prop42
 90
       50
102
RTVSPost2010PropOp42
 70
     0
102
RTVSPost2010Prop43
 90
        3
102
RTVSPost2010PropOp43
 70
     0
102
RTVSPost2010Prop44ColorIndex
 90
        5
102
RTVSPost2010Prop44ColorRGB
 90
      255
102
RTVSPost2010PropOp44
 70
     0
102
RTVSPost2010Prop45
280
     0
102
RTVSPost2010PropOp45
 70
     0
102
RTVSPost2010Prop46
 90
       50
102
RTVSPost2010PropOp46
 70
     0
102
RTVSPost2010Prop47
 90
       50
102
RTVSPost2010PropOp47
 70
     0
102
RTVSPost2010Prop48
 90
       50
102
RTVSPost2010PropOp48
 70
     0
102
RTVSPost2010Prop49
280
     0
102
RTVSPost2010PropOp49
 70
     0
102
RTVSPost2010Prop50
 90
       50
102
RTVSPost2010PropOp50
 70
     0
102
RTVSPost2010Prop51ColorIndex
 90
      256
102
RTVSPost2010Prop51ColorRGB
 90
-16777216
102
RTVSPost2010PropOp51
 70
     0
102
RTVSPost2010Prop52
140
1.0
102
RTVSPost2010PropOp52
 70
     0
102
RTVSPost2010Prop53
 90
        2
102
RTVSPost2010PropOp53
 70
     0
102
RTVSPost2010Prop54
  1
strokes_ogs.tif
102
RTVSPost2010PropOp54
 70
     0
102
RTVSPost2010Prop55
280
     0
102
RTVSPost2010PropOp55
 70
     0
102
RTVSPost2010Prop56
140
1.0
102
RTVSPost2010PropOp56
 70
     0
102
RTVSPost2010Prop57
140
1.0
102
RTVSPost2010PropOp57
 70
     0
  0
XRECORD
  5
3D9
102
{ACAD_REACTORS
330
3D8
102
}
330
3D8
100
AcDbXrecord
280
     1
102
RTVSPost2010Prop28
280
     0
102
RTVSPost2010PropOp28
 70
     1
102
RTVSPost2010Prop29
280
     1
102
RTVSPost2010PropOp29
 70
     1
102
RTVSPost2010Prop30
280
     1
102
RTVSPost2010PropOp30
 70
     1
102
RTVSPost2010Prop31
280
     0
102
RTVSPost2010PropOp31
 70
     1
102
RTVSPost2010Prop32
280
     0
102
RTVSPost2010PropOp32
 70
     1
102
RTVSPost2010Prop33
280
     0
102
RTVSPost2010PropOp33
 70
     1
102
RTVSPost2010Prop34
280
     0
102
RTVSPost2010PropOp34
 70
     1
102
RTVSPost2010Prop35
280
     0
102
RTVSPost2010PropOp35
 70
     1
102
RTVSPost2010Prop36
280
     0
102
RTVSPost2010PropOp36
 70
     1
102
RTVSPost2010Prop37
 90
       50
102
RTVSPost2010PropOp37
 70
     1
102
RTVSPost2010Prop38
140
0.0
102
RTVSPost2010PropOp38
 70
     1
102
RTVSPost2010Prop39
140
1.0
102
RTVSPost2010PropOp39
 70
     1
102
RTVSPost2010Prop40
 90
        0
102
RTVSPost2010PropOp40
 70
     1
102
RTVSPost2010Prop41ColorIndex
 90
       18
102
RTVSPost2010Prop41ColorRGB
 90
        0
102
RTVSPost2010PropOp41
 70
     1
102
RTVSPost2010Prop42
 90
       50
102
RTVSPost2010PropOp42
 70
     1
102
RTVSPost2010Prop43
 90
        3
102
RTVSPost2010PropOp43
 70
     1
102
RTVSPost2010Prop44ColorIndex
 90
        5
102
RTVSPost2010Prop44ColorRGB
 90
      255
102
RTVSPost2010PropOp44
 70
     1
102
RTVSPost2010Prop45
280
     0
102
RTVSPost2010PropOp45
 70
     1
102
RTVSPost2010Prop46
 90
       50
102
RTVSPost2010PropOp46
 70
     1
102
RTVSPost2010Prop47
 90
       50
102
RTVSPost2010PropOp47
 70
     1
102
RTVSPost2010Prop48
 90
       50
102
RTVSPost2010PropOp48
 70
     1
102
RTVSPost2010Prop49
280
     0
102
RTVSPost2010PropOp49
 70
     1
102
RTVSPost2010Prop50
 90
       50
102
RTVSPost2010PropOp50
 70
     1
102
RTVSPost2010Prop51ColorIndex
 90
      256
102
RTVSPost2010Prop51ColorRGB
 90
-16777216
102
RTVSPost2010PropOp51
 70
     0
102
RTVSPost2010Prop52
140
1.0
102
RTVSPost2010PropOp52
 70
     0
102
RTVSPost2010Prop53
 90
        2
102
RTVSPost2010PropOp53
 70
     1
102
RTVSPost2010Prop54
  1
strokes_ogs.tif
102
RTVSPost2010PropOp54
 70
     1
102
RTVSPost2010Prop55
280
     0
102
RTVSPost2010PropOp55
 70
     1
102
RTVSPost2010Prop56
140
1.0
102
RTVSPost2010PropOp56
 70
     1
102
RTVSPost2010Prop57
140
1.0
102
RTVSPost2010PropOp57
 70
     1
  0
XRECORD
  5
3BD
102
{ACAD_REACTORS
330
3BC
102
}
330
3BC
100
AcDbXrecord
280
     1
102
RTVSPost2010Prop28
280
     0
102
RTVSPost2010PropOp28
 70
     1
102
RTVSPost2010Prop29
280
     1
102
RTVSPost2010PropOp29
 70
     1
102
RTVSPost2010Prop30
280
     1
102
RTVSPost2010PropOp30
 70
     1
102
RTVSPost2010Prop31
280
     0
102
RTVSPost2010PropOp31
 70
     1
102
RTVSPost2010Prop32
280
     0
102
RTVSPost2010PropOp32
 70
     1
102
RTVSPost2010Prop33
280
     0
102
RTVSPost2010PropOp33
 70
     1
102
RTVSPost2010Prop34
280
     0
102
RTVSPost2010PropOp34
 70
     1
102
RTVSPost2010Prop35
280
     0
102
RTVSPost2010PropOp35
 70
     1
102
RTVSPost2010Prop36
280
     0
102
RTVSPost2010PropOp36
 70
     1
102
RTVSPost2010Prop37
 90
       50
102
RTVSPost2010PropOp37
 70
     1
102
RTVSPost2010Prop38
140
0.0
102
RTVSPost2010PropOp38
 70
     1
102
RTVSPost2010Prop39
140
1.0
102
RTVSPost2010PropOp39
 70
     1
102
RTVSPost2010Prop40
 90
        0
102
RTVSPost2010PropOp40
 70
     1
102
RTVSPost2010Prop41ColorIndex
 90
       18
102
RTVSPost2010Prop41ColorRGB
 90
        0
102
RTVSPost2010PropOp41
 70
     1
102
RTVSPost2010Prop42
 90
       50
102
RTVSPost2010PropOp42
 70
     1
102
RTVSPost2010Prop43
 90
        3
102
RTVSPost2010PropOp43
 70
     1
102
RTVSPost2010Prop44ColorIndex
 90
        5
102
RTVSPost2010Prop44ColorRGB
 90
      255
102
RTVSPost2010PropOp44
 70
     1
102
RTVSPost2010Prop45
280
     0
102
RTVSPost2010PropOp45
 70
     1
102
RTVSPost2010Prop46
 90
       50
102
RTVSPost2010PropOp46
 70
     1
102
RTVSPost2010Prop47
 90
       50
102
RTVSPost2010PropOp47
 70
     1
102
RTVSPost2010Prop48
 90
       50
102
RTVSPost2010PropOp48
 70
     1
102
RTVSPost2010Prop49
280
     0
102
RTVSPost2010PropOp49
 70
     1
102
RTVSPost2010Prop50
 90
       50
102
RTVSPost2010PropOp50
 70
     1
102
RTVSPost2010Prop51ColorIndex
 90
      256
102
RTVSPost2010Prop51ColorRGB
 90
-16777216
102
RTVSPost2010PropOp51
 70
     0
102
RTVSPost2010Prop52
140
1.0
102
RTVSPost2010PropOp52
 70
     0
102
RTVSPost2010Prop53
 90
        2
102
RTVSPost2010PropOp53
 70
     1
102
RTVSPost2010Prop54
  1
strokes_ogs.tif
102
RTVSPost2010PropOp54
 70
     1
102
RTVSPost2010Prop55
280
     0
102
RTVSPost2010PropOp55
 70
     1
102
RTVSPost2010Prop56
140
1.0
102
RTVSPost2010PropOp56
 70
     1
102
RTVSPost2010Prop57
140
1.0
102
RTVSPost2010PropOp57
 70
     1
  0
XRECORD
  5
3BF
102
{ACAD_REACTORS
330
3BE
102
}
330
3BE
100
AcDbXrecord
280
     1
102
RTVSPost2010Prop28
280
     0
102
RTVSPost2010PropOp28
 70
     1
102
RTVSPost2010Prop29
280
     1
102
RTVSPost2010PropOp29
 70
     1
102
RTVSPost2010Prop30
280
     1
102
RTVSPost2010PropOp30
 70
     1
102
RTVSPost2010Prop31
280
     0
102
RTVSPost2010PropOp31
 70
     1
102
RTVSPost2010Prop32
280
     0
102
RTVSPost2010PropOp32
 70
     1
102
RTVSPost2010Prop33
280
     0
102
RTVSPost2010PropOp33
 70
     1
102
RTVSPost2010Prop34
280
     0
102
RTVSPost2010PropOp34
 70
     1
102
RTVSPost2010Prop35
280
     0
102
RTVSPost2010PropOp35
 70
     1
102
RTVSPost2010Prop36
280
     0
102
RTVSPost2010PropOp36
 70
     1
102
RTVSPost2010Prop37
 90
       50
102
RTVSPost2010PropOp37
 70
     1
102
RTVSPost2010Prop38
140
0.0
102
RTVSPost2010PropOp38
 70
     1
102
RTVSPost2010Prop39
140
1.0
102
RTVSPost2010PropOp39
 70
     1
102
RTVSPost2010Prop40
 90
        0
102
RTVSPost2010PropOp40
 70
     1
102
RTVSPost2010Prop41ColorIndex
 90
       18
102
RTVSPost2010Prop41ColorRGB
 90
        0
102
RTVSPost2010PropOp41
 70
     1
102
RTVSPost2010Prop42
 90
       50
102
RTVSPost2010PropOp42
 70
     1
102
RTVSPost2010Prop43
 90
        3
102
RTVSPost2010PropOp43
 70
     1
102
RTVSPost2010Prop44ColorIndex
 90
        5
102
RTVSPost2010Prop44ColorRGB
 90
      255
102
RTVSPost2010PropOp44
 70
     1
102
RTVSPost2010Prop45
280
     0
102
RTVSPost2010PropOp45
 70
     1
102
RTVSPost2010Prop46
 90
       50
102
RTVSPost2010PropOp46
 70
     1
102
RTVSPost2010Prop47
 90
       50
102
RTVSPost2010PropOp47
 70
     1
102
RTVSPost2010Prop48
 90
       50
102
RTVSPost2010PropOp48
 70
     1
102
RTVSPost2010Prop49
280
     0
102
RTVSPost2010PropOp49
 70
     1
102
RTVSPost2010Prop50
 90
       50
102
RTVSPost2010PropOp50
 70
     1
102
RTVSPost2010Prop51ColorIndex
 90
      256
102
RTVSPost2010Prop51ColorRGB
 90
-16777216
102
RTVSPost2010PropOp51
 70
     0
102
RTVSPost2010Prop52
140
1.0
102
RTVSPost2010PropOp52
 70
     0
102
RTVSPost2010Prop53
 90
        2
102
RTVSPost2010PropOp53
 70
     1
102
RTVSPost2010Prop54
  1
strokes_ogs.tif
102
RTVSPost2010PropOp54
 70
     1
102
RTVSPost2010Prop55
280
     0
102
RTVSPost2010PropOp55
 70
     1
102
RTVSPost2010Prop56
140
1.0
102
RTVSPost2010PropOp56
 70
     1
102
RTVSPost2010Prop57
140
1.0
102
RTVSPost2010PropOp57
 70
     1
  0
XRECORD
  5
3C1
102
{ACAD_REACTORS
330
3C0
102
}
330
3C0
100
AcDbXrecord
280
     1
102
RTVSPost2010Prop28
280
     0
102
RTVSPost2010PropOp28
 70
     1
102
RTVSPost2010Prop29
280
     1
102
RTVSPost2010PropOp29
 70
     1
102
RTVSPost2010Prop30
280
     1
102
RTVSPost2010PropOp30
 70
     1
102
RTVSPost2010Prop31
280
     0
102
RTVSPost2010PropOp31
 70
     1
102
RTVSPost2010Prop32
280
     0
102
RTVSPost2010PropOp32
 70
     1
102
RTVSPost2010Prop33
280
     0
102
RTVSPost2010PropOp33
 70
     1
102
RTVSPost2010Prop34
280
     0
102
RTVSPost2010PropOp34
 70
     1
102
RTVSPost2010Prop35
280
     0
102
RTVSPost2010PropOp35
 70
     1
102
RTVSPost2010Prop36
280
     0
102
RTVSPost2010PropOp36
 70
     1
102
RTVSPost2010Prop37
 90
       50
102
RTVSPost2010PropOp37
 70
     1
102
RTVSPost2010Prop38
140
0.0
102
RTVSPost2010PropOp38
 70
     1
102
RTVSPost2010Prop39
140
1.0
102
RTVSPost2010PropOp39
 70
     1
102
RTVSPost2010Prop40
 90
        0
102
RTVSPost2010PropOp40
 70
     1
102
RTVSPost2010Prop41ColorIndex
 90
       18
102
RTVSPost2010Prop41ColorRGB
 90
        0
102
RTVSPost2010PropOp41
 70
     1
102
RTVSPost2010Prop42
 90
       50
102
RTVSPost2010PropOp42
 70
     1
102
RTVSPost2010Prop43
 90
        3
102
RTVSPost2010PropOp43
 70
     1
102
RTVSPost2010Prop44ColorIndex
 90
        5
102
RTVSPost2010Prop44ColorRGB
 90
      255
102
RTVSPost2010PropOp44
 70
     1
102
RTVSPost2010Prop45
280
     0
102
RTVSPost2010PropOp45
 70
     1
102
RTVSPost2010Prop46
 90
       50
102
RTVSPost2010PropOp46
 70
     1
102
RTVSPost2010Prop47
 90
       50
102
RTVSPost2010PropOp47
 70
     1
102
RTVSPost2010Prop48
 90
       50
102
RTVSPost2010PropOp48
 70
     1
102
RTVSPost2010Prop49
280
     0
102
RTVSPost2010PropOp49
 70
     1
102
RTVSPost2010Prop50
 90
       50
102
RTVSPost2010PropOp50
 70
     1
102
RTVSPost2010Prop51ColorIndex
 90
      256
102
RTVSPost2010Prop51ColorRGB
 90
-16777216
102
RTVSPost2010PropOp51
 70
     0
102
RTVSPost2010Prop52
140
1.0
102
RTVSPost2010PropOp52
 70
     0
102
RTVSPost2010Prop53
 90
        2
102
RTVSPost2010PropOp53
 70
     1
102
RTVSPost2010Prop54
  1
strokes_ogs.tif
102
RTVSPost2010PropOp54
 70
     1
102
RTVSPost2010Prop55
280
     0
102
RTVSPost2010PropOp55
 70
     1
102
RTVSPost2010Prop56
140
1.0
102
RTVSPost2010PropOp56
 70
     1
102
RTVSPost2010Prop57
140
1.0
102
RTVSPost2010PropOp57
 70
     1
  0
XRECORD
  5
3C3
102
{ACAD_REACTORS
330
3C2
102
}
330
3C2
100
AcDbXrecord
280
     1
102
RTVSPost2010Prop28
280
     0
102
RTVSPost2010PropOp28
 70
     1
102
RTVSPost2010Prop29
280
     1
102
RTVSPost2010PropOp29
 70
     1
102
RTVSPost2010Prop30
280
     1
102
RTVSPost2010PropOp30
 70
     1
102
RTVSPost2010Prop31
280
     0
102
RTVSPost2010PropOp31
 70
     1
102
RTVSPost2010Prop32
280
     0
102
RTVSPost2010PropOp32
 70
     1
102
RTVSPost2010Prop33
280
     0
102
RTVSPost2010PropOp33
 70
     1
102
RTVSPost2010Prop34
280
     0
102
RTVSPost2010PropOp34
 70
     1
102
RTVSPost2010Prop35
280
     0
102
RTVSPost2010PropOp35
 70
     1
102
RTVSPost2010Prop36
280
     0
102
RTVSPost2010PropOp36
 70
     1
102
RTVSPost2010Prop37
 90
       50
102
RTVSPost2010PropOp37
 70
     1
102
RTVSPost2010Prop38
140
0.0
102
RTVSPost2010PropOp38
 70
     1
102
RTVSPost2010Prop39
140
1.0
102
RTVSPost2010PropOp39
 70
     1
102
RTVSPost2010Prop40
 90
        0
102
RTVSPost2010PropOp40
 70
     1
102
RTVSPost2010Prop41ColorIndex
 90
       18
102
RTVSPost2010Prop41ColorRGB
 90
        0
102
RTVSPost2010PropOp41
 70
     1
102
RTVSPost2010Prop42
 90
       50
102
RTVSPost2010PropOp42
 70
     1
102
RTVSPost2010Prop43
 90
        3
102
RTVSPost2010PropOp43
 70
     1
102
RTVSPost2010Prop44ColorIndex
 90
        5
102
RTVSPost2010Prop44ColorRGB
 90
      255
102
RTVSPost2010PropOp44
 70
     1
102
RTVSPost2010Prop45
280
     0
102
RTVSPost2010PropOp45
 70
     1
102
RTVSPost2010Prop46
 90
       50
102
RTVSPost2010PropOp46
 70
     1
102
RTVSPost2010Prop47
 90
       50
102
RTVSPost2010PropOp47
 70
     1
102
RTVSPost2010Prop48
 90
       50
102
RTVSPost2010PropOp48
 70
     1
102
RTVSPost2010Prop49
280
     0
102
RTVSPost2010PropOp49
 70
     1
102
RTVSPost2010Prop50
 90
       50
102
RTVSPost2010PropOp50
 70
     1
102
RTVSPost2010Prop51ColorIndex
 90
      256
102
RTVSPost2010Prop51ColorRGB
 90
-16777216
102
RTVSPost2010PropOp51
 70
     0
102
RTVSPost2010Prop52
140
1.0
102
RTVSPost2010PropOp52
 70
     0
102
RTVSPost2010Prop53
 90
        2
102
RTVSPost2010PropOp53
 70
     1
102
RTVSPost2010Prop54
  1
strokes_ogs.tif
102
RTVSPost2010PropOp54
 70
     1
102
RTVSPost2010Prop55
280
     0
102
RTVSPost2010PropOp55
 70
     1
102
RTVSPost2010Prop56
140
1.0
102
RTVSPost2010PropOp56
 70
     1
102
RTVSPost2010Prop57
140
1.0
102
RTVSPost2010PropOp57
 70
     1
  0
XRECORD
  5
3C9
102
{ACAD_REACTORS
330
3C8
102
}
330
3C8
100
AcDbXrecord
280
     1
102
RTVSPost2010Prop28
280
     0
102
RTVSPost2010PropOp28
 70
     1
102
RTVSPost2010Prop29
280
     1
102
RTVSPost2010PropOp29
 70
     1
102
RTVSPost2010Prop30
280
     1
102
RTVSPost2010PropOp30
 70
     1
102
RTVSPost2010Prop31
280
     0
102
RTVSPost2010PropOp31
 70
     1
102
RTVSPost2010Prop32
280
     0
102
RTVSPost2010PropOp32
 70
     1
102
RTVSPost2010Prop33
280
     0
102
RTVSPost2010PropOp33
 70
     1
102
RTVSPost2010Prop34
280
     0
102
RTVSPost2010PropOp34
 70
     1
102
RTVSPost2010Prop35
280
     0
102
RTVSPost2010PropOp35
 70
     1
102
RTVSPost2010Prop36
280
     0
102
RTVSPost2010PropOp36
 70
     1
102
RTVSPost2010Prop37
 90
       50
102
RTVSPost2010PropOp37
 70
     1
102
RTVSPost2010Prop38
140
0.0
102
RTVSPost2010PropOp38
 70
     1
102
RTVSPost2010Prop39
140
1.0
102
RTVSPost2010PropOp39
 70
     1
102
RTVSPost2010Prop40
 90
        0
102
RTVSPost2010PropOp40
 70
     1
102
RTVSPost2010Prop41ColorIndex
 90
       18
102
RTVSPost2010Prop41ColorRGB
 90
        0
102
RTVSPost2010PropOp41
 70
     1
102
RTVSPost2010Prop42
 90
       50
102
RTVSPost2010PropOp42
 70
     1
102
RTVSPost2010Prop43
 90
        3
102
RTVSPost2010PropOp43
 70
     1
102
RTVSPost2010Prop44ColorIndex
 90
        5
102
RTVSPost2010Prop44ColorRGB
 90
      255
102
RTVSPost2010PropOp44
 70
     1
102
RTVSPost2010Prop45
280
     0
102
RTVSPost2010PropOp45
 70
     1
102
RTVSPost2010Prop46
 90
       50
102
RTVSPost2010PropOp46
 70
     1
102
RTVSPost2010Prop47
 90
       50
102
RTVSPost2010PropOp47
 70
     1
102
RTVSPost2010Prop48
 90
       50
102
RTVSPost2010PropOp48
 70
     1
102
RTVSPost2010Prop49
280
     0
102
RTVSPost2010PropOp49
 70
     1
102
RTVSPost2010Prop50
 90
       50
102
RTVSPost2010PropOp50
 70
     1
102
RTVSPost2010Prop51ColorIndex
 90
      256
102
RTVSPost2010Prop51ColorRGB
 90
-16777216
102
RTVSPost2010PropOp51
 70
     0
102
RTVSPost2010Prop52
140
1.0
102
RTVSPost2010PropOp52
 70
     0
102
RTVSPost2010Prop53
 90
        2
102
RTVSPost2010PropOp53
 70
     1
102
RTVSPost2010Prop54
  1
strokes_ogs.tif
102
RTVSPost2010PropOp54
 70
     1
102
RTVSPost2010Prop55
280
     0
102
RTVSPost2010PropOp55
 70
     1
102
RTVSPost2010Prop56
140
1.0
102
RTVSPost2010PropOp56
 70
     1
102
RTVSPost2010Prop57
140
1.0
102
RTVSPost2010PropOp57
 70
     1
  0
XRECORD
  5
3DD
102
{ACAD_REACTORS
330
3DC
102
}
330
3DC
100
AcDbXrecord
280
     1
102
RTVSPost2010Prop28
280
     0
102
RTVSPost2010PropOp28
 70
     0
102
RTVSPost2010Prop29
280
     1
102
RTVSPost2010PropOp29
 70
     0
102
RTVSPost2010Prop30
280
     1
102
RTVSPost2010PropOp30
 70
     0
102
RTVSPost2010Prop31
280
     0
102
RTVSPost2010PropOp31
 70
     0
102
RTVSPost2010Prop32
280
     0
102
RTVSPost2010PropOp32
 70
     0
102
RTVSPost2010Prop33
280
     0
102
RTVSPost2010PropOp33
 70
     0
102
RTVSPost2010Prop34
280
     0
102
RTVSPost2010PropOp34
 70
     0
102
RTVSPost2010Prop35
280
     0
102
RTVSPost2010PropOp35
 70
     0
102
RTVSPost2010Prop36
280
     0
102
RTVSPost2010PropOp36
 70
     0
102
RTVSPost2010Prop37
 90
       50
102
RTVSPost2010PropOp37
 70
     0
102
RTVSPost2010Prop38
140
0.0
102
RTVSPost2010PropOp38
 70
     0
102
RTVSPost2010Prop39
140
1.0
102
RTVSPost2010PropOp39
 70
     0
102
RTVSPost2010Prop40
 90
        0
102
RTVSPost2010PropOp40
 70
     0
102
RTVSPost2010Prop41ColorIndex
 90
       18
102
RTVSPost2010Prop41ColorRGB
 90
        0
102
RTVSPost2010PropOp41
 70
     0
102
RTVSPost2010Prop42
 90
       50
102
RTVSPost2010PropOp42
 70
     0
102
RTVSPost2010Prop43
 90
        3
102
RTVSPost2010PropOp43
 70
     0
102
RTVSPost2010Prop44ColorIndex
 90
        5
102
RTVSPost2010Prop44ColorRGB
 90
      255
102
RTVSPost2010PropOp44
 70
     0
102
RTVSPost2010Prop45
280
     0
102
RTVSPost2010PropOp45
 70
     0
102
RTVSPost2010Prop46
 90
       50
102
RTVSPost2010PropOp46
 70
     0
102
RTVSPost2010Prop47
 90
       50
102
RTVSPost2010PropOp47
 70
     0
102
RTVSPost2010Prop48
 90
       50
102
RTVSPost2010PropOp48
 70
     0
102
RTVSPost2010Prop49
280
     0
102
RTVSPost2010PropOp49
 70
     0
102
RTVSPost2010Prop50
 90
       50
102
RTVSPost2010PropOp50
 70
     0
102
RTVSPost2010Prop51ColorIndex
 90
      256
102
RTVSPost2010Prop51ColorRGB
 90
-16777216
102
RTVSPost2010PropOp51
 70
     0
102
RTVSPost2010Prop52
140
1.0
102
RTVSPost2010PropOp52
 70
     0
102
RTVSPost2010Prop53
 90
        2
102
RTVSPost2010PropOp53
 70
     0
102
RTVSPost2010Prop54
  1
strokes_ogs.tif
102
RTVSPost2010PropOp54
 70
     0
102
RTVSPost2010Prop55
280
     0
102
RTVSPost2010PropOp55
 70
     0
102
RTVSPost2010Prop56
140
1.0
102
RTVSPost2010PropOp56
 70
     0
102
RTVSPost2010Prop57
140
1.0
102
RTVSPost2010PropOp57
 70
     0
  0
XRECORD
  5
3D7
102
{ACAD_REACTORS
330
3D6
102
}
330
3D6
100
AcDbXrecord
280
     1
102
RTVSPost2010Prop28
280
     0
102
RTVSPost2010PropOp28
 70
     1
102
RTVSPost2010Prop29
280
     1
102
RTVSPost2010PropOp29
 70
     1
102
RTVSPost2010Prop30
280
     1
102
RTVSPost2010PropOp30
 70
     1
102
RTVSPost2010Prop31
280
     0
102
RTVSPost2010PropOp31
 70
     1
102
RTVSPost2010Prop32
280
     0
102
RTVSPost2010PropOp32
 70
     1
102
RTVSPost2010Prop33
280
     0
102
RTVSPost2010PropOp33
 70
     1
102
RTVSPost2010Prop34
280
     0
102
RTVSPost2010PropOp34
 70
     1
102
RTVSPost2010Prop35
280
     0
102
RTVSPost2010PropOp35
 70
     1
102
RTVSPost2010Prop36
280
     0
102
RTVSPost2010PropOp36
 70
     1
102
RTVSPost2010Prop37
 90
       50
102
RTVSPost2010PropOp37
 70
     1
102
RTVSPost2010Prop38
140
0.0
102
RTVSPost2010PropOp38
 70
     1
102
RTVSPost2010Prop39
140
1.0
102
RTVSPost2010PropOp39
 70
     1
102
RTVSPost2010Prop40
 90
        0
102
RTVSPost2010PropOp40
 70
     1
102
RTVSPost2010Prop41ColorIndex
 90
       18
102
RTVSPost2010Prop41ColorRGB
 90
        0
102
RTVSPost2010PropOp41
 70
     1
102
RTVSPost2010Prop42
 90
       50
102
RTVSPost2010PropOp42
 70
     1
102
RTVSPost2010Prop43
 90
        3
102
RTVSPost2010PropOp43
 70
     1
102
RTVSPost2010Prop44ColorIndex
 90
        5
102
RTVSPost2010Prop44ColorRGB
 90
      255
102
RTVSPost2010PropOp44
 70
     1
102
RTVSPost2010Prop45
280
     0
102
RTVSPost2010PropOp45
 70
     1
102
RTVSPost2010Prop46
 90
       50
102
RTVSPost2010PropOp46
 70
     1
102
RTVSPost2010Prop47
 90
       50
102
RTVSPost2010PropOp47
 70
     1
102
RTVSPost2010Prop48
 90
       50
102
RTVSPost2010PropOp48
 70
     1
102
RTVSPost2010Prop49
280
     0
102
RTVSPost2010PropOp49
 70
     1
102
RTVSPost2010Prop50
 90
       50
102
RTVSPost2010PropOp50
 70
     1
102
RTVSPost2010Prop51ColorIndex
 90
      256
102
RTVSPost2010Prop51ColorRGB
 90
-16777216
102
RTVSPost2010PropOp51
 70
     0
102
RTVSPost2010Prop52
140
1.0
102
RTVSPost2010PropOp52
 70
     0
102
RTVSPost2010Prop53
 90
        2
102
RTVSPost2010PropOp53
 70
     1
102
RTVSPost2010Prop54
  1
strokes_ogs.tif
102
RTVSPost2010PropOp54
 70
     1
102
RTVSPost2010Prop55
280
     0
102
RTVSPost2010PropOp55
 70
     1
102
RTVSPost2010Prop56
140
1.0
102
RTVSPost2010PropOp56
 70
     1
102
RTVSPost2010Prop57
140
1.0
102
RTVSPost2010PropOp57
 70
     1
  0
XRECORD
  5
3DF
102
{ACAD_REACTORS
330
3DE
102
}
330
3DE
100
AcDbXrecord
280
     1
102
RTVSPost2010Prop28
280
     0
102
RTVSPost2010PropOp28
 70
     0
102
RTVSPost2010Prop29
280
     1
102
RTVSPost2010PropOp29
 70
     0
102
RTVSPost2010Prop30
280
     1
102
RTVSPost2010PropOp30
 70
     0
102
RTVSPost2010Prop31
280
     0
102
RTVSPost2010PropOp31
 70
     0
102
RTVSPost2010Prop32
280
     0
102
RTVSPost2010PropOp32
 70
     0
102
RTVSPost2010Prop33
280
     0
102
RTVSPost2010PropOp33
 70
     0
102
RTVSPost2010Prop34
280
     0
102
RTVSPost2010PropOp34
 70
     0
102
RTVSPost2010Prop35
280
     0
102
RTVSPost2010PropOp35
 70
     0
102
RTVSPost2010Prop36
280
     0
102
RTVSPost2010PropOp36
 70
     0
102
RTVSPost2010Prop37
 90
       50
102
RTVSPost2010PropOp37
 70
     0
102
RTVSPost2010Prop38
140
0.0
102
RTVSPost2010PropOp38
 70
     0
102
RTVSPost2010Prop39
140
1.0
102
RTVSPost2010PropOp39
 70
     0
102
RTVSPost2010Prop40
 90
        0
102
RTVSPost2010PropOp40
 70
     0
102
RTVSPost2010Prop41ColorIndex
 90
       18
102
RTVSPost2010Prop41ColorRGB
 90
        0
102
RTVSPost2010PropOp41
 70
     0
102
RTVSPost2010Prop42
 90
       50
102
RTVSPost2010PropOp42
 70
     0
102
RTVSPost2010Prop43
 90
        3
102
RTVSPost2010PropOp43
 70
     0
102
RTVSPost2010Prop44ColorIndex
 90
        5
102
RTVSPost2010Prop44ColorRGB
 90
      255
102
RTVSPost2010PropOp44
 70
     0
102
RTVSPost2010Prop45
280
     0
102
RTVSPost2010PropOp45
 70
     0
102
RTVSPost2010Prop46
 90
       50
102
RTVSPost2010PropOp46
 70
     0
102
RTVSPost2010Prop47
 90
       50
102
RTVSPost2010PropOp47
 70
     0
102
RTVSPost2010Prop48
 90
       50
102
RTVSPost2010PropOp48
 70
     0
102
RTVSPost2010Prop49
280
     0
102
RTVSPost2010PropOp49
 70
     0
102
RTVSPost2010Prop50
 90
       50
102
RTVSPost2010PropOp50
 70
     0
102
RTVSPost2010Prop51ColorIndex
 90
      256
102
RTVSPost2010Prop51ColorRGB
 90
-16777216
102
RTVSPost2010PropOp51
 70
     0
102
RTVSPost2010Prop52
140
1.0
102
RTVSPost2010PropOp52
 70
     0
102
RTVSPost2010Prop53
 90
        2
102
RTVSPost2010PropOp53
 70
     0
102
RTVSPost2010Prop54
  1
strokes_ogs.tif
102
RTVSPost2010PropOp54
 70
     0
102
RTVSPost2010Prop55
280
     0
102
RTVSPost2010PropOp55
 70
     0
102
RTVSPost2010Prop56
140
1.0
102
RTVSPost2010PropOp56
 70
     0
102
RTVSPost2010Prop57
140
1.0
102
RTVSPost2010PropOp57
 70
     0
  0
XRECORD
  5
3CD
102
{ACAD_REACTORS
330
3CC
102
}
330
3CC
100
AcDbXrecord
280
     1
102
RTVSPost2010Prop28
280
     0
102
RTVSPost2010PropOp28
 70
     1
102
RTVSPost2010Prop29
280
     1
102
RTVSPost2010PropOp29
 70
     1
102
RTVSPost2010Prop30
280
     1
102
RTVSPost2010PropOp30
 70
     1
102
RTVSPost2010Prop31
280
     0
102
RTVSPost2010PropOp31
 70
     1
102
RTVSPost2010Prop32
280
     0
102
RTVSPost2010PropOp32
 70
     1
102
RTVSPost2010Prop33
280
     0
102
RTVSPost2010PropOp33
 70
     1
102
RTVSPost2010Prop34
280
     0
102
RTVSPost2010PropOp34
 70
     1
102
RTVSPost2010Prop35
280
     0
102
RTVSPost2010PropOp35
 70
     1
102
RTVSPost2010Prop36
280
     0
102
RTVSPost2010PropOp36
 70
     1
102
RTVSPost2010Prop37
 90
       50
102
RTVSPost2010PropOp37
 70
     1
102
RTVSPost2010Prop38
140
0.0
102
RTVSPost2010PropOp38
 70
     1
102
RTVSPost2010Prop39
140
1.0
102
RTVSPost2010PropOp39
 70
     1
102
RTVSPost2010Prop40
 90
        0
102
RTVSPost2010PropOp40
 70
     1
102
RTVSPost2010Prop41ColorIndex
 90
       18
102
RTVSPost2010Prop41ColorRGB
 90
        0
102
RTVSPost2010PropOp41
 70
     1
102
RTVSPost2010Prop42
 90
       50
102
RTVSPost2010PropOp42
 70
     1
102
RTVSPost2010Prop43
 90
        3
102
RTVSPost2010PropOp43
 70
     1
102
RTVSPost2010Prop44ColorIndex
 90
        5
102
RTVSPost2010Prop44ColorRGB
 90
      255
102
RTVSPost2010PropOp44
 70
     1
102
RTVSPost2010Prop45
280
     0
102
RTVSPost2010PropOp45
 70
     1
102
RTVSPost2010Prop46
 90
       50
102
RTVSPost2010PropOp46
 70
     1
102
RTVSPost2010Prop47
 90
       50
102
RTVSPost2010PropOp47
 70
     1
102
RTVSPost2010Prop48
 90
       50
102
RTVSPost2010PropOp48
 70
     1
102
RTVSPost2010Prop49
280
     0
102
RTVSPost2010PropOp49
 70
     1
102
RTVSPost2010Prop50
 90
       50
102
RTVSPost2010PropOp50
 70
     1
102
RTVSPost2010Prop51ColorIndex
 90
      256
102
RTVSPost2010Prop51ColorRGB
 90
-16777216
102
RTVSPost2010PropOp51
 70
     0
102
RTVSPost2010Prop52
140
1.0
102
RTVSPost2010PropOp52
 70
     0
102
RTVSPost2010Prop53
 90
        2
102
RTVSPost2010PropOp53
 70
     1
102
RTVSPost2010Prop54
  1
strokes_ogs.tif
102
RTVSPost2010PropOp54
 70
     1
102
RTVSPost2010Prop55
280
     0
102
RTVSPost2010PropOp55
 70
     1
102
RTVSPost2010Prop56
140
1.0
102
RTVSPost2010PropOp56
 70
     1
102
RTVSPost2010Prop57
140
1.0
102
RTVSPost2010PropOp57
 70
     1
  0
XRECORD
  5
3EB
102
{ACAD_REACTORS
330
3EA
102
}
330
3EA
100
AcDbXrecord
280
     1
102
RTVSPost2010Prop28
280
     0
102
RTVSPost2010PropOp28
 70
     1
102
RTVSPost2010Prop29
280
     1
102
RTVSPost2010PropOp29
 70
     1
102
RTVSPost2010Prop30
280
     1
102
RTVSPost2010PropOp30
 70
     1
102
RTVSPost2010Prop31
280
     0
102
RTVSPost2010PropOp31
 70
     1
102
RTVSPost2010Prop32
280
     0
102
RTVSPost2010PropOp32
 70
     1
102
RTVSPost2010Prop33
280
     0
102
RTVSPost2010PropOp33
 70
     1
102
RTVSPost2010Prop34
280
     0
102
RTVSPost2010PropOp34
 70
     1
102
RTVSPost2010Prop35
280
     0
102
RTVSPost2010PropOp35
 70
     1
102
RTVSPost2010Prop36
280
     0
102
RTVSPost2010PropOp36
 70
     1
102
RTVSPost2010Prop37
 90
       50
102
RTVSPost2010PropOp37
 70
     1
102
RTVSPost2010Prop38
140
0.0
102
RTVSPost2010PropOp38
 70
     1
102
RTVSPost2010Prop39
140
1.0
102
RTVSPost2010PropOp39
 70
     1
102
RTVSPost2010Prop40
 90
        0
102
RTVSPost2010PropOp40
 70
     1
102
RTVSPost2010Prop41ColorIndex
 90
       18
102
RTVSPost2010Prop41ColorRGB
 90
        0
102
RTVSPost2010PropOp41
 70
     1
102
RTVSPost2010Prop42
 90
       50
102
RTVSPost2010PropOp42
 70
     1
102
RTVSPost2010Prop43
 90
        3
102
RTVSPost2010PropOp43
 70
     1
102
RTVSPost2010Prop44ColorIndex
 90
        5
102
RTVSPost2010Prop44ColorRGB
 90
      255
102
RTVSPost2010PropOp44
 70
     1
102
RTVSPost2010Prop45
280
     0
102
RTVSPost2010PropOp45
 70
     1
102
RTVSPost2010Prop46
 90
       50
102
RTVSPost2010PropOp46
 70
     1
102
RTVSPost2010Prop47
 90
       50
102
RTVSPost2010PropOp47
 70
     1
102
RTVSPost2010Prop48
 90
       50
102
RTVSPost2010PropOp48
 70
     1
102
RTVSPost2010Prop49
280
     0
102
RTVSPost2010PropOp49
 70
     1
102
RTVSPost2010Prop50
 90
       50
102
RTVSPost2010PropOp50
 70
     1
102
RTVSPost2010Prop51ColorIndex
 90
      256
102
RTVSPost2010Prop51ColorRGB
 90
-16777216
102
RTVSPost2010PropOp51
 70
     0
102
RTVSPost2010Prop52
140
1.0
102
RTVSPost2010PropOp52
 70
     0
102
RTVSPost2010Prop53
 90
        2
102
RTVSPost2010PropOp53
 70
     1
102
RTVSPost2010Prop54
  1
strokes_ogs.tif
102
RTVSPost2010PropOp54
 70
     1
102
RTVSPost2010Prop55
280
     0
102
RTVSPost2010PropOp55
 70
     1
102
RTVSPost2010Prop56
140
1.0
102
RTVSPost2010PropOp56
 70
     1
102
RTVSPost2010Prop57
140
1.0
102
RTVSPost2010PropOp57
 70
     1
  0
XRECORD
  5
3E9
102
{ACAD_REACTORS
330
3E8
102
}
330
3E8
100
AcDbXrecord
280
     1
102
RTVSPost2010Prop28
280
     0
102
RTVSPost2010PropOp28
 70
     1
102
RTVSPost2010Prop29
280
     1
102
RTVSPost2010PropOp29
 70
     1
102
RTVSPost2010Prop30
280
     1
102
RTVSPost2010PropOp30
 70
     1
102
RTVSPost2010Prop31
280
     0
102
RTVSPost2010PropOp31
 70
     1
102
RTVSPost2010Prop32
280
     0
102
RTVSPost2010PropOp32
 70
     1
102
RTVSPost2010Prop33
280
     0
102
RTVSPost2010PropOp33
 70
     1
102
RTVSPost2010Prop34
280
     0
102
RTVSPost2010PropOp34
 70
     1
102
RTVSPost2010Prop35
280
     0
102
RTVSPost2010PropOp35
 70
     1
102
RTVSPost2010Prop36
280
     0
102
RTVSPost2010PropOp36
 70
     1
102
RTVSPost2010Prop37
 90
       50
102
RTVSPost2010PropOp37
 70
     1
102
RTVSPost2010Prop38
140
0.0
102
RTVSPost2010PropOp38
 70
     1
102
RTVSPost2010Prop39
140
1.0
102
RTVSPost2010PropOp39
 70
     1
102
RTVSPost2010Prop40
 90
        0
102
RTVSPost2010PropOp40
 70
     1
102
RTVSPost2010Prop41ColorIndex
 90
       18
102
RTVSPost2010Prop41ColorRGB
 90
        0
102
RTVSPost2010PropOp41
 70
     1
102
RTVSPost2010Prop42
 90
       50
102
RTVSPost2010PropOp42
 70
     1
102
RTVSPost2010Prop43
 90
        3
102
RTVSPost2010PropOp43
 70
     1
102
RTVSPost2010Prop44ColorIndex
 90
        5
102
RTVSPost2010Prop44ColorRGB
 90
      255
102
RTVSPost2010PropOp44
 70
     1
102
RTVSPost2010Prop45
280
     0
102
RTVSPost2010PropOp45
 70
     1
102
RTVSPost2010Prop46
 90
       50
102
RTVSPost2010PropOp46
 70
     1
102
RTVSPost2010Prop47
 90
       50
102
RTVSPost2010PropOp47
 70
     1
102
RTVSPost2010Prop48
 90
       50
102
RTVSPost2010PropOp48
 70
     1
102
RTVSPost2010Prop49
280
     0
102
RTVSPost2010PropOp49
 70
     1
102
RTVSPost2010Prop50
 90
       50
102
RTVSPost2010PropOp50
 70
     1
102
RTVSPost2010Prop51ColorIndex
 90
      256
102
RTVSPost2010Prop51ColorRGB
 90
-16777216
102
RTVSPost2010PropOp51
 70
     0
102
RTVSPost2010Prop52
140
1.0
102
RTVSPost2010PropOp52
 70
     0
102
RTVSPost2010Prop53
 90
        2
102
RTVSPost2010PropOp53
 70
     1
102
RTVSPost2010Prop54
  1
strokes_ogs.tif
102
RTVSPost2010PropOp54
 70
     1
102
RTVSPost2010Prop55
280
     0
102
RTVSPost2010PropOp55
 70
     1
102
RTVSPost2010Prop56
140
1.0
102
RTVSPost2010PropOp56
 70
     1
102
RTVSPost2010Prop57
140
1.0
102
RTVSPost2010PropOp57
 70
     1
  0
XRECORD
  5
3E3
102
{ACAD_REACTORS
330
3E2
102
}
330
3E2
100
AcDbXrecord
280
     1
102
RTVSPost2010Prop28
280
     0
102
RTVSPost2010PropOp28
 70
     1
102
RTVSPost2010Prop29
280
     1
102
RTVSPost2010PropOp29
 70
     1
102
RTVSPost2010Prop30
280
     1
102
RTVSPost2010PropOp30
 70
     1
102
RTVSPost2010Prop31
280
     0
102
RTVSPost2010PropOp31
 70
     1
102
RTVSPost2010Prop32
280
     0
102
RTVSPost2010PropOp32
 70
     1
102
RTVSPost2010Prop33
280
     0
102
RTVSPost2010PropOp33
 70
     1
102
RTVSPost2010Prop34
280
     0
102
RTVSPost2010PropOp34
 70
     1
102
RTVSPost2010Prop35
280
     0
102
RTVSPost2010PropOp35
 70
     1
102
RTVSPost2010Prop36
280
     0
102
RTVSPost2010PropOp36
 70
     1
102
RTVSPost2010Prop37
 90
       50
102
RTVSPost2010PropOp37
 70
     1
102
RTVSPost2010Prop38
140
0.0
102
RTVSPost2010PropOp38
 70
     1
102
RTVSPost2010Prop39
140
1.0
102
RTVSPost2010PropOp39
 70
     1
102
RTVSPost2010Prop40
 90
        0
102
RTVSPost2010PropOp40
 70
     1
102
RTVSPost2010Prop41ColorIndex
 90
       18
102
RTVSPost2010Prop41ColorRGB
 90
        0
102
RTVSPost2010PropOp41
 70
     1
102
RTVSPost2010Prop42
 90
       50
102
RTVSPost2010PropOp42
 70
     1
102
RTVSPost2010Prop43
 90
        3
102
RTVSPost2010PropOp43
 70
     1
102
RTVSPost2010Prop44ColorIndex
 90
        5
102
RTVSPost2010Prop44ColorRGB
 90
      255
102
RTVSPost2010PropOp44
 70
     1
102
RTVSPost2010Prop45
280
     0
102
RTVSPost2010PropOp45
 70
     1
102
RTVSPost2010Prop46
 90
       50
102
RTVSPost2010PropOp46
 70
     1
102
RTVSPost2010Prop47
 90
       50
102
RTVSPost2010PropOp47
 70
     1
102
RTVSPost2010Prop48
 90
       50
102
RTVSPost2010PropOp48
 70
     1
102
RTVSPost2010Prop49
280
     0
102
RTVSPost2010PropOp49
 70
     1
102
RTVSPost2010Prop50
 90
       50
102
RTVSPost2010PropOp50
 70
     1
102
RTVSPost2010Prop51ColorIndex
 90
      256
102
RTVSPost2010Prop51ColorRGB
 90
-16777216
102
RTVSPost2010PropOp51
 70
     0
102
RTVSPost2010Prop52
140
1.0
102
RTVSPost2010PropOp52
 70
     0
102
RTVSPost2010Prop53
 90
        2
102
RTVSPost2010PropOp53
 70
     1
102
RTVSPost2010Prop54
  1
strokes_ogs.tif
102
RTVSPost2010PropOp54
 70
     1
102
RTVSPost2010Prop55
280
     0
102
RTVSPost2010PropOp55
 70
     1
102
RTVSPost2010Prop56
140
1.0
102
RTVSPost2010PropOp56
 70
     1
102
RTVSPost2010Prop57
140
1.0
102
RTVSPost2010PropOp57
 70
     1
  0
XRECORD
  5
3E5
102
{ACAD_REACTORS
330
3E4
102
}
330
3E4
100
AcDbXrecord
280
     1
102
RTVSPost2010Prop28
280
     0
102
RTVSPost2010PropOp28
 70
     1
102
RTVSPost2010Prop29
280
     1
102
RTVSPost2010PropOp29
 70
     1
102
RTVSPost2010Prop30
280
     1
102
RTVSPost2010PropOp30
 70
     1
102
RTVSPost2010Prop31
280
     0
102
RTVSPost2010PropOp31
 70
     1
102
RTVSPost2010Prop32
280
     0
102
RTVSPost2010PropOp32
 70
     1
102
RTVSPost2010Prop33
280
     0
102
RTVSPost2010PropOp33
 70
     1
102
RTVSPost2010Prop34
280
     0
102
RTVSPost2010PropOp34
 70
     1
102
RTVSPost2010Prop35
280
     0
102
RTVSPost2010PropOp35
 70
     1
102
RTVSPost2010Prop36
280
     0
102
RTVSPost2010PropOp36
 70
     1
102
RTVSPost2010Prop37
 90
       50
102
RTVSPost2010PropOp37
 70
     1
102
RTVSPost2010Prop38
140
0.0
102
RTVSPost2010PropOp38
 70
     1
102
RTVSPost2010Prop39
140
1.0
102
RTVSPost2010PropOp39
 70
     1
102
RTVSPost2010Prop40
 90
        0
102
RTVSPost2010PropOp40
 70
     1
102
RTVSPost2010Prop41ColorIndex
 90
       18
102
RTVSPost2010Prop41ColorRGB
 90
        0
102
RTVSPost2010PropOp41
 70
     1
102
RTVSPost2010Prop42
 90
       50
102
RTVSPost2010PropOp42
 70
     1
102
RTVSPost2010Prop43
 90
        3
102
RTVSPost2010PropOp43
 70
     1
102
RTVSPost2010Prop44ColorIndex
 90
        5
102
RTVSPost2010Prop44ColorRGB
 90
      255
102
RTVSPost2010PropOp44
 70
     1
102
RTVSPost2010Prop45
280
     0
102
RTVSPost2010PropOp45
 70
     1
102
RTVSPost2010Prop46
 90
       50
102
RTVSPost2010PropOp46
 70
     1
102
RTVSPost2010Prop47
 90
       50
102
RTVSPost2010PropOp47
 70
     1
102
RTVSPost2010Prop48
 90
       50
102
RTVSPost2010PropOp48
 70
     1
102
RTVSPost2010Prop49
280
     0
102
RTVSPost2010PropOp49
 70
     1
102
RTVSPost2010Prop50
 90
       50
102
RTVSPost2010PropOp50
 70
     1
102
RTVSPost2010Prop51ColorIndex
 90
      256
102
RTVSPost2010Prop51ColorRGB
 90
-16777216
102
RTVSPost2010PropOp51
 70
     0
102
RTVSPost2010Prop52
140
1.0
102
RTVSPost2010PropOp52
 70
     0
102
RTVSPost2010Prop53
 90
        2
102
RTVSPost2010PropOp53
 70
     1
102
RTVSPost2010Prop54
  1
strokes_ogs.tif
102
RTVSPost2010PropOp54
 70
     1
102
RTVSPost2010Prop55
280
     0
102
RTVSPost2010PropOp55
 70
     1
102
RTVSPost2010Prop56
140
1.0
102
RTVSPost2010PropOp56
 70
     1
102
RTVSPost2010Prop57
140
1.0
102
RTVSPost2010PropOp57
 70
     1
  0
XRECORD
  5
3D5
102
{ACAD_REACTORS
330
3D4
102
}
330
3D4
100
AcDbXrecord
280
     1
102
RTVSPost2010Prop28
280
     0
102
RTVSPost2010PropOp28
 70
     1
102
RTVSPost2010Prop29
280
     1
102
RTVSPost2010PropOp29
 70
     1
102
RTVSPost2010Prop30
280
     1
102
RTVSPost2010PropOp30
 70
     1
102
RTVSPost2010Prop31
280
     0
102
RTVSPost2010PropOp31
 70
     1
102
RTVSPost2010Prop32
280
     0
102
RTVSPost2010PropOp32
 70
     1
102
RTVSPost2010Prop33
280
     0
102
RTVSPost2010PropOp33
 70
     1
102
RTVSPost2010Prop34
280
     0
102
RTVSPost2010PropOp34
 70
     1
102
RTVSPost2010Prop35
280
     0
102
RTVSPost2010PropOp35
 70
     1
102
RTVSPost2010Prop36
280
     0
102
RTVSPost2010PropOp36
 70
     1
102
RTVSPost2010Prop37
 90
       50
102
RTVSPost2010PropOp37
 70
     1
102
RTVSPost2010Prop38
140
0.0
102
RTVSPost2010PropOp38
 70
     1
102
RTVSPost2010Prop39
140
1.0
102
RTVSPost2010PropOp39
 70
     1
102
RTVSPost2010Prop40
 90
        0
102
RTVSPost2010PropOp40
 70
     1
102
RTVSPost2010Prop41ColorIndex
 90
       18
102
RTVSPost2010Prop41ColorRGB
 90
        0
102
RTVSPost2010PropOp41
 70
     1
102
RTVSPost2010Prop42
 90
       50
102
RTVSPost2010PropOp42
 70
     1
102
RTVSPost2010Prop43
 90
        3
102
RTVSPost2010PropOp43
 70
     1
102
RTVSPost2010Prop44ColorIndex
 90
        5
102
RTVSPost2010Prop44ColorRGB
 90
      255
102
RTVSPost2010PropOp44
 70
     1
102
RTVSPost2010Prop45
280
     0
102
RTVSPost2010PropOp45
 70
     1
102
RTVSPost2010Prop46
 90
       50
102
RTVSPost2010PropOp46
 70
     1
102
RTVSPost2010Prop47
 90
       50
102
RTVSPost2010PropOp47
 70
     1
102
RTVSPost2010Prop48
 90
       50
102
RTVSPost2010PropOp48
 70
     1
102
RTVSPost2010Prop49
280
     0
102
RTVSPost2010PropOp49
 70
     1
102
RTVSPost2010Prop50
 90
       50
102
RTVSPost2010PropOp50
 70
     1
102
RTVSPost2010Prop51ColorIndex
 90
      256
102
RTVSPost2010Prop51ColorRGB
 90
-16777216
102
RTVSPost2010PropOp51
 70
     0
102
RTVSPost2010Prop52
140
1.0
102
RTVSPost2010PropOp52
 70
     0
102
RTVSPost2010Prop53
 90
        2
102
RTVSPost2010PropOp53
 70
     1
102
RTVSPost2010Prop54
  1
strokes_ogs.tif
102
RTVSPost2010PropOp54
 70
     1
102
RTVSPost2010Prop55
280
     0
102
RTVSPost2010PropOp55
 70
     1
102
RTVSPost2010Prop56
140
1.0
102
RTVSPost2010PropOp56
 70
     1
102
RTVSPost2010Prop57
140
1.0
102
RTVSPost2010PropOp57
 70
     1
  0
XRECORD
  5
3C7
102
{ACAD_REACTORS
330
3C6
102
}
330
3C6
100
AcDbXrecord
280
     1
102
RTVSPost2010Prop28
280
     0
102
RTVSPost2010PropOp28
 70
     1
102
RTVSPost2010Prop29
280
     1
102
RTVSPost2010PropOp29
 70
     1
102
RTVSPost2010Prop30
280
     1
102
RTVSPost2010PropOp30
 70
     1
102
RTVSPost2010Prop31
280
     0
102
RTVSPost2010PropOp31
 70
     1
102
RTVSPost2010Prop32
280
     0
102
RTVSPost2010PropOp32
 70
     1
102
RTVSPost2010Prop33
280
     0
102
RTVSPost2010PropOp33
 70
     1
102
RTVSPost2010Prop34
280
     0
102
RTVSPost2010PropOp34
 70
     1
102
RTVSPost2010Prop35
280
     0
102
RTVSPost2010PropOp35
 70
     1
102
RTVSPost2010Prop36
280
     0
102
RTVSPost2010PropOp36
 70
     1
102
RTVSPost2010Prop37
 90
       50
102
RTVSPost2010PropOp37
 70
     1
102
RTVSPost2010Prop38
140
0.0
102
RTVSPost2010PropOp38
 70
     1
102
RTVSPost2010Prop39
140
1.0
102
RTVSPost2010PropOp39
 70
     1
102
RTVSPost2010Prop40
 90
        0
102
RTVSPost2010PropOp40
 70
     1
102
RTVSPost2010Prop41ColorIndex
 90
       18
102
RTVSPost2010Prop41ColorRGB
 90
        0
102
RTVSPost2010PropOp41
 70
     1
102
RTVSPost2010Prop42
 90
       50
102
RTVSPost2010PropOp42
 70
     1
102
RTVSPost2010Prop43
 90
        3
102
RTVSPost2010PropOp43
 70
     1
102
RTVSPost2010Prop44ColorIndex
 90
        5
102
RTVSPost2010Prop44ColorRGB
 90
      255
102
RTVSPost2010PropOp44
 70
     1
102
RTVSPost2010Prop45
280
     0
102
RTVSPost2010PropOp45
 70
     1
102
RTVSPost2010Prop46
 90
       50
102
RTVSPost2010PropOp46
 70
     1
102
RTVSPost2010Prop47
 90
       50
102
RTVSPost2010PropOp47
 70
     1
102
RTVSPost2010Prop48
 90
       50
102
RTVSPost2010PropOp48
 70
     1
102
RTVSPost2010Prop49
280
     0
102
RTVSPost2010PropOp49
 70
     1
102
RTVSPost2010Prop50
 90
       50
102
RTVSPost2010PropOp50
 70
     1
102
RTVSPost2010Prop51ColorIndex
 90
      256
102
RTVSPost2010Prop51ColorRGB
 90
-16777216
102
RTVSPost2010PropOp51
 70
     0
102
RTVSPost2010Prop52
140
1.0
102
RTVSPost2010PropOp52
 70
     0
102
RTVSPost2010Prop53
 90
        2
102
RTVSPost2010PropOp53
 70
     1
102
RTVSPost2010Prop54
  1
strokes_ogs.tif
102
RTVSPost2010PropOp54
 70
     1
102
RTVSPost2010Prop55
280
     0
102
RTVSPost2010PropOp55
 70
     1
102
RTVSPost2010Prop56
140
1.0
102
RTVSPost2010PropOp56
 70
     1
102
RTVSPost2010Prop57
140
1.0
102
RTVSPost2010PropOp57
 70
     1
  0
XRECORD
  5
3E7
102
{ACAD_REACTORS
330
3E6
102
}
330
3E6
100
AcDbXrecord
280
     1
102
RTVSPost2010Prop28
280
     0
102
RTVSPost2010PropOp28
 70
     1
102
RTVSPost2010Prop29
280
     1
102
RTVSPost2010PropOp29
 70
     1
102
RTVSPost2010Prop30
280
     1
102
RTVSPost2010PropOp30
 70
     1
102
RTVSPost2010Prop31
280
     0
102
RTVSPost2010PropOp31
 70
     1
102
RTVSPost2010Prop32
280
     0
102
RTVSPost2010PropOp32
 70
     1
102
RTVSPost2010Prop33
280
     0
102
RTVSPost2010PropOp33
 70
     1
102
RTVSPost2010Prop34
280
     0
102
RTVSPost2010PropOp34
 70
     1
102
RTVSPost2010Prop35
280
     0
102
RTVSPost2010PropOp35
 70
     1
102
RTVSPost2010Prop36
280
     0
102
RTVSPost2010PropOp36
 70
     1
102
RTVSPost2010Prop37
 90
       50
102
RTVSPost2010PropOp37
 70
     1
102
RTVSPost2010Prop38
140
0.0
102
RTVSPost2010PropOp38
 70
     1
102
RTVSPost2010Prop39
140
1.0
102
RTVSPost2010PropOp39
 70
     1
102
RTVSPost2010Prop40
 90
        0
102
RTVSPost2010PropOp40
 70
     1
102
RTVSPost2010Prop41ColorIndex
 90
       18
102
RTVSPost2010Prop41ColorRGB
 90
        0
102
RTVSPost2010PropOp41
 70
     1
102
RTVSPost2010Prop42
 90
       50
102
RTVSPost2010PropOp42
 70
     1
102
RTVSPost2010Prop43
 90
        3
102
RTVSPost2010PropOp43
 70
     1
102
RTVSPost2010Prop44ColorIndex
 90
        5
102
RTVSPost2010Prop44ColorRGB
 90
      255
102
RTVSPost2010PropOp44
 70
     1
102
RTVSPost2010Prop45
280
     0
102
RTVSPost2010PropOp45
 70
     1
102
RTVSPost2010Prop46
 90
       50
102
RTVSPost2010PropOp46
 70
     1
102
RTVSPost2010Prop47
 90
       50
102
RTVSPost2010PropOp47
 70
     1
102
RTVSPost2010Prop48
 90
       50
102
RTVSPost2010PropOp48
 70
     1
102
RTVSPost2010Prop49
280
     0
102
RTVSPost2010PropOp49
 70
     1
102
RTVSPost2010Prop50
 90
       50
102
RTVSPost2010PropOp50
 70
     1
102
RTVSPost2010Prop51ColorIndex
 90
      256
102
RTVSPost2010Prop51ColorRGB
 90
-16777216
102
RTVSPost2010PropOp51
 70
     0
102
RTVSPost2010Prop52
140
1.0
102
RTVSPost2010PropOp52
 70
     0
102
RTVSPost2010Prop53
 90
        2
102
RTVSPost2010PropOp53
 70
     1
102
RTVSPost2010Prop54
  1
strokes_ogs.tif
102
RTVSPost2010PropOp54
 70
     1
102
RTVSPost2010Prop55
280
     0
102
RTVSPost2010PropOp55
 70
     1
102
RTVSPost2010Prop56
140
1.0
102
RTVSPost2010PropOp56
 70
     1
102
RTVSPost2010Prop57
140
1.0
102
RTVSPost2010PropOp57
 70
     1
  0
ENDSEC
  0
EOF
