  0
SECTION
  2
HEADER
  9
$ACADVER
  1
AC1024
  9
$ACADMAINTVER
 70
     6
  9
$DWGCODEPAGE
  3
ANSI_1252
  9
$INSBASE
 10
0.0
 20
0.0
 30
0.0
  9
$EXTMIN
 10
-97.93606297498508
 20
-141.7571033549152
 30
0.0
  9
$EXTMAX
 10
98.0839462901311
 20
141.302347929844
 30
0.0
  9
$LIMMIN
 10
0.0
 20
0.0
  9
$LIMMAX
 10
420.0
 20
297.0
  9
$ORTHOMODE
 70
     0
  9
$REGENMODE
 70
     1
  9
$FILLMODE
 70
     1
  9
$QTEXTMODE
 70
     0
  9
$MIRRTEXT
 70
     1
  9
$LTSCALE
 40
1.0
  9
$ATTMODE
 70
     1
  9
$TEXTSIZE
 40
1.0
  9
$TRACEWID
 40
1.0
  9
$TEXTSTYLE
  7
Standard
  9
$CLAYER
  8
0
  9
$CELTYPE
  6
ByLayer
  9
$CECOLOR
 62
   256
  9
$CELTSCALE
 40
1.0
  9
$DISPSILH
 70
     0
  9
$DIMSCALE
 40
1.0
  9
$DIMASZ
 40
2.5
  9
$DIMEXO
 40
0.625
  9
$DIMDLI
 40
3.75
  9
$DIMRND
 40
0.0
  9
$DIMDLE
 40
0.0
  9
$DIMEXE
 40
1.25
  9
$DIMTP
 40
0.0
  9
$DIMTM
 40
0.0
  9
$DIMTXT
 40
2.5
  9
$DIMCEN
 40
2.5
  9
$DIMTSZ
 40
0.0
  9
$DIMTOL
 70
     0
  9
$DIMLIM
 70
     0
  9
$DIMTIH
 70
     0
  9
$DIMTOH
 70
     0
  9
$DIMSE1
 70
     0
  9
$DIMSE2
 70
     0
  9
$DIMTAD
 70
     1
  9
$DIMZIN
 70
     8
  9
$DIMBLK
  1

  9
$DIMASO
 70
     1
  9
$DIMSHO
 70
     1
  9
$DIMPOST
  1

  9
$DIMAPOST
  1

  9
$DIMALT
 70
     0
  9
$DIMALTD
 70
     3
  9
$DIMALTF
 40
0.03937007874016
  9
$DIMLFAC
 40
1.0
  9
$DIMTOFL
 70
     1
  9
$DIMTVP
 40
0.0
  9
$DIMTIX
 70
     0
  9
$DIMSOXD
 70
     0
  9
$DIMSAH
 70
     0
  9
$DIMBLK1
  1

  9
$DIMBLK2
  1

  9
$DIMSTYLE
  2
ISO-25
  9
$DIMCLRD
 70
     0
  9
$DIMCLRE
 70
     0
  9
$DIMCLRT
 70
     0
  9
$DIMTFAC
 40
1.0
  9
$DIMGAP
 40
0.625
  9
$DIMJUST
 70
     0
  9
$DIMSD1
 70
     0
  9
$DIMSD2
 70
     0
  9
$DIMTOLJ
 70
     0
  9
$DIMTZIN
 70
     8
  9
$DIMALTZ
 70
     0
  9
$DIMALTTZ
 70
     0
  9
$DIMUPT
 70
     0
  9
$DIMDEC
 70
     2
  9
$DIMTDEC
 70
     2
  9
$DIMALTU
 70
     2
  9
$DIMALTTD
 70
     3
  9
$DIMTXSTY
  7
Standard
  9
$DIMAUNIT
 70
     0
  9
$DIMADEC
 70
     0
  9
$DIMALTRND
 40
0.0
  9
$DIMAZIN
 70
     0
  9
$DIMDSEP
 70
    44
  9
$DIMATFIT
 70
     3
  9
$DIMFRAC
 70
     0
  9
$DIMLDRBLK
  1

  9
$DIMLUNIT
 70
     2
  9
$DIMLWD
 70
    -2
  9
$DIMLWE
 70
    -2
  9
$DIMTMOVE
 70
     0
  9
$DIMFXL
 40
1.0
  9
$DIMFXLON
 70
     0
  9
$DIMJOGANG
 40
0.7853981633974483
  9
$DIMTFILL
 70
     0
  9
$DIMTFILLCLR
 70
     0
  9
$DIMARCSYM
 70
     0
  9
$DIMLTYPE
  6

  9
$DIMLTEX1
  6

  9
$DIMLTEX2
  6

  9
$DIMTXTDIRECTION
 70
     0
  9
$LUNITS
 70
     2
  9
$LUPREC
 70
     4
  9
$SKETCHINC
 40
1.0
  9
$FILLETRAD
 40
10.0
  9
$AUNITS
 70
     0
  9
$AUPREC
 70
     0
  9
$MENU
  1
.
  9
$ELEVATION
 40
0.0
  9
$PELEVATION
 40
0.0
  9
$THICKNESS
 40
0.0
  9
$LIMCHECK
 70
     0
  9
$CHAMFERA
 40
0.0
  9
$CHAMFERB
 40
0.0
  9
$CHAMFERC
 40
0.0
  9
$CHAMFERD
 40
0.0
  9
$SKPOLY
 70
     0
  9
$TDCREATE
 40
2457920.386742361
  9
$TDUCREATE
 40
2457920.345075694
  9
$TDUPDATE
 40
2457920.386743032
  9
$TDUUPDATE
 40
2457920.345076366
  9
$TDINDWG
 40
0.0000000116
  9
$TDUSRTIMER
 40
0.0000000116
  9
$USRTIMER
 70
     1
  9
$ANGBASE
 50
0.0
  9
$ANGDIR
 70
     0
  9
$PDMODE
 70
     0
  9
$PDSIZE
 40
0.0
  9
$PLINEWID
 40
0.0
  9
$SPLFRAME
 70
     0
  9
$SPLINETYPE
 70
     6
  9
$SPLINESEGS
 70
     8
  9
$HANDSEED
  5
492
  9
$SURFTAB1
 70
     6
  9
$SURFTAB2
 70
     6
  9
$SURFTYPE
 70
     6
  9
$SURFU
 70
     6
  9
$SURFV
 70
     6
  9
$UCSBASE
  2

  9
$UCSNAME
  2

  9
$UCSORG
 10
0.0
 20
0.0
 30
0.0
  9
$UCSXDIR
 10
1.0
 20
0.0
 30
0.0
  9
$UCSYDIR
 10
0.0
 20
1.0
 30
0.0
  9
$UCSORTHOREF
  2

  9
$UCSORTHOVIEW
 70
     0
  9
$UCSORGTOP
 10
0.0
 20
0.0
 30
0.0
  9
$UCSORGBOTTOM
 10
0.0
 20
0.0
 30
0.0
  9
$UCSORGLEFT
 10
0.0
 20
0.0
 30
0.0
  9
$UCSORGRIGHT
 10
0.0
 20
0.0
 30
0.0
  9
$UCSORGFRONT
 10
0.0
 20
0.0
 30
0.0
  9
$UCSORGBACK
 10
0.0
 20
0.0
 30
0.0
  9
$PUCSBASE
  2

  9
$PUCSNAME
  2

  9
$PUCSORG
 10
0.0
 20
0.0
 30
0.0
  9
$PUCSXDIR
 10
1.0
 20
0.0
 30
0.0
  9
$PUCSYDIR
 10
0.0
 20
1.0
 30
0.0
  9
$PUCSORTHOREF
  2

  9
$PUCSORTHOVIEW
 70
     0
  9
$PUCSORGTOP
 10
0.0
 20
0.0
 30
0.0
  9
$PUCSORGBOTTOM
 10
0.0
 20
0.0
 30
0.0
  9
$PUCSORGLEFT
 10
0.0
 20
0.0
 30
0.0
  9
$PUCSORGRIGHT
 10
0.0
 20
0.0
 30
0.0
  9
$PUCSORGFRONT
 10
0.0
 20
0.0
 30
0.0
  9
$PUCSORGBACK
 10
0.0
 20
0.0
 30
0.0
  9
$USERI1
 70
     0
  9
$USERI2
 70
     0
  9
$USERI3
 70
     0
  9
$USERI4
 70
     0
  9
$USERI5
 70
     0
  9
$USERR1
 40
0.0
  9
$USERR2
 40
0.0
  9
$USERR3
 40
0.0
  9
$USERR4
 40
0.0
  9
$USERR5
 40
0.0
  9
$WORLDVIEW
 70
     1
  9
$SHADEDGE
 70
     3
  9
$SHADEDIF
 70
    70
  9
$TILEMODE
 70
     1
  9
$MAXACTVP
 70
    64
  9
$PINSBASE
 10
0.0
 20
0.0
 30
0.0
  9
$PLIMCHECK
 70
     0
  9
$PEXTMIN
 10
1.000000000000000E+20
 20
1.000000000000000E+20
 30
1.000000000000000E+20
  9
$PEXTMAX
 10
-1.000000000000000E+20
 20
-1.000000000000000E+20
 30
-1.000000000000000E+20
  9
$PLIMMIN
 10
0.0
 20
0.0
  9
$PLIMMAX
 10
420.0
 20
297.0
  9
$UNITMODE
 70
     0
  9
$VISRETAIN
 70
     1
  9
$PLINEGEN
 70
     0
  9
$PSLTSCALE
 70
     1
  9
$TREEDEPTH
 70
  3020
  9
$CMLSTYLE
  2
Standard
  9
$CMLJUST
 70
     0
  9
$CMLSCALE
 40
20.0
  9
$PROXYGRAPHICS
 70
     1
  9
$MEASUREMENT
 70
     1
  9
$CELWEIGHT
370
    -1
  9
$ENDCAPS
280
     0
  9
$JOINSTYLE
280
     0
  9
$LWDISPLAY
290
     0
  9
$INSUNITS
 70
     4
  9
$HYPERLINKBASE
  1

  9
$STYLESHEET
  1

  9
$XEDIT
290
     1
  9
$CEPSNTYPE
380
     0
  9
$PSTYLEMODE
290
     1
  9
$FINGERPRINTGUID
  2
{F4A50355-05D6-4B54-BBE7-7CC49C62C2E7}
  9
$VERSIONGUID
  2
{FAEB1C32-E019-11D5-929B-00C0DF256EC4}
  9
$EXTNAMES
290
     1
  9
$PSVPSCALE
 40
0.0
  9
$OLESTARTUP
290
     0
  9
$SORTENTS
280
   127
  9
$INDEXCTL
280
     0
  9
$HIDETEXT
280
     1
  9
$XCLIPFRAME
280
     2
  9
$HALOGAP
280
     0
  9
$OBSCOLOR
 70
   257
  9
$OBSLTYPE
280
     0
  9
$INTERSECTIONDISPLAY
280
     0
  9
$INTERSECTIONCOLOR
 70
   257
  9
$DIMASSOC
280
     2
  9
$PROJECTNAME
  1

  9
$CAMERADISPLAY
290
     0
  9
$LENSLENGTH
 40
50.0
  9
$CAMERAHEIGHT
 40
0.0
  9
$STEPSPERSEC
 40
2.0
  9
$STEPSIZE
 40
6.0
  9
$3DDWFPREC
 40
2.0
  9
$PSOLWIDTH
 40
5.0
  9
$PSOLHEIGHT
 40
80.0
  9
$LOFTANG1
 40
1.570796326794897
  9
$LOFTANG2
 40
1.570796326794897
  9
$LOFTMAG1
 40
0.0
  9
$LOFTMAG2
 40
0.0
  9
$LOFTPARAM
 70
     7
  9
$LOFTNORMALS
280
     1
  9
$LATITUDE
 40
37.795
  9
$LONGITUDE
 40
-122.394
  9
$NORTHDIRECTION
 40
0.0
  9
$TIMEZONE
 70
 -8000
  9
$LIGHTGLYPHDISPLAY
280
     1
  9
$TILEMODELIGHTSYNCH
280
     1
  9
$CMATERIAL
347
44
  9
$SOLIDHIST
280
     1
  9
$SHOWHIST
280
     1
  9
$DWFFRAME
280
     2
  9
$DGNFRAME
280
     2
  9
$REALWORLDSCALE
290
     1
  9
$INTERFERECOLOR
 62
   256
  9
$CSHADOW
280
     0
  9
$SHADOWPLANELOCATION
 40
0.0
  0
ENDSEC
  0
SECTION
  2
CLASSES
  0
CLASS
  1
ACDBDICTIONARYWDFLT
  2
AcDbDictionaryWithDefault
  3
ObjectDBX Classes
 90
        0
 91
        4
280
     0
281
     0
  0
CLASS
  1
VISUALSTYLE
  2
AcDbVisualStyle
  3
ObjectDBX Classes
 90
     4095
 91
        4
280
     0
281
     0
  0
CLASS
  1
MATERIAL
  2
AcDbMaterial
  3
ObjectDBX Classes
 90
     1153
 91
        4
280
     0
281
     0
  0
CLASS
  1
SCALE
  2
AcDbScale
  3
ObjectDBX Classes
 90
     1153
 91
        4
280
     0
281
     0
  0
CLASS
  1
SUN
  2
AcDbSun
  3
SCENEOE
 90
     1153
 91
        4
280
     0
281
     0
  0
CLASS
  1
DICTIONARYVAR
  2
AcDbDictionaryVar
  3
ObjectDBX Classes
 90
        0
 91
        4
280
     0
281
     0
  0
ENDSEC
  0
SECTION
  2
TABLES
  0
TABLE
  2
VPORT
  5
8
330
0
100
AcDbSymbolTable
 70
     1
  0
VPORT
  5
29
330
8
100
AcDbSymbolTableRecord
100
AcDbViewportTableRecord
  2
*Active
 70
     0
 10
0.0
 20
0.0
 11
1.0
 21
1.0
 12
344.1869158878504
 22
148.5
 13
0.0
 23
0.0
 14
10.0
 24
10.0
 15
10.0
 25
10.0
 16
0.0
 26
0.0
 36
1.0
 17
0.0
 27
0.0
 37
0.0
 40
297.0
 41
1.972972972850329
 42
50.0
 43
0.0
 44
0.0
 50
0.0
 51
0.0
 71
     0
 72
   100
 73
     1
 74
     3
 75
     0
 76
     0
 77
     0
 78
     0
281
     0
 65
     1
110
0.0
120
0.0
130
0.0
111
1.0
121
0.0
131
0.0
112
0.0
122
1.0
132
0.0
 79
     0
146
0.0
 60
     3
 61
     5
292
     1
282
     1
141
0.0
142
0.0
 63
   250
361
69
  0
ENDTAB
  0
TABLE
  2
LTYPE
  5
5
330
0
100
AcDbSymbolTable
 70
     9
  0
LTYPE
  5
14
330
5
100
AcDbSymbolTableRecord
100
AcDbLinetypeTableRecord
  2
ByBlock
 70
     0
  3

 72
    65
 73
     0
 40
0.0
  0
LTYPE
  5
15
330
5
100
AcDbSymbolTableRecord
100
AcDbLinetypeTableRecord
  2
ByLayer
 70
     0
  3

 72
    65
 73
     0
 40
0.0
  0
LTYPE
  5
16
330
5
100
AcDbSymbolTableRecord
100
AcDbLinetypeTableRecord
  2
Continuous
 70
     0
  3
Solid line
 72
    65
 73
     0
 40
0.0
  0
LTYPE
  5
6A
330
5
100
AcDbSymbolTableRecord
100
AcDbLinetypeTableRecord
  2
DOT
 70
     0
  3
____    ____    
 72
    65
 73
     4
 40
16.0
 49
4.0
 74
     0
 49
-4.0
 74
     0
 49
4.0
 74
     0
 49
-4.0
 74
     0
  0
LTYPE
  5
6B
330
5
100
AcDbSymbolTableRecord
100
AcDbLinetypeTableRecord
  2
HIDDEN
 70
     0
  3
__  __  __  __  
 72
    65
 73
     8
 40
16.0
 49
2.0
 74
     0
 49
-2.0
 74
     0
 49
2.0
 74
     0
 49
-2.0
 74
     0
 49
2.0
 74
     0
 49
-2.0
 74
     0
 49
2.0
 74
     0
 49
-2.0
 74
     0
  0
LTYPE
  5
6C
330
5
100
AcDbSymbolTableRecord
100
AcDbLinetypeTableRecord
  2
DASHED
 70
     0
  3
________        
 72
    65
 73
     2
 40
16.0
 49
8.0
 74
     0
 49
-8.0
 74
     0
  0
LTYPE
  5
6D
330
5
100
AcDbSymbolTableRecord
100
AcDbLinetypeTableRecord
  2
DASHDOT
 70
     0
  3
____________    
 72
    65
 73
     2
 40
16.0
 49
12.0
 74
     0
 49
-4.0
 74
     0
  0
LTYPE
  5
6E
330
5
100
AcDbSymbolTableRecord
100
AcDbLinetypeTableRecord
  2
BORDER
 70
     0
  3
_____________ _ 
 72
    65
 73
     4
 40
16.0
 49
13.0
 74
     0
 49
-1.0
 74
     0
 49
1.0
 74
     0
 49
-1.0
 74
     0
  0
LTYPE
  5
6F
330
5
100
AcDbSymbolTableRecord
100
AcDbLinetypeTableRecord
  2
CENTER
 70
     0
  3
_________  ___  
 72
    65
 73
     4
 40
16.0
 49
9.0
 74
     0
 49
-2.0
 74
     0
 49
3.0
 74
     0
 49
-2.0
 74
     0
  0
LTYPE
  5
70
330
5
100
AcDbSymbolTableRecord
100
AcDbLinetypeTableRecord
  2
PHANTOM
 70
     0
  3
_______   ___   
 72
    65
 73
     4
 40
16.0
 49
7.0
 74
     0
 49
-3.0
 74
     0
 49
3.0
 74
     0
 49
-3.0
 74
     0
  0
LTYPE
  5
71
330
5
100
AcDbSymbolTableRecord
100
AcDbLinetypeTableRecord
  2
DIVIDE
 70
     0
  3
_______  __ __  
 72
    65
 73
     6
 40
16.0
 49
7.0
 74
     0
 49
-2.0
 74
     0
 49
2.0
 74
     0
 49
-1.0
 74
     0
 49
2.0
 74
     0
 49
-2.0
 74
     0
  0
ENDTAB
  0
TABLE
  2
LAYER
  5
2
330
0
100
AcDbSymbolTable
 70
     4
  0
LAYER
  5
10
330
2
100
AcDbSymbolTableRecord
100
AcDbLayerTableRecord
  2
0
 70
     0
 62
     7
  6
Continuous
370
    -3
390
F
347
46
  0
LAYER
  5
73
330
2
100
AcDbSymbolTableRecord
100
AcDbLayerTableRecord
  2
1
 70
     0
 62
     7
420
 16777215
  6
Continuous
370
    -3
390
F
347
46
  0
LAYER
  5
7A
330
2
100
AcDbSymbolTableRecord
100
AcDbLayerTableRecord
  2
SYSTEM_ASSIGNED_LAYER
 70
     0
 62
     7
420
 16777215
  6
Continuous
370
    -3
390
F
347
46
  0
LAYER
  5
18A
330
2
100
AcDbSymbolTableRecord
100
AcDbLayerTableRecord
  2
FIXING
 70
     0
 62
     7
420
 16777215
  6
Continuous
370
    -3
390
F
347
46
  0
ENDTAB
  0
TABLE
  2
STYLE
  5
3
330
0
100
AcDbSymbolTable
 70
     2
  0
STYLE
  5
11
330
3
100
AcDbSymbolTableRecord
100
AcDbTextStyleTableRecord
  2
Standard
 70
     0
 40
0.0
 41
1.0
 50
0.0
 71
     0
 42
1.0
  3
txt
  4

  0
STYLE
  5
72
330
3
100
AcDbSymbolTableRecord
100
AcDbTextStyleTableRecord
  2
ARIAL
 70
     0
 40
0.2
 41
1.0
 50
0.0
 71
     0
 42
1.0
  3
ARIAL.TTF
  4

  0
ENDTAB
  0
TABLE
  2
VIEW
  5
6
330
0
100
AcDbSymbolTable
 70
     0
  0
ENDTAB
  0
TABLE
  2
UCS
  5
7
330
0
100
AcDbSymbolTable
 70
     0
  0
ENDTAB
  0
TABLE
  2
APPID
  5
9
330
0
100
AcDbSymbolTable
 70
     1
  0
APPID
  5
12
330
9
100
AcDbSymbolTableRecord
100
AcDbRegAppTableRecord
  2
ACAD
 70
     0
  0
ENDTAB
  0
TABLE
  2
DIMSTYLE
  5
A
330
0
100
AcDbSymbolTable
 70
     1
100
AcDbDimStyleTable
  0
DIMSTYLE
105
27
330
A
100
AcDbSymbolTableRecord
100
AcDbDimStyleTableRecord
  2
ISO-25
 70
     0
 41
2.5
 42
0.625
 43
3.75
 44
1.25
 73
     0
 74
     0
 77
     1
 78
     8
140
2.5
141
2.5
143
0.03937007874016
147
0.625
171
     3
172
     1
178
     0
271
     2
272
     2
274
     3
278
    44
283
     0
284
     8
340
11
  0
ENDTAB
  0
TABLE
  2
BLOCK_RECORD
  5
1
330
0
100
AcDbSymbolTable
 70
    23
  0
BLOCK_RECORD
  5
1F
330
1
100
AcDbSymbolTableRecord
100
AcDbBlockTableRecord
  2
*Model_Space
340
22
 70
     0
280
     1
281
     0
  0
BLOCK_RECORD
  5
1B
330
1
100
AcDbSymbolTableRecord
100
AcDbBlockTableRecord
  2
*Paper_Space
340
1E
 70
     0
280
     1
281
     0
  0
BLOCK_RECORD
  5
23
330
1
100
AcDbSymbolTableRecord
100
AcDbBlockTableRecord
  2
*Paper_Space0
340
26
 70
     0
280
     1
281
     0
  0
BLOCK_RECORD
  5
74
330
1
100
AcDbSymbolTableRecord
100
AcDbBlockTableRecord
  2
GEN_BLOCK
340
0
102
{BLKREFS
331
77
102
}
 70
     0
280
     1
281
     0
  0
BLOCK_RECORD
  5
7B
330
1
100
AcDbSymbolTableRecord
100
AcDbBlockTableRecord
  2
GEN_BLOCK00000
340
0
102
{BLKREFS
331
7E
102
}
 70
     0
280
     1
281
     0
  0
BLOCK_RECORD
  5
82
330
1
100
AcDbSymbolTableRecord
100
AcDbBlockTableRecord
  2
GEN_BLOCK00001
340
0
102
{BLKREFS
331
85
102
}
 70
     0
280
     1
281
     0
  0
BLOCK_RECORD
  5
C9
330
1
100
AcDbSymbolTableRecord
100
AcDbBlockTableRecord
  2
GEN_BLOCK00002
340
0
102
{BLKREFS
331
CC
102
}
 70
     0
280
     1
281
     0
  0
BLOCK_RECORD
  5
D2
330
1
100
AcDbSymbolTableRecord
100
AcDbBlockTableRecord
  2
GEN_BLOCK00003
340
0
102
{BLKREFS
331
D5
102
}
 70
     0
280
     1
281
     0
  0
BLOCK_RECORD
  5
18B
330
1
100
AcDbSymbolTableRecord
100
AcDbBlockTableRecord
  2
8569S
340
0
102
{BLKREFS
331
18F
102
}
 70
     0
280
     1
281
     0
  0
BLOCK_RECORD
  5
22C
330
1
100
AcDbSymbolTableRecord
100
AcDbBlockTableRecord
  2
GEN_BLOCK00004
340
0
102
{BLKREFS
331
22F
102
}
 70
     0
280
     1
281
     0
  0
BLOCK_RECORD
  5
239
330
1
100
AcDbSymbolTableRecord
100
AcDbBlockTableRecord
  2
GEN_BLOCK00005
340
0
102
{BLKREFS
331
23C
102
}
 70
     0
280
     1
281
     0
  0
BLOCK_RECORD
  5
249
330
1
100
AcDbSymbolTableRecord
100
AcDbBlockTableRecord
  2
GEN_BLOCK00006
340
0
102
{BLKREFS
331
24C
102
}
 70
     0
280
     1
281
     0
  0
BLOCK_RECORD
  5
2C7
330
1
100
AcDbSymbolTableRecord
100
AcDbBlockTableRecord
  2
GEN_BLOCK00007
340
0
102
{BLKREFS
331
2CA
102
}
 70
     0
280
     1
281
     0
  0
BLOCK_RECORD
  5
2CD
330
1
100
AcDbSymbolTableRecord
100
AcDbBlockTableRecord
  2
GEN_BLOCK00008
340
0
102
{BLKREFS
331
2D0
102
}
 70
     0
280
     1
281
     0
  0
BLOCK_RECORD
  5
2D2
330
1
100
AcDbSymbolTableRecord
100
AcDbBlockTableRecord
  2
GEN_BLOCK00009
340
0
102
{BLKREFS
331
2D5
102
}
 70
     0
280
     1
281
     0
  0
BLOCK_RECORD
  5
2E1
330
1
100
AcDbSymbolTableRecord
100
AcDbBlockTableRecord
  2
GEN_BLOCK00010
340
0
102
{BLKREFS
331
2E4
102
}
 70
     0
280
     1
281
     0
  0
BLOCK_RECORD
  5
399
330
1
100
AcDbSymbolTableRecord
100
AcDbBlockTableRecord
  2
GEN_BLOCK00011
340
0
102
{BLKREFS
331
39C
102
}
 70
     0
280
     1
281
     0
  0
BLOCK_RECORD
  5
39E
330
1
100
AcDbSymbolTableRecord
100
AcDbBlockTableRecord
  2
GEN_BLOCK00012
340
0
102
{BLKREFS
331
3A1
102
}
 70
     0
280
     1
281
     0
  0
BLOCK_RECORD
  5
3B0
330
1
100
AcDbSymbolTableRecord
100
AcDbBlockTableRecord
  2
PROTO
340
0
102
{BLKREFS
331
3B4
102
}
 70
     0
280
     1
281
     0
  0
BLOCK_RECORD
  5
3CC
330
1
100
AcDbSymbolTableRecord
100
AcDbBlockTableRecord
  2
_RASTER_[__EXITEX-DC2_ARTWORK_PIERCE_COMMUNICATIONS_LOGO_EXITEXLOGOSMALLVERSION_JPG]
340
0
102
{BLKREFS
331
3D0
102
}
 70
     0
280
     1
281
     0
  0
BLOCK_RECORD
  5
3D3
330
1
100
AcDbSymbolTableRecord
100
AcDbBlockTableRecord
  2
GEN_BLOCK00013
340
0
102
{BLKREFS
331
3D6
102
}
 70
     0
280
     1
281
     0
  0
BLOCK_RECORD
  5
3E9
330
1
100
AcDbSymbolTableRecord
100
AcDbBlockTableRecord
  2
GEN_BLOCK00014
340
0
102
{BLKREFS
331
3EC
102
}
 70
     0
280
     1
281
     0
  0
BLOCK_RECORD
  5
3F6
330
1
100
AcDbSymbolTableRecord
100
AcDbBlockTableRecord
  2
GEN_BLOCK00015
340
0
102
{BLKREFS
331
3F9
102
}
 70
     0
280
     1
281
     0
  0
BLOCK_RECORD
  5
3FA
330
1
100
AcDbSymbolTableRecord
100
AcDbBlockTableRecord
  2
GEN_BLOCK00016
340
0
102
{BLKREFS
331
3FD
102
}
 70
     0
280
     1
281
     0
  0
BLOCK_RECORD
  5
44A
330
1
100
AcDbSymbolTableRecord
100
AcDbBlockTableRecord
  2
GEN_BLOCK00017
340
0
102
{BLKREFS
331
44D
102
}
 70
     0
280
     1
281
     0
  0
ENDTAB
  0
ENDSEC
  0
SECTION
  2
BLOCKS
  0
BLOCK
  5
20
330
1F
100
AcDbEntity
  8
0
100
AcDbBlockBegin
  2
*Model_Space
 70
     0
 10
0.0
 20
0.0
 30
0.0
  3
*Model_Space
  1
*Model_Space
  0
ENDBLK
  5
21
330
1F
100
AcDbEntity
  8
0
100
AcDbBlockEnd
  0
BLOCK
  5
1C
330
1B
100
AcDbEntity
 67
     1
  8
0
100
AcDbBlockBegin
  2
*Paper_Space
 70
     0
 10
0.0
 20
0.0
 30
0.0
  3
*Paper_Space
  1
*Paper_Space
  0
ENDBLK
  5
1D
330
1B
100
AcDbEntity
 67
     1
  8
0
100
AcDbBlockEnd
  0
BLOCK
  5
24
330
23
100
AcDbEntity
  8
0
100
AcDbBlockBegin
  2
*Paper_Space0
 70
     0
 10
0.0
 20
0.0
 30
0.0
  3
*Paper_Space0
  1
*Paper_Space0
  0
ENDBLK
  5
25
330
23
100
AcDbEntity
  8
0
100
AcDbBlockEnd
  0
BLOCK
  5
75
330
74
100
AcDbEntity
  8
0
100
AcDbBlockBegin
  2
GEN_BLOCK
 70
     0
 10
0.0
 20
0.0
 30
0.0
  3
GEN_BLOCK
  1
GEN_BLOCK
  0
TEXT
  5
78
330
74
100
AcDbEntity
  8
1
  6
Continuous
 62
     4
100
AcDbText
 10
1.091525077819824
 20
4.875
 30
0.0
 40
2.0
  1
Inward
100
AcDbText
  0
TEXT
  5
79
330
74
100
AcDbEntity
  8
1
  6
Continuous
 62
     4
100
AcDbText
 10
1.091525077819824
 20
0.875
 30
0.0
 40
2.0
  1
opening
100
AcDbText
  0
ENDBLK
  5
76
330
74
100
AcDbEntity
  8
0
100
AcDbBlockEnd
  0
BLOCK
  5
7C
330
7B
100
AcDbEntity
  8
0
100
AcDbBlockBegin
  2
GEN_BLOCK00000
 70
     0
 10
0.0
 20
0.0
 30
0.0
  3
GEN_BLOCK00000
  1
GEN_BLOCK00000
  0
TEXT
  5
7F
330
7B
100
AcDbEntity
  8
SYSTEM_ASSIGNED_LAYER
  6
Continuous
 62
     4
100
AcDbText
 10
1.091526031494141
 20
8.875
 30
0.0
 40
2.0
  1
Infill piece to
100
AcDbText
  0
TEXT
  5
80
330
7B
100
AcDbEntity
  8
SYSTEM_ASSIGNED_LAYER
  6
Continuous
 62
     4
100
AcDbText
 10
1.091526031494141
 20
4.875
 30
0.0
 40
2.0
  1
convert sill to outward 
100
AcDbText
  0
TEXT
  5
81
330
7B
100
AcDbEntity
  8
SYSTEM_ASSIGNED_LAYER
  6
Continuous
 62
     4
100
AcDbText
 10
1.091526031494141
 20
0.875
 30
0.0
 40
2.0
  1
opening
100
AcDbText
  0
ENDBLK
  5
7D
330
7B
100
AcDbEntity
  8
0
100
AcDbBlockEnd
  0
BLOCK
  5
83
330
82
100
AcDbEntity
  8
0
100
AcDbBlockBegin
  2
GEN_BLOCK00001
 70
     0
 10
0.0
 20
0.0
 30
0.0
  3
GEN_BLOCK00001
  1
GEN_BLOCK00001
  0
ARC
  5
86
330
82
100
AcDbEntity
  8
0
  6
Continuous
 62
     4
100
AcDbCircle
 10
6.558093569810694
 20
-3.345789812830951
 30
0.0
 40
8.177165026246895
100
AcDbArc
 50
117.0209269307648
 51
138.8194993480197
  0
ARC
  5
87
330
82
100
AcDbEntity
  8
0
  6
Continuous
 62
     4
100
AcDbCircle
 10
6.558093569810694
 20
-3.345789812830951
 30
0.0
 40
8.177165026246895
100
AcDbArc
 50
117.0209269307648
 51
138.8194993480197
  0
ARC
  5
88
330
82
100
AcDbEntity
  8
0
  6
Continuous
 62
     4
100
AcDbCircle
 10
7.974496062658218
 20
-4.00445869498045
 30
0.0
 40
9.318469936955477
100
AcDbArc
 50
82.52882873452248
 51
101.6307449866929
  0
ARC
  5
89
330
82
100
AcDbEntity
  8
0
  6
Continuous
 62
     4
100
AcDbCircle
 10
7.974496062658218
 20
-4.00445869498045
 30
0.0
 40
9.318469936955477
100
AcDbArc
 50
82.52882873452248
 51
101.6307449866929
  0
ARC
  5
8A
330
82
100
AcDbEntity
  8
0
  6
Continuous
 62
     4
100
AcDbCircle
 10
6.123077964971841
 20
4.373171110584543
 30
0.0
 40
0.75
100
AcDbArc
 50
92.07978686061502
 51
110.0
  0
ARC
  5
8B
330
82
100
AcDbEntity
  8
0
  6
Continuous
 62
     4
100
AcDbCircle
 10
6.123077964971841
 20
4.373171110584543
 30
0.0
 40
0.75
100
AcDbArc
 50
92.07978686061502
 51
110.0
  0
ARC
  5
8C
330
82
100
AcDbEntity
  8
0
  6
Continuous
 62
     4
100
AcDbCircle
 10
6.123077964971841
 20
4.373171110584543
 30
0.0
 40
0.75
100
AcDbArc
 50
110.0
 51
200.0
  0
ARC
  5
8D
330
82
100
AcDbEntity
  8
0
  6
Continuous
 62
     4
100
AcDbCircle
 10
6.123077964971841
 20
4.373171110584543
 30
0.0
 40
0.75
100
AcDbArc
 50
110.0
 51
200.0
  0
LINE
  5
8E
330
82
100
AcDbEntity
  8
0
  6
Continuous
 62
     4
100
AcDbLine
 10
5.418308499382405
 20
4.116656003090291
 30
0.0
 11
5.777429649874364
 21
3.129978751265092
 31
0.0
  0
ARC
  5
8F
330
82
100
AcDbEntity
  8
0
  6
Continuous
 62
     4
100
AcDbCircle
 10
6.153306698188729
 20
3.266786808595356
 30
0.0
 40
0.4
100
AcDbArc
 50
200.0
 51
289.9999999999999
  0
ARC
  5
90
330
82
100
AcDbEntity
  8
0
  6
Continuous
 62
     4
100
AcDbCircle
 10
6.153306698188729
 20
3.266786808595356
 30
0.0
 40
0.4
100
AcDbArc
 50
200.0
 51
289.9999999999999
  0
LINE
  5
91
330
82
100
AcDbEntity
  8
0
  6
Continuous
 62
     4
100
AcDbLine
 10
6.290114755518985
 20
2.890909760280991
 30
0.0
 11
7.041868852147715
 21
3.164525874941525
 31
0.0
  0
ARC
  5
92
330
82
100
AcDbEntity
  8
0
  6
Continuous
 62
     4
100
AcDbCircle
 10
7.298383959641967
 20
2.459756409352096
 30
0.0
 40
0.75
100
AcDbArc
 50
20.00000000000009
 51
110.0
  0
ARC
  5
93
330
82
100
AcDbEntity
  8
0
  6
Continuous
 62
     4
100
AcDbCircle
 10
7.298383959641967
 20
2.459756409352096
 30
0.0
 40
0.75
100
AcDbArc
 50
20.00000000000009
 51
110.0
  0
LINE
  5
94
330
82
100
AcDbEntity
  8
0
  6
Continuous
 62
     4
100
AcDbLine
 10
8.003153425231389
 20
2.716271516846348
 30
0.0
 11
8.139961482561674
 21
2.340394468531983
 31
0.0
  0
ARC
  5
95
330
82
100
AcDbEntity
  8
0
  6
Continuous
 62
     4
100
AcDbCircle
 10
7.435192016972238
 20
2.083879361037731
 30
0.0
 40
0.75
100
AcDbArc
 50
290.0000000000001
 51
20.0
  0
ARC
  5
96
330
82
100
AcDbEntity
  8
0
  6
Continuous
 62
     4
100
AcDbCircle
 10
7.435192016972238
 20
2.083879361037731
 30
0.0
 40
0.75
100
AcDbArc
 50
290.0000000000001
 51
20.0
  0
LINE
  5
97
330
82
100
AcDbEntity
  8
0
  6
Continuous
 62
     4
100
AcDbLine
 10
7.69170712446649
 20
1.379109895448302
 30
0.0
 11
4.026905903401442
 21
0.0452313364781887
 31
0.0
  0
ARC
  5
98
330
82
100
AcDbEntity
  8
0
  6
Continuous
 62
     4
100
AcDbCircle
 10
3.77039079590719
 20
0.7500008020676248
 30
0.0
 40
0.75
100
AcDbArc
 50
199.9999999999998
 51
289.9999999999998
  0
ARC
  5
99
330
82
100
AcDbEntity
  8
0
  6
Continuous
 62
     4
100
AcDbCircle
 10
3.77039079590719
 20
0.7500008020676248
 30
0.0
 40
0.75
100
AcDbArc
 50
199.9999999999998
 51
289.9999999999998
  0
ARC
  5
9A
330
82
100
AcDbEntity
  8
0
  6
Continuous
 62
     4
100
AcDbCircle
 10
3.77039079590719
 20
0.7500008020676248
 30
0.0
 40
0.75
100
AcDbArc
 50
199.9999999999998
 51
289.9999999999998
  0
ARC
  5
9B
330
82
100
AcDbEntity
  8
0
  6
Continuous
 62
     4
100
AcDbCircle
 10
3.77039079590719
 20
0.7500008020676248
 30
0.0
 40
0.75
100
AcDbArc
 50
199.9999999999998
 51
289.9999999999998
  0
LINE
  5
9C
330
82
100
AcDbEntity
  8
0
  6
Continuous
 62
     4
100
AcDbLine
 10
3.065621330317761
 20
0.4934856945733728
 30
0.0
 11
2.92881327298749
 21
0.8693627428877377
 31
0.0
  0
ARC
  5
9D
330
82
100
AcDbEntity
  8
0
  6
Continuous
 62
     4
100
AcDbCircle
 10
3.633582738576926
 20
1.12587785038199
 30
0.0
 40
0.75
100
AcDbArc
 50
109.9999999999999
 51
199.9999999999998
  0
ARC
  5
9E
330
82
100
AcDbEntity
  8
0
  6
Continuous
 62
     4
100
AcDbCircle
 10
3.633582738576926
 20
1.12587785038199
 30
0.0
 40
0.75
100
AcDbArc
 50
109.9999999999999
 51
199.9999999999998
  0
LINE
  5
9F
330
82
100
AcDbEntity
  8
0
  6
Continuous
 62
     4
100
AcDbLine
 10
3.377067631082674
 20
1.830647315971419
 30
0.0
 11
4.128821727711397
 21
2.104263430631953
 31
0.0
  0
ARC
  5
A0
330
82
100
AcDbEntity
  8
0
  6
Continuous
 62
     4
100
AcDbCircle
 10
3.992013670381134
 20
2.480140478946318
 30
0.0
 40
0.4
100
AcDbArc
 50
290.0
 51
20.00000000000003
  0
ARC
  5
A1
330
82
100
AcDbEntity
  8
0
  6
Continuous
 62
     4
100
AcDbCircle
 10
3.992013670381134
 20
2.480140478946318
 30
0.0
 40
0.4
100
AcDbArc
 50
290.0
 51
20.00000000000003
  0
LINE
  5
A2
330
82
100
AcDbEntity
  8
0
  6
Continuous
 62
     4
100
AcDbLine
 10
4.367890718695492
 20
2.616948536276588
 30
0.0
 11
4.008769568203547
 21
3.603625788101787
 31
0.0
  0
ARC
  5
A3
330
82
100
AcDbEntity
  8
0
  6
Continuous
 62
     4
100
AcDbCircle
 10
3.304000102614111
 20
3.347110680607535
 30
0.0
 40
0.75
100
AcDbArc
 50
20.00000000000005
 51
110.0
  0
ARC
  5
A4
330
82
100
AcDbEntity
  8
0
  6
Continuous
 62
     4
100
AcDbCircle
 10
3.304000102614111
 20
3.347110680607535
 30
0.0
 40
0.75
100
AcDbArc
 50
20.00000000000005
 51
110.0
  0
LINE
  5
A5
330
82
100
AcDbEntity
  8
0
  6
Continuous
 62
     4
100
AcDbLine
 10
3.047484995119859
 20
4.051880146196972
 30
0.0
 11
2.84307744794841
 21
3.93876117407131
 31
0.0
  0
ARC
  5
A6
330
82
100
AcDbEntity
  8
0
  6
Continuous
 62
     4
100
AcDbCircle
 10
0.2499990850599119
 20
2.23554521479911
 30
0.0
 40
0.25
100
AcDbArc
 50
290.0000000000001
 51
318.4979393479002
  0
ARC
  5
A7
330
82
100
AcDbEntity
  8
0
  6
Continuous
 62
     4
100
AcDbCircle
 10
0.2499990850599119
 20
2.23554521479911
 30
0.0
 40
0.25
100
AcDbArc
 50
290.0000000000001
 51
318.4979393479002
  0
ARC
  5
A8
330
82
100
AcDbEntity
  8
0
  6
Continuous
 62
     4
100
AcDbCircle
 10
0.2499990850599119
 20
2.23554521479911
 30
0.0
 40
0.25
100
AcDbArc
 50
200.0
 51
290.0000000000001
  0
ARC
  5
A9
330
82
100
AcDbEntity
  8
0
  6
Continuous
 62
     4
100
AcDbCircle
 10
0.2499990850599119
 20
2.23554521479911
 30
0.0
 40
0.25
100
AcDbArc
 50
200.0
 51
290.0000000000001
  0
ARC
  5
AA
330
82
100
AcDbEntity
  8
0
  6
Continuous
 62
     4
100
AcDbCircle
 10
0.2499990850599119
 20
2.23554521479911
 30
0.0
 40
0.25
100
AcDbArc
 50
145.0568016610933
 51
200.0
  0
ARC
  5
AB
330
82
100
AcDbEntity
  8
0
  6
Continuous
 62
     4
100
AcDbCircle
 10
0.2499990850599119
 20
2.23554521479911
 30
0.0
 40
0.25
100
AcDbArc
 50
145.0568016610933
 51
200.0
  0
ARC
  5
AC
330
82
100
AcDbEntity
  8
0
  6
Continuous
 62
     4
100
AcDbCircle
 10
7.027980285935158
 20
-2.500441209944498
 30
0.0
 40
8.51862846715127
100
AcDbArc
 50
117.9632131752917
 51
145.0568016610933
  0
ARC
  5
AD
330
82
100
AcDbEntity
  8
0
  6
Continuous
 62
     4
100
AcDbCircle
 10
7.027980285935158
 20
-2.500441209944498
 30
0.0
 40
8.51862846715127
100
AcDbArc
 50
117.9632131752917
 51
145.0568016610933
  0
ARC
  5
AE
330
82
100
AcDbEntity
  8
0
  6
Continuous
 62
     4
100
AcDbCircle
 10
2.799104196199337
 20
5.46525188269797
 30
0.0
 40
0.5
100
AcDbArc
 50
297.9632131752921
 51
20.00000000000002
  0
ARC
  5
AF
330
82
100
AcDbEntity
  8
0
  6
Continuous
 62
     4
100
AcDbCircle
 10
2.799104196199337
 20
5.46525188269797
 30
0.0
 40
0.5
100
AcDbArc
 50
297.9632131752921
 51
20.00000000000002
  0
LINE
  5
B0
330
82
100
AcDbEntity
  8
0
  6
Continuous
 62
     4
100
AcDbLine
 10
3.268950506592297
 20
5.636261954360805
 30
0.0
 11
3.108233900638801
 21
6.077827200149422
 31
0.0
  0
ARC
  5
B1
330
82
100
AcDbEntity
  8
0
  6
Continuous
 62
     4
100
AcDbCircle
 10
3.578080211031754
 20
6.248837271812256
 30
0.0
 40
0.5
100
AcDbArc
 50
132.1062713386105
 51
200.0
  0
ARC
  5
B2
330
82
100
AcDbEntity
  8
0
  6
Continuous
 62
     4
100
AcDbCircle
 10
3.578080211031754
 20
6.248837271812256
 30
0.0
 40
0.5
100
AcDbArc
 50
132.1062713386105
 51
200.0
  0
LINE
  5
B3
330
82
100
AcDbEntity
  8
0
  6
Continuous
 62
     4
100
AcDbLine
 10
3.242826296889426
 20
6.619788499134991
 30
0.0
 11
5.044212574001733
 21
8.247824089265983
 31
0.0
  0
ARC
  5
B4
330
82
100
AcDbEntity
  8
0
  6
Continuous
 62
     4
100
AcDbCircle
 10
2.788381567546573
 20
13.53517416324716
 30
0.0
 40
0.5
100
AcDbArc
 50
109.9999999999999
 51
190.7906041440173
  0
ARC
  5
B5
330
82
100
AcDbEntity
  8
0
  6
Continuous
 62
     4
100
AcDbCircle
 10
2.788381567546573
 20
13.53517416324716
 30
0.0
 40
0.5
100
AcDbArc
 50
109.9999999999999
 51
190.7906041440173
  0
ARC
  5
B6
330
82
100
AcDbEntity
  8
0
  6
Continuous
 62
     4
100
AcDbCircle
 10
2.788381567546573
 20
13.53517416324716
 30
0.0
 40
0.5
100
AcDbArc
 50
10.79060414401775
 51
109.9999999999999
  0
ARC
  5
B7
330
82
100
AcDbEntity
  8
0
  6
Continuous
 62
     4
100
AcDbCircle
 10
2.788381567546573
 20
13.53517416324716
 30
0.0
 40
0.5
100
AcDbArc
 50
10.79060414401775
 51
109.9999999999999
  0
ARC
  5
B8
330
82
100
AcDbEntity
  8
0
  6
Continuous
 62
     4
100
AcDbCircle
 10
12.12040224382768
 20
15.31376633051369
 30
0.0
 40
9.0
100
AcDbArc
 50
190.7906041440177
 51
228.1340402720335
  0
ARC
  5
B9
330
82
100
AcDbEntity
  8
0
  6
Continuous
 62
     4
100
AcDbCircle
 10
12.12040224382768
 20
15.31376633051369
 30
0.0
 40
9.0
100
AcDbArc
 50
190.7906041440177
 51
228.1340402720335
  0
ARC
  5
BA
330
82
100
AcDbEntity
  8
0
  6
Continuous
 62
     4
100
AcDbCircle
 10
5.780195048286487
 20
8.239038581857365
 30
0.0
 40
0.5
100
AcDbArc
 50
312.1062713386107
 51
48.13404027203386
  0
ARC
  5
BB
330
82
100
AcDbEntity
  8
0
  6
Continuous
 62
     4
100
AcDbCircle
 10
5.780195048286487
 20
8.239038581857365
 30
0.0
 40
0.5
100
AcDbArc
 50
312.1062713386107
 51
48.13404027203386
  0
ARC
  5
BC
330
82
100
AcDbEntity
  8
0
  6
Continuous
 62
     4
100
AcDbCircle
 10
5.780195048286487
 20
8.239038581857365
 30
0.0
 40
0.5
100
AcDbArc
 50
312.1062713386107
 51
48.13404027203386
  0
ARC
  5
BD
330
82
100
AcDbEntity
  8
0
  6
Continuous
 62
     4
100
AcDbCircle
 10
5.780195048286487
 20
8.239038581857365
 30
0.0
 40
0.5
100
AcDbArc
 50
312.1062713386107
 51
48.13404027203386
  0
LINE
  5
BE
330
82
100
AcDbEntity
  8
0
  6
Continuous
 62
     4
100
AcDbLine
 10
6.115448962428829
 20
7.86808735453463
 30
0.0
 11
4.813137726746
 21
6.691099904337179
 31
0.0
  0
ARC
  5
BF
330
82
100
AcDbEntity
  8
0
  6
Continuous
 62
     4
100
AcDbCircle
 10
5.148391640888335
 20
6.320148677014437
 30
0.0
 40
0.5
100
AcDbArc
 50
132.1062713386108
 51
282.0292962315108
  0
ARC
  5
C0
330
82
100
AcDbEntity
  8
0
  6
Continuous
 62
     4
100
AcDbCircle
 10
5.148391640888335
 20
6.320148677014437
 30
0.0
 40
0.5
100
AcDbArc
 50
132.1062713386108
 51
282.0292962315108
  0
ARC
  5
C1
330
82
100
AcDbEntity
  8
0
  6
Continuous
 62
     4
100
AcDbCircle
 10
9.17707898252604
 20
5.484736576392969
 30
0.0
 40
0.25
100
AcDbArc
 50
262.7773055416432
 51
290.0000000000001
  0
ARC
  5
C2
330
82
100
AcDbEntity
  8
0
  6
Continuous
 62
     4
100
AcDbCircle
 10
9.17707898252604
 20
5.484736576392969
 30
0.0
 40
0.25
100
AcDbArc
 50
262.7773055416432
 51
290.0000000000001
  0
ARC
  5
C3
330
82
100
AcDbEntity
  8
0
  6
Continuous
 62
     4
100
AcDbCircle
 10
9.17707898252604
 20
5.484736576392969
 30
0.0
 40
0.25
100
AcDbArc
 50
290.0000000000001
 51
74.93657560321527
  0
ARC
  5
C4
330
82
100
AcDbEntity
  8
0
  6
Continuous
 62
     4
100
AcDbCircle
 10
9.17707898252604
 20
5.484736576392969
 30
0.0
 40
0.25
100
AcDbArc
 50
290.0000000000001
 51
74.93657560321527
  0
ARC
  5
C5
330
82
100
AcDbEntity
  8
0
  6
Continuous
 62
     4
100
AcDbCircle
 10
7.027980285935158
 20
-2.500441209944498
 30
0.0
 40
8.51862846715127
100
AcDbArc
 50
74.9365756032154
 51
102.0292962315111
  0
ARC
  5
C6
330
82
100
AcDbEntity
  8
0
  6
Continuous
 62
     4
100
AcDbCircle
 10
7.027980285935158
 20
-2.500441209944498
 30
0.0
 40
8.51862846715127
100
AcDbArc
 50
74.9365756032154
 51
102.0292962315111
  0
ARC
  5
C7
330
82
100
AcDbEntity
  8
0
  6
Continuous
 62
     4
100
AcDbCircle
 10
12.12040224382768
 20
15.31376633051369
 30
0.0
 40
10.0
100
AcDbArc
 50
190.7906041440177
 51
224.9584833242026
  0
ARC
  5
C8
330
82
100
AcDbEntity
  8
0
  6
Continuous
 62
     4
100
AcDbCircle
 10
12.12040224382768
 20
15.31376633051369
 30
0.0
 40
10.0
100
AcDbArc
 50
190.7906041440177
 51
224.9584833242026
  0
ENDBLK
  5
84
330
82
100
AcDbEntity
  8
0
100
AcDbBlockEnd
  0
BLOCK
  5
CA
330
C9
100
AcDbEntity
  8
0
100
AcDbBlockBegin
  2
GEN_BLOCK00002
 70
     0
 10
0.0
 20
0.0
 30
0.0
  3
GEN_BLOCK00002
  1
GEN_BLOCK00002
  0
LINE
  5
CD
330
C9
100
AcDbEntity
  8
0
  6
Continuous
 62
     2
100
AcDbLine
 10
0.0000000621037515
 20
11.99999502457058
 30
0.0
 11
0.0000000621037515
 21
-0.0000049754294196
 31
0.0
  0
LINE
  5
CE
330
C9
100
AcDbEntity
  8
0
  6
Continuous
 62
     2
100
AcDbLine
 10
84.00000006210375
 20
8.99999502457058
 30
0.0
 11
0.0000000621037515
 21
8.99999502457058
 31
0.0
  0
LINE
  5
CF
330
C9
100
AcDbEntity
  8
0
  6
Continuous
 62
     2
100
AcDbLine
 10
8.000000062103751
 20
11.99999502457058
 30
0.0
 11
8.000000062103751
 21
-0.0000049754294196
 31
0.0
  0
LINE
  5
D0
330
C9
100
AcDbEntity
  8
0
  6
Continuous
 62
     2
100
AcDbLine
 10
16.00000006210375
 20
11.99999502457058
 30
0.0
 11
16.00000006210375
 21
-0.0000049754294196
 31
0.0
  0
LINE
  5
D1
330
C9
100
AcDbEntity
  8
0
  6
Continuous
 62
     2
100
AcDbLine
 10
64.00000006210375
 20
11.99999502457058
 30
0.0
 11
64.00000006210375
 21
-0.0000049754294196
 31
0.0
  0
ENDBLK
  5
CB
330
C9
100
AcDbEntity
  8
0
100
AcDbBlockEnd
  0
BLOCK
  5
D3
330
D2
100
AcDbEntity
  8
0
100
AcDbBlockBegin
  2
GEN_BLOCK00003
 70
     0
 10
0.0
 20
0.0
 30
0.0
  3
GEN_BLOCK00003
  1
GEN_BLOCK00003
  0
LINE
  5
D6
330
D2
100
AcDbEntity
  8
1
  6
Continuous
 62
     3
100
AcDbLine
 10
35.75796066091259
 20
2.622681775745669
 30
0.0
 11
35.99999997491648
 21
2.380642461741779
 31
0.0
  0
LINE
  5
D7
330
D2
100
AcDbEntity
  8
1
  6
Continuous
 62
     3
100
AcDbLine
 10
35.99999997491648
 20
2.380642461741779
 30
0.0
 11
36.25880162379312
 21
2.63944411061842
 31
0.0
  0
LINE
  5
D8
330
D2
100
AcDbEntity
  8
1
  6
Continuous
 62
     3
100
AcDbLine
 10
24.40033033940917
 20
6.19999986568768
 30
0.0
 11
26.64798807192446
 21
6.19999986568768
 31
0.0
  0
ARC
  5
D9
330
D2
100
AcDbEntity
  8
1
  6
Continuous
 62
     3
100
AcDbCircle
 10
26.64798807192446
 20
6.82499986568768
 30
0.0
 40
0.625
100
AcDbArc
 50
270.0
 51
90.0
  0
ARC
  5
DA
330
D2
100
AcDbEntity
  8
1
  6
Continuous
 62
     3
100
AcDbCircle
 10
26.64798807192446
 20
6.82499986568768
 30
0.0
 40
0.625
100
AcDbArc
 50
270.0
 51
90.0
  0
LINE
  5
DB
330
D2
100
AcDbEntity
  8
1
  6
Continuous
 62
     3
100
AcDbLine
 10
26.64798807192446
 20
7.44999986568768
 30
0.0
 11
22.16022693746109
 21
7.449999865687666
 31
0.0
  0
LINE
  5
DC
330
D2
100
AcDbEntity
  8
1
  6
Continuous
 62
     3
100
AcDbLine
 10
17.55140789235857
 20
3.607360156806372
 30
0.0
 11
18.16378032805436
 21
3.253806766213096
 31
0.0
  0
LINE
  5
DD
330
D2
100
AcDbEntity
  8
1
  6
Continuous
 62
     3
100
AcDbLine
 10
18.16378032805436
 20
3.253806766213096
 30
0.0
 11
17.86468861198291
 21
2.735764717854359
 31
0.0
  0
LINE
  5
DE
330
D2
100
AcDbEntity
  8
1
  6
Continuous
 62
     3
100
AcDbLine
 10
17.86468861198291
 20
2.735764717854359
 30
0.0
 11
17.81022693746108
 21
2.641434330517278
 31
0.0
  0
LINE
  5
DF
330
D2
100
AcDbEntity
  8
1
  6
Continuous
 62
     3
100
AcDbLine
 10
17.81022693746108
 20
2.641434330517278
 30
0.0
 11
17.81022693746108
 21
-0.000000134312323
 31
0.0
  0
LINE
  5
E0
330
D2
100
AcDbEntity
  8
1
  6
Continuous
 62
     3
100
AcDbLine
 10
57.47635312302457
 20
0.1507683137229137
 30
0.0
 11
61.24054502571794
 21
1.520822122369161
 31
0.0
  0
LINE
  5
E1
330
D2
100
AcDbEntity
  8
1
  6
Continuous
 62
     1
100
AcDbLine
 10
61.81218979477292
 20
1.350127678501387
 30
0.0
 11
61.82997110597661
 21
1.326314321372543
 31
0.0
  0
ARC
  5
E2
330
D2
100
AcDbEntity
  8
1
  6
Continuous
 62
     3
100
AcDbCircle
 10
62.30475902212847
 20
1.735037524465049
 30
0.0
 40
0.6264808233857041
100
AcDbArc
 50
220.7236554207954
 51
40.7236554207955
  0
ARC
  5
E3
330
D2
100
AcDbEntity
  8
1
  6
Continuous
 62
     3
100
AcDbCircle
 10
62.30475902212847
 20
1.735037524465049
 30
0.0
 40
0.6264808233857041
100
AcDbArc
 50
220.7236554207954
 51
40.7236554207955
  0
ARC
  5
E4
330
D2
100
AcDbEntity
  8
1
  6
Continuous
 62
     3
100
AcDbCircle
 10
64.18075871789145
 20
3.349999865687671
 30
0.0
 40
1.85
100
AcDbArc
 50
319.2517007137775
 51
220.7236554207953
  0
ARC
  5
E5
330
D2
100
AcDbEntity
  8
1
  6
Continuous
 62
     3
100
AcDbCircle
 10
64.18075871789145
 20
3.349999865687671
 30
0.0
 40
1.85
100
AcDbArc
 50
319.2517007137775
 51
220.7236554207953
  0
ARC
  5
E6
330
D2
100
AcDbEntity
  8
1
  6
Continuous
 62
     3
100
AcDbCircle
 10
66.05580736542615
 20
1.734451563409287
 30
0.0
 40
0.6251429817379978
100
AcDbArc
 50
139.2517007137774
 51
319.2517007137775
  0
ARC
  5
E7
330
D2
100
AcDbEntity
  8
1
  6
Continuous
 62
     3
100
AcDbCircle
 10
66.05580736542615
 20
1.734451563409287
 30
0.0
 40
0.6251429817379978
100
AcDbArc
 50
139.2517007137774
 51
319.2517007137775
  0
ARC
  5
E8
330
D2
100
AcDbEntity
  8
1
  6
Continuous
 62
     3
100
AcDbCircle
 10
64.18075871789145
 20
3.349999865687671
 30
0.0
 40
3.1
100
AcDbArc
 50
319.2517007137775
 51
13.97489179347239
  0
ARC
  5
E9
330
D2
100
AcDbEntity
  8
1
  6
Continuous
 62
     3
100
AcDbCircle
 10
64.18075871789145
 20
3.349999865687671
 30
0.0
 40
3.1
100
AcDbArc
 50
319.2517007137775
 51
13.97489179347239
  0
ARC
  5
EA
330
D2
100
AcDbEntity
  8
1
  6
Continuous
 62
     3
100
AcDbCircle
 10
61.77789517611966
 20
6.323186199743766
 30
0.0
 40
0.7228923319537902
100
AcDbArc
 50
234.5799295400786
 51
308.9443781271985
  0
ARC
  5
EB
330
D2
100
AcDbEntity
  8
1
  6
Continuous
 62
     3
100
AcDbCircle
 10
61.77789517611966
 20
6.323186199743766
 30
0.0
 40
0.7228923319537902
100
AcDbArc
 50
234.5799295400786
 51
308.9443781271985
  0
ARC
  5
EC
330
D2
100
AcDbEntity
  8
1
  6
Continuous
 62
     3
100
AcDbCircle
 10
61.77789517611966
 20
6.323186199743766
 30
0.0
 40
0.7228923319537902
100
AcDbArc
 50
308.9443781271986
 51
0.0
  0
ARC
  5
ED
330
D2
100
AcDbEntity
  8
1
  6
Continuous
 62
     3
100
AcDbCircle
 10
61.77789517611966
 20
6.323186199743766
 30
0.0
 40
0.7228923319537902
100
AcDbArc
 50
308.9443781271986
 51
0.0
  0
LINE
  5
EE
330
D2
100
AcDbEntity
  8
1
  6
Continuous
 62
     1
100
AcDbLine
 10
62.50078750807344
 20
6.323186199743766
 30
0.0
 11
62.50078750807344
 21
6.344387885483961
 31
0.0
  0
LINE
  5
EF
330
D2
100
AcDbEntity
  8
1
  6
Continuous
 62
     1
100
AcDbLine
 10
63.00078750807344
 20
6.844387885483961
 30
0.0
 11
62.99999984080603
 21
6.844387885483961
 31
0.0
  0
ARC
  5
F0
330
D2
100
AcDbEntity
  8
1
  6
Continuous
 62
     3
100
AcDbCircle
 10
63.87499985384454
 20
7.585736022514816
 30
0.0
 40
1.146831322861616
100
AcDbArc
 50
220.2731054855313
 51
319.7268945144686
  0
ARC
  5
F1
330
D2
100
AcDbEntity
  8
1
  6
Continuous
 62
     3
100
AcDbCircle
 10
63.87499985384454
 20
7.585736022514816
 30
0.0
 40
1.146831322861616
100
AcDbArc
 50
220.2731054855313
 51
319.7268945144686
  0
LINE
  5
F2
330
D2
100
AcDbEntity
  8
1
  6
Continuous
 62
     3
100
AcDbLine
 10
17.80029155284849
 20
9.362252913626172
 30
0.0
 11
18.42660469705092
 21
7.449999865687666
 31
0.0
  0
ARC
  5
F3
330
D2
100
AcDbEntity
  8
1
  6
Continuous
 62
     3
100
AcDbCircle
 10
23.77581444336946
 20
6.224972058973911
 30
0.0
 40
0.6250149716957305
100
AcDbArc
 50
229.249857885374
 51
357.7101632768781
  0
ARC
  5
F4
330
D2
100
AcDbEntity
  8
1
  6
Continuous
 62
     3
100
AcDbCircle
 10
23.77581444336946
 20
6.224972058973911
 30
0.0
 40
0.6250149716957305
100
AcDbArc
 50
229.249857885374
 51
357.7101632768781
  0
ARC
  5
F5
330
D2
100
AcDbEntity
  8
1
  6
Continuous
 62
     3
100
AcDbCircle
 10
22.16022693746109
 20
4.349999865687671
 30
0.0
 40
1.85
100
AcDbArc
 50
49.24985788537405
 51
310.7486165669955
  0
ARC
  5
F6
330
D2
100
AcDbEntity
  8
1
  6
Continuous
 62
     3
100
AcDbCircle
 10
22.16022693746109
 20
4.349999865687671
 30
0.0
 40
1.85
100
AcDbArc
 50
49.24985788537405
 51
310.7486165669955
  0
ARC
  5
F7
330
D2
100
AcDbEntity
  8
1
  6
Continuous
 62
     3
100
AcDbCircle
 10
23.77576622717005
 20
2.474982675469199
 30
0.0
 40
0.6250253276533118
100
AcDbArc
 50
14.58992868082882
 51
130.7486165669953
  0
ARC
  5
F8
330
D2
100
AcDbEntity
  8
1
  6
Continuous
 62
     3
100
AcDbCircle
 10
23.77576622717005
 20
2.474982675469199
 30
0.0
 40
0.6250253276533118
100
AcDbArc
 50
14.58992868082882
 51
130.7486165669953
  0
LINE
  5
F9
330
D2
100
AcDbEntity
  8
1
  6
Continuous
 62
     3
100
AcDbLine
 10
71.74999997119119
 20
6.844387885483961
 30
0.0
 11
71.4999999674659
 21
6.844387885483961
 31
0.0
  0
ARC
  5
FA
330
D2
100
AcDbEntity
  8
1
  6
Continuous
 62
     3
100
AcDbCircle
 10
70.62499995442738
 20
6.844387885483961
 30
0.0
 40
0.875000013038516
100
AcDbArc
 50
180.0
 51
0.0
  0
ARC
  5
FB
330
D2
100
AcDbEntity
  8
1
  6
Continuous
 62
     3
100
AcDbCircle
 10
70.62499995442738
 20
6.844387885483961
 30
0.0
 40
0.875000013038516
100
AcDbArc
 50
180.0
 51
0.0
  0
LINE
  5
FC
330
D2
100
AcDbEntity
  8
1
  6
Continuous
 62
     3
100
AcDbLine
 10
69.74999994138886
 20
6.844387885483961
 30
0.0
 11
69.24999993393828
 21
6.844387885483961
 31
0.0
  0
ARC
  5
FD
330
D2
100
AcDbEntity
  8
1
  6
Continuous
 62
     3
100
AcDbCircle
 10
68.37499992089977
 20
6.844387885483961
 30
0.0
 40
0.875000013038516
100
AcDbArc
 50
180.0
 51
0.0
  0
ARC
  5
FE
330
D2
100
AcDbEntity
  8
1
  6
Continuous
 62
     3
100
AcDbCircle
 10
68.37499992089977
 20
6.844387885483961
 30
0.0
 40
0.875000013038516
100
AcDbArc
 50
180.0
 51
0.0
  0
LINE
  5
FF
330
D2
100
AcDbEntity
  8
1
  6
Continuous
 62
     3
100
AcDbLine
 10
67.49999990786125
 20
6.844387885483961
 30
0.0
 11
66.99999990041067
 21
6.844387885483961
 31
0.0
  0
ARC
  5
100
330
D2
100
AcDbEntity
  8
1
  6
Continuous
 62
     3
100
AcDbCircle
 10
72.86933385674122
 20
2.537334228033565
 30
0.0
 40
1.451970758583345
100
AcDbArc
 50
232.0129704852096
 51
232.0129704852108
  0
ARC
  5
101
330
D2
100
AcDbEntity
  8
1
  6
Continuous
 62
     3
100
AcDbCircle
 10
72.86933385674122
 20
2.537334228033565
 30
0.0
 40
1.451970758583345
100
AcDbArc
 50
232.0129704852096
 51
232.0129704852108
  0
LINE
  5
102
330
D2
100
AcDbEntity
  8
1
  6
Continuous
 62
     3
100
AcDbLine
 10
71.74999997119119
 20
6.844387885483961
 30
0.0
 11
71.4999999674659
 21
6.844387885483961
 31
0.0
  0
ARC
  5
103
330
D2
100
AcDbEntity
  8
1
  6
Continuous
 62
     3
100
AcDbCircle
 10
72.86933385674122
 20
2.537334228033565
 30
0.0
 40
1.451970758583345
100
AcDbArc
 50
232.0129704852096
 51
232.0129704852108
  0
ARC
  5
104
330
D2
100
AcDbEntity
  8
1
  6
Continuous
 62
     3
100
AcDbCircle
 10
72.86933385674122
 20
2.537334228033565
 30
0.0
 40
1.451970758583345
100
AcDbArc
 50
232.0129704852096
 51
232.0129704852108
  0
ARC
  5
105
330
D2
100
AcDbEntity
  8
1
  6
Continuous
 62
     3
100
AcDbCircle
 10
66.12499988737216
 20
6.844387885483961
 30
0.0
 40
0.875000013038516
100
AcDbArc
 50
180.0
 51
0.0
  0
ARC
  5
106
330
D2
100
AcDbEntity
  8
1
  6
Continuous
 62
     3
100
AcDbCircle
 10
66.12499988737216
 20
6.844387885483961
 30
0.0
 40
0.875000013038516
100
AcDbArc
 50
180.0
 51
0.0
  0
LINE
  5
107
330
D2
100
AcDbEntity
  8
1
  6
Continuous
 62
     3
100
AcDbLine
 10
65.24999987433364
 20
6.844387885483961
 30
0.0
 11
64.74999986688306
 21
6.844387885483961
 31
0.0
  0
ARC
  5
108
330
D2
100
AcDbEntity
  8
1
  6
Continuous
 62
     3
100
AcDbCircle
 10
71.74999997119119
 20
6.594387881758671
 30
0.0
 40
0.2500000037252903
100
AcDbArc
 50
0.0
 51
90.0
  0
ARC
  5
109
330
D2
100
AcDbEntity
  8
1
  6
Continuous
 62
     3
100
AcDbCircle
 10
71.74999997119119
 20
6.594387881758671
 30
0.0
 40
0.2500000037252903
100
AcDbArc
 50
0.0
 51
90.0
  0
ARC
  5
10A
330
D2
100
AcDbEntity
  8
1
  6
Continuous
 62
     3
100
AcDbCircle
 10
3.41022693746109
 20
7.800250593264998
 30
0.0
 40
0.5
100
AcDbArc
 50
39.11799697235669
 51
220.2639316620706
  0
ARC
  5
10B
330
D2
100
AcDbEntity
  8
1
  6
Continuous
 62
     3
100
AcDbCircle
 10
3.41022693746109
 20
7.800250593264998
 30
0.0
 40
0.5
100
AcDbArc
 50
39.11799697235669
 51
220.2639316620706
  0
ARC
  5
10C
330
D2
100
AcDbEntity
  8
1
  6
Continuous
 62
     3
100
AcDbCircle
 10
6.91022693746109
 20
10.23287991805675
 30
0.0
 40
0.5
100
AcDbArc
 50
29.33752438578988
 51
210.4834590755055
  0
ARC
  5
10D
330
D2
100
AcDbEntity
  8
1
  6
Continuous
 62
     3
100
AcDbCircle
 10
6.91022693746109
 20
10.23287991805675
 30
0.0
 40
0.5
100
AcDbArc
 50
29.33752438578988
 51
210.4834590755055
  0
ARC
  5
10E
330
D2
100
AcDbEntity
  8
1
  6
Continuous
 62
     3
100
AcDbCircle
 10
10.41022693746109
 20
11.89958016384835
 30
0.0
 40
0.5
100
AcDbArc
 50
20.44412722497315
 51
201.5900619146865
  0
ARC
  5
10F
330
D2
100
AcDbEntity
  8
1
  6
Continuous
 62
     3
100
AcDbCircle
 10
10.41022693746109
 20
11.89958016384835
 30
0.0
 40
0.5
100
AcDbArc
 50
20.44412722497315
 51
201.5900619146865
  0
ARC
  5
110
330
D2
100
AcDbEntity
  8
1
  6
Continuous
 62
     3
100
AcDbCircle
 10
19.37638877259198
 20
-11.4372564243922
 30
0.0
 40
25.0
100
AcDbArc
 50
130.8368990069276
 51
139.9677811587691
  0
ARC
  5
111
330
D2
100
AcDbEntity
  8
1
  6
Continuous
 62
     3
100
AcDbCircle
 10
19.37638877259198
 20
-11.4372564243922
 30
0.0
 40
25.0
100
AcDbArc
 50
130.8368990069276
 51
139.9677811587691
  0
ARC
  5
112
330
D2
100
AcDbEntity
  8
1
  6
Continuous
 62
     3
100
AcDbCircle
 10
19.37638877259198
 20
-11.4372564243922
 30
0.0
 40
25.0
100
AcDbArc
 50
121.0564264203621
 51
128.5450296274992
  0
ARC
  5
113
330
D2
100
AcDbEntity
  8
1
  6
Continuous
 62
     3
100
AcDbCircle
 10
19.37638877259198
 20
-11.4372564243922
 30
0.0
 40
25.0
100
AcDbArc
 50
121.0564264203621
 51
128.5450296274992
  0
ARC
  5
114
330
D2
100
AcDbEntity
  8
1
  6
Continuous
 62
     3
100
AcDbCircle
 10
19.37638877259198
 20
-11.4372564243922
 30
0.0
 40
25.0
100
AcDbArc
 50
112.1630292595445
 51
118.7645570409336
  0
ARC
  5
115
330
D2
100
AcDbEntity
  8
1
  6
Continuous
 62
     3
100
AcDbCircle
 10
19.37638877259198
 20
-11.4372564243922
 30
0.0
 40
25.0
100
AcDbArc
 50
112.1630292595445
 51
118.7645570409336
  0
ARC
  5
116
330
D2
100
AcDbEntity
  8
1
  6
Continuous
 62
     3
100
AcDbCircle
 10
19.37638877259198
 20
-11.4372564243922
 30
0.0
 40
25.0
100
AcDbArc
 50
103.5307464986789
 51
109.8711598801153
  0
ARC
  5
117
330
D2
100
AcDbEntity
  8
1
  6
Continuous
 62
     3
100
AcDbCircle
 10
19.37638877259198
 20
-11.4372564243922
 30
0.0
 40
25.0
100
AcDbArc
 50
103.5307464986789
 51
109.8711598801153
  0
ARC
  5
118
330
D2
100
AcDbEntity
  8
1
  6
Continuous
 62
     3
100
AcDbCircle
 10
0.9999999749164772
 20
3.999982148508927
 30
0.0
 40
1.0
100
AcDbArc
 50
139.9677811587691
 51
316.9560632782728
  0
ARC
  5
119
330
D2
100
AcDbEntity
  8
1
  6
Continuous
 62
     3
100
AcDbCircle
 10
0.9999999749164772
 20
3.999982148508927
 30
0.0
 40
1.0
100
AcDbArc
 50
139.9677811587691
 51
316.9560632782728
  0
ARC
  5
11A
330
D2
100
AcDbEntity
  8
1
  6
Continuous
 62
     3
100
AcDbCircle
 10
20.00159304517823
 20
-13.74655161986909
 30
0.0
 40
25.0
100
AcDbArc
 50
107.1859379357977
 51
136.9560632782728
  0
ARC
  5
11B
330
D2
100
AcDbEntity
  8
1
  6
Continuous
 62
     3
100
AcDbCircle
 10
20.00159304517823
 20
-13.74655161986909
 30
0.0
 40
25.0
100
AcDbArc
 50
107.1859379357977
 51
136.9560632782728
  0
LINE
  5
11C
330
D2
100
AcDbEntity
  8
1
  6
Continuous
 62
     3
100
AcDbLine
 10
13.91022693746109
 20
9.181870190764123
 30
0.0
 11
13.91022693746109
 21
6.999999865687677
 31
0.0
  0
LINE
  5
11D
330
D2
100
AcDbEntity
  8
1
  6
Continuous
 62
     3
100
AcDbLine
 10
23.91022693746109
 20
-0.000000134312323
 30
0.0
 11
23.91022693746109
 21
0.3999998656876684
 31
0.0
  0
LINE
  5
11E
330
D2
100
AcDbEntity
  8
1
  6
Continuous
 62
     3
100
AcDbLine
 10
23.91022693746109
 20
0.3999998656876684
 30
0.0
 11
54.24272606917344
 21
1.730342212280384
 31
0.0
  0
LINE
  5
11F
330
D2
100
AcDbEntity
  8
1
  6
Continuous
 62
     3
100
AcDbLine
 10
24.88123820957691
 20
2.258655512800395
 30
0.0
 11
35.75796066091259
 21
2.622681775745669
 31
0.0
  0
LINE
  5
120
330
D2
100
AcDbEntity
  8
1
  6
Continuous
 62
     3
100
AcDbLine
 10
36.25880162379312
 20
2.63944411061842
 30
0.0
 11
53.91421636447244
 21
3.230342212280384
 31
0.0
  0
ARC
  5
121
330
D2
100
AcDbEntity
  8
1
  6
Continuous
 62
     3
100
AcDbCircle
 10
56.62130276471039
 20
2.499999865687677
 30
0.0
 40
2.5
100
AcDbArc
 50
270.0
 51
290.0000000000001
  0
ARC
  5
122
330
D2
100
AcDbEntity
  8
1
  6
Continuous
 62
     3
100
AcDbCircle
 10
56.62130276471039
 20
2.499999865687677
 30
0.0
 40
2.5
100
AcDbArc
 50
270.0
 51
290.0000000000001
  0
ARC
  5
123
330
D2
100
AcDbEntity
  8
1
  6
Continuous
 62
     3
100
AcDbCircle
 10
56.62130276471039
 20
2.499999865687677
 30
0.0
 40
2.5
100
AcDbArc
 50
197.9304957389324
 51
270.0
  0
ARC
  5
124
330
D2
100
AcDbEntity
  8
1
  6
Continuous
 62
     3
100
AcDbCircle
 10
56.62130276471039
 20
2.499999865687677
 30
0.0
 40
2.5
100
AcDbArc
 50
197.9304957389324
 51
270.0
  0
ARC
  5
125
330
D2
100
AcDbEntity
  8
1
  6
Continuous
 62
     3
100
AcDbCircle
 10
17.61022693746108
 20
9.299999865687688
 30
0.0
 40
0.2
100
AcDbArc
 50
18.13549625590597
 51
180.0
  0
ARC
  5
126
330
D2
100
AcDbEntity
  8
1
  6
Continuous
 62
     3
100
AcDbCircle
 10
17.61022693746108
 20
9.299999865687688
 30
0.0
 40
0.2
100
AcDbArc
 50
18.13549625590597
 51
180.0
  0
LINE
  5
127
330
D2
100
AcDbEntity
  8
1
  6
Continuous
 62
     3
100
AcDbLine
 10
17.41022693746109
 20
9.299999865687688
 30
0.0
 11
17.41022693746109
 21
7.999999865687677
 31
0.0
  0
LINE
  5
128
330
D2
100
AcDbEntity
  8
1
  6
Continuous
 62
     3
100
AcDbLine
 10
17.41022693746109
 20
7.999999865687677
 30
0.0
 11
15.91022693746109
 21
7.999999865687677
 31
0.0
  0
LINE
  5
129
330
D2
100
AcDbEntity
  8
1
  6
Continuous
 62
     3
100
AcDbLine
 10
15.91022693746109
 20
7.999999865687677
 30
0.0
 11
15.91022693746109
 21
13.99999986568768
 31
0.0
  0
LINE
  5
12A
330
D2
100
AcDbEntity
  8
1
  6
Continuous
 62
     3
100
AcDbLine
 10
15.91022693746109
 20
13.99999986568768
 30
0.0
 11
17.41022693746109
 21
13.99999986568768
 31
0.0
  0
LINE
  5
12B
330
D2
100
AcDbEntity
  8
1
  6
Continuous
 62
     3
100
AcDbLine
 10
17.41022693746109
 20
13.99999986568768
 30
0.0
 11
17.41022693746109
 21
12.69999986568767
 31
0.0
  0
ARC
  5
12C
330
D2
100
AcDbEntity
  8
1
  6
Continuous
 62
     3
100
AcDbCircle
 10
17.61022693746108
 20
12.69999986568767
 30
0.0
 40
0.2
100
AcDbArc
 50
180.0
 51
341.0753555839485
  0
ARC
  5
12D
330
D2
100
AcDbEntity
  8
1
  6
Continuous
 62
     3
100
AcDbCircle
 10
17.61022693746108
 20
12.69999986568767
 30
0.0
 40
0.2
100
AcDbArc
 50
180.0
 51
341.0753555839485
  0
LINE
  5
12E
330
D2
100
AcDbEntity
  8
1
  6
Continuous
 62
     3
100
AcDbLine
 10
17.79941612665027
 20
12.63513500082281
 30
0.0
 11
18.41022693746109
 21
14.41666653235433
 31
0.0
  0
ARC
  5
12F
330
D2
100
AcDbEntity
  8
1
  6
Continuous
 62
     3
100
AcDbCircle
 10
17.91022693746109
 20
14.49999986568768
 30
0.0
 40
0.5
100
AcDbArc
 50
0.0
 51
90.0
  0
ARC
  5
130
330
D2
100
AcDbEntity
  8
1
  6
Continuous
 62
     3
100
AcDbCircle
 10
17.91022693746109
 20
14.49999986568768
 30
0.0
 40
0.5
100
AcDbArc
 50
0.0
 51
90.0
  0
ARC
  5
131
330
D2
100
AcDbEntity
  8
1
  6
Continuous
 62
     3
100
AcDbCircle
 10
17.91022693746109
 20
14.49999986568768
 30
0.0
 40
0.5
100
AcDbArc
 50
341.0753555839473
 51
0.0
  0
ARC
  5
132
330
D2
100
AcDbEntity
  8
1
  6
Continuous
 62
     3
100
AcDbCircle
 10
17.91022693746109
 20
14.49999986568768
 30
0.0
 40
0.5
100
AcDbArc
 50
341.0753555839473
 51
0.0
  0
ARC
  5
133
330
D2
100
AcDbEntity
  8
1
  6
Continuous
 62
     3
100
AcDbCircle
 10
17.91022693746109
 20
14.49999986568768
 30
0.0
 40
0.5
100
AcDbArc
 50
0.0
 51
90.0
  0
ARC
  5
134
330
D2
100
AcDbEntity
  8
1
  6
Continuous
 62
     3
100
AcDbCircle
 10
17.91022693746109
 20
14.49999986568768
 30
0.0
 40
0.5
100
AcDbArc
 50
0.0
 51
90.0
  0
ARC
  5
135
330
D2
100
AcDbEntity
  8
1
  6
Continuous
 62
     3
100
AcDbCircle
 10
47.87202157612867
 20
2.824496352424582
 30
0.0
 40
1.451970736947295
100
AcDbArc
 50
232.0129704852096
 51
232.0129704852108
  0
ARC
  5
136
330
D2
100
AcDbEntity
  8
1
  6
Continuous
 62
     3
100
AcDbCircle
 10
47.87202157612867
 20
2.824496352424582
 30
0.0
 40
1.451970736947295
100
AcDbArc
 50
232.0129704852096
 51
232.0129704852108
  0
LINE
  5
137
330
D2
100
AcDbEntity
  8
1
  6
Continuous
 62
     3
100
AcDbLine
 10
17.91022693746109
 20
14.99999986568768
 30
0.0
 11
15.41022693746109
 21
14.99999986568768
 31
0.0
  0
LINE
  5
138
330
D2
100
AcDbEntity
  8
1
  6
Continuous
 62
     3
100
AcDbLine
 10
13.91022693746109
 20
13.49999986568768
 30
0.0
 11
13.91022693746109
 21
13.35497850828435
 31
0.0
  0
ARC
  5
139
330
D2
100
AcDbEntity
  8
1
  6
Continuous
 62
     3
100
AcDbCircle
 10
15.41022693746109
 20
13.49999986568768
 30
0.0
 40
1.5
100
AcDbArc
 50
90.0
 51
180.0
  0
ARC
  5
13A
330
D2
100
AcDbEntity
  8
1
  6
Continuous
 62
     3
100
AcDbCircle
 10
15.41022693746109
 20
13.49999986568768
 30
0.0
 40
1.5
100
AcDbArc
 50
90.0
 51
180.0
  0
LINE
  5
13B
330
D2
100
AcDbEntity
  8
1
  6
Continuous
 62
     3
100
AcDbLine
 10
17.81022693746108
 20
-0.000000134312323
 30
0.0
 11
19.66022693746109
 21
-0.000000134312323
 31
0.0
  0
LINE
  5
13C
330
D2
100
AcDbEntity
  8
1
  6
Continuous
 62
     3
100
AcDbLine
 10
20.16022693746109
 20
-0.000000134312323
 30
0.0
 11
20.66022693746109
 21
-0.000000134312323
 31
0.0
  0
LINE
  5
13D
330
D2
100
AcDbEntity
  8
1
  6
Continuous
 62
     3
100
AcDbLine
 10
21.16022693746109
 20
-0.000000134312323
 30
0.0
 11
21.66022693746109
 21
-0.000000134312323
 31
0.0
  0
LINE
  5
13E
330
D2
100
AcDbEntity
  8
1
  6
Continuous
 62
     3
100
AcDbLine
 10
22.16022693746109
 20
-0.000000134312323
 30
0.0
 11
22.66022693746109
 21
-0.000000134312323
 31
0.0
  0
LINE
  5
13F
330
D2
100
AcDbEntity
  8
1
  6
Continuous
 62
     3
100
AcDbLine
 10
23.16022693746109
 20
-0.000000134312323
 30
0.0
 11
23.91022693746109
 21
-0.000000134312323
 31
0.0
  0
ARC
  5
140
330
D2
100
AcDbEntity
  8
1
  6
Continuous
 62
     3
100
AcDbCircle
 10
22.91022693746109
 20
-0.000000134312323
 30
0.0
 40
0.25
100
AcDbArc
 50
0.0
 51
180.0
  0
ARC
  5
141
330
D2
100
AcDbEntity
  8
1
  6
Continuous
 62
     3
100
AcDbCircle
 10
22.91022693746109
 20
-0.000000134312323
 30
0.0
 40
0.25
100
AcDbArc
 50
0.0
 51
180.0
  0
ARC
  5
142
330
D2
100
AcDbEntity
  8
1
  6
Continuous
 62
     3
100
AcDbCircle
 10
21.91022693746109
 20
-0.000000134312323
 30
0.0
 40
0.25
100
AcDbArc
 50
0.0
 51
180.0
  0
ARC
  5
143
330
D2
100
AcDbEntity
  8
1
  6
Continuous
 62
     3
100
AcDbCircle
 10
21.91022693746109
 20
-0.000000134312323
 30
0.0
 40
0.25
100
AcDbArc
 50
0.0
 51
180.0
  0
ARC
  5
144
330
D2
100
AcDbEntity
  8
1
  6
Continuous
 62
     3
100
AcDbCircle
 10
20.91022693746109
 20
-0.000000134312323
 30
0.0
 40
0.25
100
AcDbArc
 50
0.0
 51
180.0
  0
ARC
  5
145
330
D2
100
AcDbEntity
  8
1
  6
Continuous
 62
     3
100
AcDbCircle
 10
20.91022693746109
 20
-0.000000134312323
 30
0.0
 40
0.25
100
AcDbArc
 50
0.0
 51
180.0
  0
ARC
  5
146
330
D2
100
AcDbEntity
  8
1
  6
Continuous
 62
     3
100
AcDbCircle
 10
19.91022693746109
 20
-0.000000134312323
 30
0.0
 40
0.25
100
AcDbArc
 50
0.0
 51
180.0
  0
ARC
  5
147
330
D2
100
AcDbEntity
  8
1
  6
Continuous
 62
     3
100
AcDbCircle
 10
19.91022693746109
 20
-0.000000134312323
 30
0.0
 40
0.25
100
AcDbArc
 50
0.0
 51
180.0
  0
ARC
  5
148
330
D2
100
AcDbEntity
  8
1
  6
Continuous
 62
     3
100
AcDbCircle
 10
59.91022693746108
 20
3.69707036732752
 30
0.0
 40
2.5
100
AcDbArc
 50
54.5799295400786
 51
93.6702573747949
  0
ARC
  5
149
330
D2
100
AcDbEntity
  8
1
  6
Continuous
 62
     3
100
AcDbCircle
 10
59.91022693746108
 20
3.69707036732752
 30
0.0
 40
2.5
100
AcDbArc
 50
54.5799295400786
 51
93.6702573747949
  0
ARC
  5
14A
330
D2
100
AcDbEntity
  8
1
  6
Continuous
 62
     3
100
AcDbCircle
 10
59.91022693746108
 20
3.69707036732752
 30
0.0
 40
2.5
100
AcDbArc
 50
93.6702573747949
 51
109.2360336359783
  0
ARC
  5
14B
330
D2
100
AcDbEntity
  8
1
  6
Continuous
 62
     3
100
AcDbCircle
 10
59.91022693746108
 20
3.69707036732752
 30
0.0
 40
2.5
100
AcDbArc
 50
93.6702573747949
 51
109.2360336359783
  0
ARC
  5
14C
330
D2
100
AcDbEntity
  8
1
  6
Continuous
 62
     3
100
AcDbCircle
 10
59.91022693746108
 20
3.69707036732752
 30
0.0
 40
1.25
100
AcDbArc
 50
289.9999999999999
 51
109.236033635978
  0
ARC
  5
14D
330
D2
100
AcDbEntity
  8
1
  6
Continuous
 62
     3
100
AcDbCircle
 10
59.91022693746108
 20
3.69707036732752
 30
0.0
 40
1.25
100
AcDbArc
 50
289.9999999999999
 51
109.236033635978
  0
ARC
  5
14E
330
D2
100
AcDbEntity
  8
1
  6
Continuous
 62
     3
100
AcDbCircle
 10
56.62130276471039
 20
2.499999865687677
 30
0.0
 40
1.25
100
AcDbArc
 50
109.9999999999994
 51
290.0000000000007
  0
ARC
  5
14F
330
D2
100
AcDbEntity
  8
1
  6
Continuous
 62
     3
100
AcDbCircle
 10
56.62130276471039
 20
2.499999865687677
 30
0.0
 40
1.25
100
AcDbArc
 50
109.9999999999994
 51
290.0000000000007
  0
LINE
  5
150
330
D2
100
AcDbEntity
  8
1
  6
Continuous
 62
     3
100
AcDbLine
 10
57.04882794386749
 20
1.325384089705302
 30
0.0
 11
58.30325791324474
 21
1.781959259530076
 31
0.0
  0
ARC
  5
151
330
D2
100
AcDbEntity
  8
1
  6
Continuous
 62
     3
100
AcDbCircle
 10
55.95657968634605
 20
4.253216403680007
 30
0.0
 40
0.625
100
AcDbArc
 50
290.7639663640226
 51
110.7639663640213
  0
ARC
  5
152
330
D2
100
AcDbEntity
  8
1
  6
Continuous
 62
     3
100
AcDbCircle
 10
55.95657968634605
 20
4.253216403680007
 30
0.0
 40
0.625
100
AcDbArc
 50
290.7639663640226
 51
110.7639663640213
  0
ARC
  5
153
330
D2
100
AcDbEntity
  8
1
  6
Continuous
 62
     3
100
AcDbCircle
 10
59.29248849013602
 20
5.467387912486124
 30
0.0
 40
0.625
100
AcDbArc
 50
109.2360336359775
 51
289.2360336359785
  0
ARC
  5
154
330
D2
100
AcDbEntity
  8
1
  6
Continuous
 62
     3
100
AcDbCircle
 10
59.29248849013602
 20
5.467387912486124
 30
0.0
 40
0.625
100
AcDbArc
 50
109.2360336359775
 51
289.2360336359785
  0
LINE
  5
155
330
D2
100
AcDbEntity
  8
1
  6
Continuous
 62
     3
100
AcDbLine
 10
60.33775211661818
 20
2.522454591345145
 30
0.0
 11
58.30325791324474
 21
1.781959259530076
 31
0.0
  0
ARC
  5
156
330
D2
100
AcDbEntity
  8
1
  6
Continuous
 62
     3
100
AcDbCircle
 10
56.62130276471039
 20
2.499999865687677
 30
0.0
 40
2.5
100
AcDbArc
 50
110.0
 51
155.8061175462502
  0
ARC
  5
157
330
D2
100
AcDbEntity
  8
1
  6
Continuous
 62
     3
100
AcDbCircle
 10
56.62130276471039
 20
2.499999865687677
 30
0.0
 40
2.5
100
AcDbArc
 50
110.0
 51
155.8061175462502
  0
ARC
  5
158
330
D2
100
AcDbEntity
  8
1
  6
Continuous
 62
     3
100
AcDbCircle
 10
59.98117190484369
 20
2.662252369450492
 30
0.0
 40
1.451970736947295
100
AcDbArc
 50
232.0129704852096
 51
232.0129704852108
  0
ARC
  5
159
330
D2
100
AcDbEntity
  8
1
  6
Continuous
 62
     3
100
AcDbCircle
 10
59.98117190484369
 20
2.662252369450492
 30
0.0
 40
1.451970736947295
100
AcDbArc
 50
232.0129704852096
 51
232.0129704852108
  0
ARC
  5
15A
330
D2
100
AcDbEntity
  8
1
  6
Continuous
 62
     3
100
AcDbCircle
 10
53.88481112771581
 20
3.729476795385274
 30
0.0
 40
0.5
100
AcDbArc
 50
273.3715373382716
 51
335.8061175462503
  0
ARC
  5
15B
330
D2
100
AcDbEntity
  8
1
  6
Continuous
 62
     3
100
AcDbCircle
 10
53.88481112771581
 20
3.729476795385274
 30
0.0
 40
0.5
100
AcDbArc
 50
273.3715373382716
 51
335.8061175462503
  0
ARC
  5
15C
330
D2
100
AcDbEntity
  8
1
  6
Continuous
 62
     3
100
AcDbCircle
 10
59.91022693746108
 20
3.69707036732752
 30
0.0
 40
2.5
100
AcDbArc
 50
54.5799295400786
 51
93.6702573747949
  0
ARC
  5
15D
330
D2
100
AcDbEntity
  8
1
  6
Continuous
 62
     3
100
AcDbCircle
 10
59.91022693746108
 20
3.69707036732752
 30
0.0
 40
2.5
100
AcDbArc
 50
54.5799295400786
 51
93.6702573747949
  0
ARC
  5
15E
330
D2
100
AcDbEntity
  8
1
  6
Continuous
 62
     3
100
AcDbCircle
 10
59.91022693746108
 20
3.69707036732752
 30
0.0
 40
2.5
100
AcDbArc
 50
93.6702573747949
 51
109.2360336359783
  0
ARC
  5
15F
330
D2
100
AcDbEntity
  8
1
  6
Continuous
 62
     3
100
AcDbCircle
 10
59.91022693746108
 20
3.69707036732752
 30
0.0
 40
2.5
100
AcDbArc
 50
93.6702573747949
 51
109.2360336359783
  0
ARC
  5
160
330
D2
100
AcDbEntity
  8
1
  6
Continuous
 62
     3
100
AcDbCircle
 10
59.91022693746108
 20
3.69707036732752
 30
0.0
 40
1.25
100
AcDbArc
 50
289.9999999999999
 51
109.236033635978
  0
ARC
  5
161
330
D2
100
AcDbEntity
  8
1
  6
Continuous
 62
     3
100
AcDbCircle
 10
59.91022693746108
 20
3.69707036732752
 30
0.0
 40
1.25
100
AcDbArc
 50
289.9999999999999
 51
109.236033635978
  0
ARC
  5
162
330
D2
100
AcDbEntity
  8
1
  6
Continuous
 62
     3
100
AcDbCircle
 10
59.29248849013602
 20
5.467387912486124
 30
0.0
 40
0.625
100
AcDbArc
 50
109.2360336359775
 51
289.2360336359785
  0
ARC
  5
163
330
D2
100
AcDbEntity
  8
1
  6
Continuous
 62
     3
100
AcDbCircle
 10
59.29248849013602
 20
5.467387912486124
 30
0.0
 40
0.625
100
AcDbArc
 50
109.2360336359775
 51
289.2360336359785
  0
LINE
  5
164
330
D2
100
AcDbEntity
  8
1
  6
Continuous
 62
     3
100
AcDbLine
 10
60.33775211661818
 20
2.522454591345145
 30
0.0
 11
58.30325791324474
 21
1.781959259530076
 31
0.0
  0
ARC
  5
165
330
D2
100
AcDbEntity
  8
1
  6
Continuous
 62
     3
100
AcDbCircle
 10
59.98117190484369
 20
2.662252369450492
 30
0.0
 40
1.451970736947295
100
AcDbArc
 50
232.0129704852096
 51
232.0129704852108
  0
ARC
  5
166
330
D2
100
AcDbEntity
  8
1
  6
Continuous
 62
     3
100
AcDbCircle
 10
59.98117190484369
 20
2.662252369450492
 30
0.0
 40
1.451970736947295
100
AcDbArc
 50
232.0129704852096
 51
232.0129704852108
  0
ARC
  5
167
330
D2
100
AcDbEntity
  8
1
  6
Continuous
 62
     3
100
AcDbCircle
 10
12.91022693746109
 20
9.181870190764123
 30
0.0
 40
1.0
100
AcDbArc
 50
0.0
 51
107.1859379357978
  0
ARC
  5
168
330
D2
100
AcDbEntity
  8
1
  6
Continuous
 62
     3
100
AcDbCircle
 10
12.91022693746109
 20
9.181870190764123
 30
0.0
 40
1.0
100
AcDbArc
 50
0.0
 51
107.1859379357978
  0
ARC
  5
169
330
D2
100
AcDbEntity
  8
1
  6
Continuous
 62
     3
100
AcDbCircle
 10
13.41022693746109
 20
13.35497850828435
 30
0.0
 40
0.5
100
AcDbArc
 50
283.5307464986788
 51
0.0
  0
ARC
  5
16A
330
D2
100
AcDbEntity
  8
1
  6
Continuous
 62
     3
100
AcDbCircle
 10
13.41022693746109
 20
13.35497850828435
 30
0.0
 40
0.5
100
AcDbArc
 50
283.5307464986788
 51
0.0
  0
LINE
  5
16B
330
D2
100
AcDbEntity
  8
1
  6
Continuous
 62
     3
100
AcDbLine
 10
71.99999997491648
 20
6.594387881758671
 30
0.0
 11
71.99999997491648
 21
0.499999865687677
 31
0.0
  0
LINE
  5
16C
330
D2
100
AcDbEntity
  8
1
  6
Continuous
 62
     3
100
AcDbLine
 10
71.49999997491648
 20
-0.000000134312323
 30
0.0
 11
71.24999997491648
 21
-0.000000134312323
 31
0.0
  0
LINE
  5
16D
330
D2
100
AcDbEntity
  8
1
  6
Continuous
 62
     3
100
AcDbLine
 10
70.74999997491648
 20
1.719387872445445
 30
0.0
 11
70.74999997491648
 21
4.219387872445445
 31
0.0
  0
LINE
  5
16E
330
D2
100
AcDbEntity
  8
1
  6
Continuous
 62
     3
100
AcDbLine
 10
70.24999997491648
 20
4.719387872445445
 30
0.0
 11
67.67420465188066
 21
4.719387872445445
 31
0.0
  0
ARC
  5
16F
330
D2
100
AcDbEntity
  8
1
  6
Continuous
 62
     3
100
AcDbCircle
 10
70.24999997491648
 20
4.219387872445445
 30
0.0
 40
0.5
100
AcDbArc
 50
0.0
 51
90.0
  0
ARC
  5
170
330
D2
100
AcDbEntity
  8
1
  6
Continuous
 62
     3
100
AcDbCircle
 10
70.24999997491648
 20
4.219387872445445
 30
0.0
 40
0.5
100
AcDbArc
 50
0.0
 51
90.0
  0
ARC
  5
171
330
D2
100
AcDbEntity
  8
1
  6
Continuous
 62
     3
100
AcDbCircle
 10
71.49999997491648
 20
0.499999865687677
 30
0.0
 40
0.5
100
AcDbArc
 50
270.0
 51
0.0
  0
ARC
  5
172
330
D2
100
AcDbEntity
  8
1
  6
Continuous
 62
     3
100
AcDbCircle
 10
71.49999997491648
 20
0.499999865687677
 30
0.0
 40
0.5
100
AcDbArc
 50
270.0
 51
0.0
  0
ARC
  5
173
330
D2
100
AcDbEntity
  8
1
  6
Continuous
 62
     3
100
AcDbCircle
 10
71.24999997491648
 20
0.499999865687677
 30
0.0
 40
0.5
100
AcDbArc
 50
214.1404868935876
 51
270.0
  0
ARC
  5
174
330
D2
100
AcDbEntity
  8
1
  6
Continuous
 62
     3
100
AcDbCircle
 10
71.24999997491648
 20
0.499999865687677
 30
0.0
 40
0.5
100
AcDbArc
 50
214.1404868935876
 51
270.0
  0
ARC
  5
175
330
D2
100
AcDbEntity
  8
1
  6
Continuous
 62
     3
100
AcDbCircle
 10
67.67420465188066
 20
4.219387872445445
 30
0.0
 40
0.5
100
AcDbArc
 50
90.0
 51
193.9748917934724
  0
ARC
  5
176
330
D2
100
AcDbEntity
  8
1
  6
Continuous
 62
     3
100
AcDbCircle
 10
67.67420465188066
 20
4.219387872445445
 30
0.0
 40
0.5
100
AcDbArc
 50
90.0
 51
193.9748917934724
  0
ARC
  5
177
330
D2
100
AcDbEntity
  8
1
  6
Continuous
 62
     3
100
AcDbCircle
 10
61.41155509738077
 20
1.050975811976208
 30
0.0
 40
0.5
100
AcDbArc
 50
36.74850782711038
 51
110.0000000000001
  0
ARC
  5
178
330
D2
100
AcDbEntity
  8
1
  6
Continuous
 62
     3
100
AcDbCircle
 10
61.41155509738077
 20
1.050975811976208
 30
0.0
 40
0.5
100
AcDbArc
 50
36.74850782711038
 51
110.0000000000001
  0
ARC
  5
179
330
D2
100
AcDbEntity
  8
1
  6
Continuous
 62
     3
100
AcDbCircle
 10
63.00078750807344
 20
6.344387885483961
 30
0.0
 40
0.5
100
AcDbArc
 50
90.0
 51
180.0
  0
ARC
  5
17A
330
D2
100
AcDbEntity
  8
1
  6
Continuous
 62
     3
100
AcDbCircle
 10
63.00078750807344
 20
6.344387885483961
 30
0.0
 40
0.5
100
AcDbArc
 50
90.0
 51
180.0
  0
LINE
  5
17B
330
D2
100
AcDbEntity
  8
1
  6
Continuous
 62
     3
100
AcDbLine
 10
15.41022693746109
 20
5.499999865687677
 30
0.0
 11
16.17001671236216
 21
5.499999865687677
 31
0.0
  0
ARC
  5
17C
330
D2
100
AcDbEntity
  8
1
  6
Continuous
 62
     3
100
AcDbCircle
 10
15.41022693746109
 20
6.999999865687677
 30
0.0
 40
1.5
100
AcDbArc
 50
180.0
 51
270.0
  0
ARC
  5
17D
330
D2
100
AcDbEntity
  8
1
  6
Continuous
 62
     3
100
AcDbCircle
 10
15.41022693746109
 20
6.999999865687677
 30
0.0
 40
1.5
100
AcDbArc
 50
180.0
 51
270.0
  0
LINE
  5
17E
330
D2
100
AcDbEntity
  8
1
  6
Continuous
 62
     3
100
AcDbLine
 10
18.41022693746109
 20
7.44999986568768
 30
0.0
 11
22.16022693746109
 21
7.44999986568768
 31
0.0
  0
ARC
  5
17F
330
D2
100
AcDbEntity
  8
1
  6
Continuous
 62
     3
100
AcDbCircle
 10
24.86451338475517
 20
2.758375714748119
 30
0.0
 40
0.5
100
AcDbArc
 50
194.5899286808287
 51
271.9168813238778
  0
ARC
  5
180
330
D2
100
AcDbEntity
  8
1
  6
Continuous
 62
     3
100
AcDbCircle
 10
24.86451338475517
 20
2.758375714748119
 30
0.0
 40
0.5
100
AcDbArc
 50
194.5899286808287
 51
271.9168813238778
  0
LINE
  5
181
330
D2
100
AcDbEntity
  8
1
  6
Continuous
 62
     3
100
AcDbLine
 10
16.60302941425438
 20
5.249999865687677
 30
0.0
 11
17.55140789235855
 21
3.607360156806386
 31
0.0
  0
ARC
  5
182
330
D2
100
AcDbEntity
  8
1
  6
Continuous
 62
     3
100
AcDbCircle
 10
16.17001671236216
 20
4.999999865687677
 30
0.0
 40
0.5
100
AcDbArc
 50
29.99999999999993
 51
90.0
  0
ARC
  5
183
330
D2
100
AcDbEntity
  8
1
  6
Continuous
 62
     3
100
AcDbCircle
 10
16.17001671236216
 20
4.999999865687677
 30
0.0
 40
0.5
100
AcDbArc
 50
29.99999999999993
 51
90.0
  0
LINE
  5
184
330
D2
100
AcDbEntity
  8
1
  6
Continuous
 62
     3
100
AcDbLine
 10
70.24999997491648
 20
1.219387872445445
 30
0.0
 11
69.74999997491648
 21
1.219387872445445
 31
0.0
  0
ARC
  5
185
330
D2
100
AcDbEntity
  8
1
  6
Continuous
 62
     3
100
AcDbCircle
 10
69.74999997491648
 20
0.719387872445445
 30
0.0
 40
0.5
100
AcDbArc
 50
90.0
 51
270.0
  0
ARC
  5
186
330
D2
100
AcDbEntity
  8
1
  6
Continuous
 62
     3
100
AcDbCircle
 10
69.74999997491648
 20
0.719387872445445
 30
0.0
 40
0.5
100
AcDbArc
 50
90.0
 51
270.0
  0
LINE
  5
187
330
D2
100
AcDbEntity
  8
1
  6
Continuous
 62
     3
100
AcDbLine
 10
69.74999997491648
 20
0.219387872445445
 30
0.0
 11
70.83616799301002
 21
0.219387872445445
 31
0.0
  0
ARC
  5
188
330
D2
100
AcDbEntity
  8
1
  6
Continuous
 62
     3
100
AcDbCircle
 10
70.24999997491648
 20
1.719387872445445
 30
0.0
 40
0.5
100
AcDbArc
 50
270.0
 51
0.0
  0
ARC
  5
189
330
D2
100
AcDbEntity
  8
1
  6
Continuous
 62
     3
100
AcDbCircle
 10
70.24999997491648
 20
1.719387872445445
 30
0.0
 40
0.5
100
AcDbArc
 50
270.0
 51
0.0
  0
ENDBLK
  5
D4
330
D2
100
AcDbEntity
  8
0
100
AcDbBlockEnd
  0
BLOCK
  5
18C
330
18B
100
AcDbEntity
  8
0
100
AcDbBlockBegin
  2
8569S
 70
     2
 10
0.0
 20
0.0
 30
0.0
  3
8569S
  1
8569S
  0
ATTDEF
  5
18E
330
18B
100
AcDbEntity
  8
FIXING
100
AcDbText
 10
0.0
 20
0.0
 30
0.0
 40
1.0
  1

100
AcDbAttributeDefinition
  3
Enter PAT_NAME
  2
PAT_NAME
 70
     0
280
     0
  0
LINE
  5
192
330
18B
100
AcDbEntity
  8
FIXING
  6
Continuous
 62
     3
100
AcDbLine
 10
2.148800442670989
 20
9.403999829978737
 30
0.0
 11
2.148700442670787
 21
7.700599829978721
 31
0.0
  0
LINE
  5
193
330
18B
100
AcDbEntity
  8
FIXING
  6
Continuous
 62
     3
100
AcDbLine
 10
2.148700442670787
 20
7.700599829978721
 30
0.0
 11
1.220500442670954
 21
7.325899829978731
 31
0.0
  0
LINE
  5
194
330
18B
100
AcDbEntity
  8
FIXING
  6
Continuous
 62
     3
100
AcDbLine
 10
2.148600442671039
 20
6.96199982997873
 30
0.0
 11
1.220600442671156
 21
7.325999829978734
 31
0.0
  0
LINE
  5
195
330
18B
100
AcDbEntity
  8
FIXING
  6
Continuous
 62
     3
100
AcDbLine
 10
1.220600442671156
 20
7.325999829978734
 30
0.0
 11
5.420700442671176
 21
8.179199829978721
 31
0.0
  0
LINE
  5
196
330
18B
100
AcDbEntity
  8
FIXING
  6
Continuous
 62
     3
100
AcDbLine
 10
5.420700442671176
 20
8.179199829978721
 30
0.0
 11
4.492700442670838
 21
7.815099829978713
 31
0.0
  0
LINE
  5
197
330
18B
100
AcDbEntity
  8
FIXING
  6
Continuous
 62
     3
100
AcDbLine
 10
4.492700442670838
 20
7.815099829978713
 30
0.0
 11
2.148600442671039
 21
6.96199982997873
 31
0.0
  0
LINE
  5
198
330
18B
100
AcDbEntity
  8
FIXING
  6
Continuous
 62
     3
100
AcDbLine
 10
2.148500442670837
 20
7.700499829978718
 30
0.0
 11
4.492700442670838
 21
8.553699829978733
 31
0.0
  0
LINE
  5
199
330
18B
100
AcDbEntity
  8
FIXING
  6
Continuous
 62
     3
100
AcDbLine
 10
4.492700442670838
 20
6.111899829978732
 30
0.0
 11
4.492700442670838
 21
7.815099829978713
 31
0.0
  0
LINE
  5
19A
330
18B
100
AcDbEntity
  8
FIXING
  6
Continuous
 62
     3
100
AcDbLine
 10
4.492700442670838
 20
7.815099829978713
 30
0.0
 11
4.492700442670838
 21
6.111899829978732
 31
0.0
  0
LINE
  5
19B
330
18B
100
AcDbEntity
  8
FIXING
  6
Continuous
 62
     3
100
AcDbLine
 10
4.492700442670838
 20
6.111899829978732
 30
0.0
 11
4.492700442670838
 21
7.815099829978713
 31
0.0
  0
LINE
  5
19C
330
18B
100
AcDbEntity
  8
FIXING
  6
Continuous
 62
     3
100
AcDbLine
 10
4.492700442670838
 20
7.815099829978713
 30
0.0
 11
5.420700442671176
 21
8.179199829978721
 31
0.0
  0
LINE
  5
19D
330
18B
100
AcDbEntity
  8
FIXING
  6
Continuous
 62
     3
100
AcDbLine
 10
5.420700442671176
 20
8.179199829978721
 30
0.0
 11
4.49300044267099
 21
8.553699829978733
 31
0.0
  0
LINE
  5
19E
330
18B
100
AcDbEntity
  8
FIXING
  6
Continuous
 62
     3
100
AcDbLine
 10
4.492300442670938
 20
1.227699829978711
 30
0.0
 11
5.42000044267111
 21
0.8531998299787276
 31
0.0
  0
LINE
  5
19F
330
18B
100
AcDbEntity
  8
FIXING
  6
Continuous
 62
     3
100
AcDbLine
 10
5.42000044267111
 20
0.8531998299787276
 30
0.0
 11
1.21990044267109
 21
0.0000998299787156
 31
0.0
  0
LINE
  5
1A0
330
18B
100
AcDbEntity
  8
FIXING
  6
Continuous
 62
     3
100
AcDbLine
 10
4.492100442670974
 20
0.4891998299787232
 30
0.0
 11
4.492000442670772
 21
0.4891998299787232
 31
0.0
  0
LINE
  5
1A1
330
18B
100
AcDbEntity
  8
FIXING
  6
Continuous
 62
     3
100
AcDbLine
 10
4.492000442670772
 20
0.4891998299787232
 30
0.0
 11
5.42000044267111
 21
0.8531998299787276
 31
0.0
  0
LINE
  5
1A2
330
18B
100
AcDbEntity
  8
FIXING
  6
Continuous
 62
     3
100
AcDbLine
 10
4.49260044267109
 20
5.373199829978738
 30
0.0
 11
4.492500442670888
 21
5.373199829978738
 31
0.0
  0
LINE
  5
1A3
330
18B
100
AcDbEntity
  8
FIXING
  6
Continuous
 62
     3
100
AcDbLine
 10
4.492500442670888
 20
5.373199829978738
 30
0.0
 11
4.492500442670888
 21
3.669899829978725
 31
0.0
  0
LINE
  5
1A4
330
18B
100
AcDbEntity
  8
FIXING
  6
Continuous
 62
     3
100
AcDbLine
 10
4.492500442670888
 20
3.669899829978725
 30
0.0
 11
4.492500442670888
 21
5.373199829978738
 31
0.0
  0
LINE
  5
1A5
330
18B
100
AcDbEntity
  8
FIXING
  6
Continuous
 62
     3
100
AcDbLine
 10
4.492500442670888
 20
5.373199829978738
 30
0.0
 11
5.420500442670772
 21
5.737199829978714
 31
0.0
  0
LINE
  5
1A6
330
18B
100
AcDbEntity
  8
FIXING
  6
Continuous
 62
     3
100
AcDbLine
 10
4.492500442670888
 20
3.669699829978718
 30
0.0
 11
5.420200442671074
 21
3.295199829978735
 31
0.0
  0
LINE
  5
1A7
330
18B
100
AcDbEntity
  8
FIXING
  6
Continuous
 62
     3
100
AcDbLine
 10
5.420200442671074
 20
3.295199829978735
 30
0.0
 11
4.492200442670736
 21
2.931199829978731
 31
0.0
  0
LINE
  5
1A8
330
18B
100
AcDbEntity
  8
FIXING
  6
Continuous
 62
     3
100
AcDbLine
 10
4.492200442670736
 20
2.931199829978731
 30
0.0
 11
4.492300442670938
 21
2.931199829978731
 31
0.0
  0
LINE
  5
1A9
330
18B
100
AcDbEntity
  8
FIXING
  6
Continuous
 62
     3
100
AcDbLine
 10
4.492300442670938
 20
2.931199829978731
 30
0.0
 11
4.492200442670736
 21
2.931199829978731
 31
0.0
  0
LINE
  5
1AA
330
18B
100
AcDbEntity
  8
FIXING
  6
Continuous
 62
     3
100
AcDbLine
 10
4.492200442670736
 20
2.931199829978731
 30
0.0
 11
5.420200442671074
 21
3.295199829978735
 31
0.0
  0
LINE
  5
1AB
330
18B
100
AcDbEntity
  8
FIXING
  6
Continuous
 62
     3
100
AcDbLine
 10
5.420200442671074
 20
3.295199829978735
 30
0.0
 11
4.492500442670888
 21
3.669699829978718
 31
0.0
  0
LINE
  5
1AC
330
18B
100
AcDbEntity
  8
FIXING
  6
Continuous
 62
     3
100
AcDbLine
 10
4.492100442670974
 20
0.4891998299787232
 30
0.0
 11
4.492000442670772
 21
0.4890998299787199
 31
0.0
  0
LINE
  5
1AD
330
18B
100
AcDbEntity
  8
FIXING
  6
Continuous
 62
     3
100
AcDbLine
 10
1.21990044267109
 20
-0.0000001700212593
 30
0.0
 11
5.42000044267111
 21
0.8531998299787276
 31
0.0
  0
LINE
  5
1AE
330
18B
100
AcDbEntity
  8
FIXING
  6
Continuous
 62
     3
100
AcDbLine
 10
5.42000044267111
 20
0.8531998299787276
 30
0.0
 11
4.492200442670736
 21
1.227699829978711
 31
0.0
  0
LINE
  5
1AF
330
18B
100
AcDbEntity
  8
FIXING
  6
Continuous
 62
     3
100
AcDbLine
 10
4.492200442670736
 20
1.227699829978711
 30
0.0
 11
5.42000044267111
 21
0.8531998299787276
 31
0.0
  0
LINE
  5
1B0
330
18B
100
AcDbEntity
  8
FIXING
  6
Continuous
 62
     3
100
AcDbLine
 10
2.148100442670938
 20
2.077999829978715
 30
0.0
 11
2.148100442670923
 21
0.3746998299787307
 31
0.0
  0
LINE
  5
1B1
330
18B
100
AcDbEntity
  8
FIXING
  6
Continuous
 62
     3
100
AcDbLine
 10
2.148100442670923
 20
0.3746998299787307
 30
0.0
 11
1.21990044267109
 21
-0.0000001700212593
 31
0.0
  0
LINE
  5
1B2
330
18B
100
AcDbEntity
  8
FIXING
  6
Continuous
 62
     3
100
AcDbLine
 10
1.21990044267109
 20
-0.0000001700212593
 30
0.0
 11
5.42000044267111
 21
0.8531998299787276
 31
0.0
  0
LINE
  5
1B3
330
18B
100
AcDbEntity
  8
FIXING
  6
Continuous
 62
     3
100
AcDbLine
 10
5.42000044267111
 20
0.8531998299787276
 30
0.0
 11
4.492000442670772
 21
0.4890998299787199
 31
0.0
  0
LINE
  5
1B4
330
18B
100
AcDbEntity
  8
FIXING
  6
Continuous
 62
     3
100
AcDbLine
 10
2.148100442670923
 20
0.3746998299787307
 30
0.0
 11
1.21990044267109
 21
-0.0000001700212593
 31
0.0
  0
LINE
  5
1B5
330
18B
100
AcDbEntity
  8
FIXING
  6
Continuous
 62
     3
100
AcDbLine
 10
4.492000442670772
 20
0.4890998299787199
 30
0.0
 11
5.42000044267111
 21
0.8531998299787276
 31
0.0
  0
LINE
  5
1B6
330
18B
100
AcDbEntity
  8
FIXING
  6
Continuous
 62
     3
100
AcDbLine
 10
5.42000044267111
 20
0.8531998299787276
 30
0.0
 11
1.21990044267109
 21
-0.0000001700212593
 31
0.0
  0
LINE
  5
1B7
330
18B
100
AcDbEntity
  8
FIXING
  6
Continuous
 62
     3
100
AcDbLine
 10
4.492000442670772
 20
0.4890998299787199
 30
0.0
 11
4.492100442670974
 21
0.4891998299787232
 31
0.0
  0
LINE
  5
1B8
330
18B
100
AcDbEntity
  8
FIXING
  6
Continuous
 62
     3
100
AcDbLine
 10
4.49280044267104
 20
6.111699829978726
 30
0.0
 11
5.420500442670772
 21
5.737199829978714
 31
0.0
  0
LINE
  5
1B9
330
18B
100
AcDbEntity
  8
FIXING
  6
Continuous
 62
     3
100
AcDbLine
 10
5.420500442670772
 20
5.737199829978714
 30
0.0
 11
1.220400442670751
 21
4.88409982997873
 31
0.0
  0
LINE
  5
1BA
330
18B
100
AcDbEntity
  8
FIXING
  6
Continuous
 62
     3
100
AcDbLine
 10
1.220400442670751
 20
4.88409982997873
 30
0.0
 11
2.14840044267109
 21
4.519999829978723
 31
0.0
  0
LINE
  5
1BB
330
18B
100
AcDbEntity
  8
FIXING
  6
Continuous
 62
     3
100
AcDbLine
 10
2.14840044267109
 20
4.519999829978723
 30
0.0
 11
4.492500442670888
 21
5.373199829978738
 31
0.0
  0
LINE
  5
1BC
330
18B
100
AcDbEntity
  8
FIXING
  6
Continuous
 62
     3
100
AcDbLine
 10
4.492500442670888
 20
5.373199829978738
 30
0.0
 11
4.492500442670888
 21
3.669899829978725
 31
0.0
  0
LINE
  5
1BD
330
18B
100
AcDbEntity
  8
FIXING
  6
Continuous
 62
     3
100
AcDbLine
 10
2.148100442670938
 20
2.077999829978715
 30
0.0
 11
4.492200442670736
 21
2.931199829978731
 31
0.0
  0
LINE
  5
1BE
330
18B
100
AcDbEntity
  8
FIXING
  6
Continuous
 62
     3
100
AcDbLine
 10
4.492200442670736
 20
2.931199829978731
 30
0.0
 11
5.420200442671074
 21
3.295199829978735
 31
0.0
  0
LINE
  5
1BF
330
18B
100
AcDbEntity
  8
FIXING
  6
Continuous
 62
     3
100
AcDbLine
 10
5.420200442671074
 20
3.295199829978735
 30
0.0
 11
1.220100442671054
 21
2.44199982997872
 31
0.0
  0
LINE
  5
1C0
330
18B
100
AcDbEntity
  8
FIXING
  6
Continuous
 62
     3
100
AcDbLine
 10
1.220100442671054
 20
2.44199982997872
 30
0.0
 11
2.148300442670887
 21
2.81669982997871
 31
0.0
  0
LINE
  5
1C1
330
18B
100
AcDbEntity
  8
FIXING
  6
Continuous
 62
     3
100
AcDbLine
 10
2.148300442670887
 20
2.81669982997871
 30
0.0
 11
2.148300442670887
 21
3.669699829978718
 31
0.0
  0
LINE
  5
1C2
330
18B
100
AcDbEntity
  8
FIXING
  6
Continuous
 62
     3
100
AcDbLine
 10
2.148300442670887
 20
3.669699829978718
 30
0.0
 11
2.148300442670887
 21
2.81669982997871
 31
0.0
  0
LINE
  5
1C3
330
18B
100
AcDbEntity
  8
FIXING
  6
Continuous
 62
     3
100
AcDbLine
 10
2.148300442670887
 20
2.81669982997871
 30
0.0
 11
1.220100442671054
 21
2.44199982997872
 31
0.0
  0
LINE
  5
1C4
330
18B
100
AcDbEntity
  8
FIXING
  6
Continuous
 62
     3
100
AcDbLine
 10
1.220100442671054
 20
2.44199982997872
 30
0.0
 11
5.420200442671074
 21
3.295199829978735
 31
0.0
  0
LINE
  5
1C5
330
18B
100
AcDbEntity
  8
FIXING
  6
Continuous
 62
     3
100
AcDbLine
 10
5.420200442671074
 20
3.295199829978735
 30
0.0
 11
4.492200442670736
 21
2.931199829978731
 31
0.0
  0
LINE
  5
1C6
330
18B
100
AcDbEntity
  8
FIXING
  6
Continuous
 62
     3
100
AcDbLine
 10
4.492200442670736
 20
2.931199829978731
 30
0.0
 11
2.148100442670938
 21
2.077999829978715
 31
0.0
  0
LINE
  5
1C7
330
18B
100
AcDbEntity
  8
FIXING
  6
Continuous
 62
     3
100
AcDbLine
 10
2.148100442670938
 20
2.077999829978715
 30
0.0
 11
1.220100442671054
 21
2.44199982997872
 31
0.0
  0
LINE
  5
1C8
330
18B
100
AcDbEntity
  8
FIXING
  6
Continuous
 62
     3
100
AcDbLine
 10
1.220100442671054
 20
2.44199982997872
 30
0.0
 11
2.148300442670887
 21
2.81669982997871
 31
0.0
  0
LINE
  5
1C9
330
18B
100
AcDbEntity
  8
FIXING
  6
Continuous
 62
     3
100
AcDbLine
 10
2.148300442670887
 20
2.81669982997871
 30
0.0
 11
2.148300442670887
 21
4.519999829978723
 31
0.0
  0
LINE
  5
1CA
330
18B
100
AcDbEntity
  8
FIXING
  6
Continuous
 62
     3
100
AcDbLine
 10
4.492200442670736
 20
2.931199829978731
 30
0.0
 11
4.492300442670938
 21
2.931199829978731
 31
0.0
  0
LINE
  5
1CB
330
18B
100
AcDbEntity
  8
FIXING
  6
Continuous
 62
     3
100
AcDbLine
 10
4.492300442670938
 20
2.931199829978731
 30
0.0
 11
4.492200442670736
 21
2.931199829978731
 31
0.0
  0
LINE
  5
1CC
330
18B
100
AcDbEntity
  8
FIXING
  6
Continuous
 62
     3
100
AcDbLine
 10
4.492200442670736
 20
2.931199829978731
 30
0.0
 11
2.148100442670938
 21
2.077999829978715
 31
0.0
  0
LINE
  5
1CD
330
18B
100
AcDbEntity
  8
FIXING
  6
Continuous
 62
     3
100
AcDbLine
 10
2.148100442670938
 20
2.077999829978715
 30
0.0
 11
1.220100442671054
 21
2.44199982997872
 31
0.0
  0
LINE
  5
1CE
330
18B
100
AcDbEntity
  8
FIXING
  6
Continuous
 62
     3
100
AcDbLine
 10
1.220100442671054
 20
2.44199982997872
 30
0.0
 11
5.420200442671074
 21
3.295199829978735
 31
0.0
  0
LINE
  5
1CF
330
18B
100
AcDbEntity
  8
FIXING
  6
Continuous
 62
     3
100
AcDbLine
 10
5.420200442671074
 20
3.295199829978735
 30
0.0
 11
4.492200442670736
 21
2.931199829978731
 31
0.0
  0
LINE
  5
1D0
330
18B
100
AcDbEntity
  8
FIXING
  6
Continuous
 62
     3
100
AcDbLine
 10
4.492200442670736
 20
2.931199829978731
 30
0.0
 11
2.148100442670938
 21
2.077999829978715
 31
0.0
  0
LINE
  5
1D1
330
18B
100
AcDbEntity
  8
FIXING
  6
Continuous
 62
     3
100
AcDbLine
 10
2.148100442670938
 20
2.077999829978715
 30
0.0
 11
1.220100442671054
 21
2.44199982997872
 31
0.0
  0
LINE
  5
1D2
330
18B
100
AcDbEntity
  8
FIXING
  6
Continuous
 62
     3
100
AcDbLine
 10
1.220100442671054
 20
2.44199982997872
 30
0.0
 11
2.148300442670887
 21
2.81669982997871
 31
0.0
  0
LINE
  5
1D3
330
18B
100
AcDbEntity
  8
FIXING
  6
Continuous
 62
     3
100
AcDbLine
 10
2.148300442670887
 20
2.81669982997871
 30
0.0
 11
2.148300442670887
 21
4.519999829978723
 31
0.0
  0
LINE
  5
1D4
330
18B
100
AcDbEntity
  8
FIXING
  6
Continuous
 62
     3
100
AcDbLine
 10
2.148300442670887
 20
4.519999829978723
 30
0.0
 11
2.148300442670887
 21
2.81669982997871
 31
0.0
  0
LINE
  5
1D5
330
18B
100
AcDbEntity
  8
FIXING
  6
Continuous
 62
     3
100
AcDbLine
 10
4.492200442670736
 20
1.227899829978718
 30
0.0
 11
4.492200442670736
 21
2.931199829978731
 31
0.0
  0
LINE
  5
1D6
330
18B
100
AcDbEntity
  8
FIXING
  6
Continuous
 62
     3
100
AcDbLine
 10
4.492200442670736
 20
2.931199829978731
 30
0.0
 11
4.492200442670736
 21
1.227899829978718
 31
0.0
  0
LINE
  5
1D7
330
18B
100
AcDbEntity
  8
FIXING
  6
Continuous
 62
     3
100
AcDbLine
 10
4.492200442670736
 20
1.227899829978718
 30
0.0
 11
4.492200442670736
 21
2.931199829978731
 31
0.0
  0
LINE
  5
1D8
330
18B
100
AcDbEntity
  8
FIXING
  6
Continuous
 62
     3
100
AcDbLine
 10
4.492200442670736
 20
2.931199829978731
 30
0.0
 11
5.420200442671074
 21
3.295199829978735
 31
0.0
  0
LINE
  5
1D9
330
18B
100
AcDbEntity
  8
FIXING
  6
Continuous
 62
     3
100
AcDbLine
 10
5.420200442671074
 20
3.295199829978735
 30
0.0
 11
4.492500442670888
 21
3.669699829978718
 31
0.0
  0
LINE
  5
1DA
330
18B
100
AcDbEntity
  8
FIXING
  6
Continuous
 62
     3
100
AcDbLine
 10
4.492500442670888
 20
3.669699829978718
 30
0.0
 11
5.420200442671074
 21
3.295199829978735
 31
0.0
  0
LINE
  5
1DB
330
18B
100
AcDbEntity
  8
FIXING
  6
Continuous
 62
     3
100
AcDbLine
 10
5.420200442671074
 20
3.295199829978735
 30
0.0
 11
1.220100442671054
 21
2.44199982997872
 31
0.0
  0
LINE
  5
1DC
330
18B
100
AcDbEntity
  8
FIXING
  6
Continuous
 62
     3
100
AcDbLine
 10
1.220100442671054
 20
2.44199982997872
 30
0.0
 11
2.148100442670938
 21
2.077999829978715
 31
0.0
  0
LINE
  5
1DD
330
18B
100
AcDbEntity
  8
FIXING
  6
Continuous
 62
     3
100
AcDbLine
 10
2.148100442670938
 20
2.077999829978715
 30
0.0
 11
4.492200442670736
 21
2.931199829978731
 31
0.0
  0
LINE
  5
1DE
330
18B
100
AcDbEntity
  8
FIXING
  6
Continuous
 62
     3
100
AcDbLine
 10
4.492200442670736
 20
2.931199829978731
 30
0.0
 11
4.492300442670938
 21
2.931199829978731
 31
0.0
  0
LINE
  5
1DF
330
18B
100
AcDbEntity
  8
FIXING
  6
Continuous
 62
     3
100
AcDbLine
 10
2.148100442670938
 20
1.227699829978711
 30
0.0
 11
2.148100442670923
 21
0.3746998299787307
 31
0.0
  0
LINE
  5
1E0
330
18B
100
AcDbEntity
  8
FIXING
  6
Continuous
 62
     3
100
AcDbLine
 10
2.148100442670923
 20
0.3746998299787307
 30
0.0
 11
2.148100442670938
 21
2.077999829978715
 31
0.0
  0
LINE
  5
1E1
330
18B
100
AcDbEntity
  8
FIXING
  6
Continuous
 62
     3
100
AcDbLine
 10
2.148100442670938
 20
2.077999829978715
 30
0.0
 11
2.148100442670923
 21
0.3746998299787307
 31
0.0
  0
LINE
  5
1E2
330
18B
100
AcDbEntity
  8
FIXING
  6
Continuous
 62
     3
100
AcDbLine
 10
2.148100442670923
 20
0.3746998299787307
 30
0.0
 11
2.148100442670938
 21
1.227699829978711
 31
0.0
  0
LINE
  5
1E3
330
18B
100
AcDbEntity
  8
FIXING
  6
Continuous
 62
     3
100
AcDbLine
 10
2.147900442670974
 20
0.3744998299787241
 30
0.0
 11
4.492100442670989
 21
1.227699829978711
 31
0.0
  0
LINE
  5
1E4
330
18B
100
AcDbEntity
  8
FIXING
  6
Continuous
 62
     3
100
AcDbLine
 10
4.492100442670989
 20
1.227699829978711
 30
0.0
 11
2.147900442670974
 21
0.3744998299787241
 31
0.0
  0
LINE
  5
1E5
330
18B
100
AcDbEntity
  8
FIXING
  6
Continuous
 62
     3
100
AcDbLine
 10
1.220600442671156
 20
7.325999829978734
 30
0.0
 11
2.148800442670989
 21
7.700699829978724
 31
0.0
  0
LINE
  5
1E6
330
18B
100
AcDbEntity
  8
FIXING
  6
Continuous
 62
     3
100
AcDbLine
 10
1.220400442670751
 20
4.88409982997873
 30
0.0
 11
2.148600442671039
 21
5.258699829978717
 31
0.0
  0
LINE
  5
1E7
330
18B
100
AcDbEntity
  8
FIXING
  6
Continuous
 62
     3
100
AcDbLine
 10
2.148300442670887
 20
3.669699829978718
 30
0.0
 11
2.148300442670887
 21
2.81669982997871
 31
0.0
  0
LINE
  5
1E8
330
18B
100
AcDbEntity
  8
FIXING
  6
Continuous
 62
     3
100
AcDbLine
 10
2.148300442670887
 20
2.81669982997871
 30
0.0
 11
2.148300442670887
 21
4.519999829978723
 31
0.0
  0
LINE
  5
1E9
330
18B
100
AcDbEntity
  8
FIXING
  6
Continuous
 62
     3
100
AcDbLine
 10
2.148300442670887
 20
4.519999829978723
 30
0.0
 11
2.148300442670887
 21
2.81669982997871
 31
0.0
  0
LINE
  5
1EA
330
18B
100
AcDbEntity
  8
FIXING
  6
Continuous
 62
     3
100
AcDbLine
 10
2.148300442670887
 20
2.81669982997871
 30
0.0
 11
2.148300442670887
 21
3.669699829978718
 31
0.0
  0
LINE
  5
1EB
330
18B
100
AcDbEntity
  8
FIXING
  6
Continuous
 62
     3
100
AcDbLine
 10
2.14840044267109
 20
5.258599829978742
 30
0.0
 11
4.49260044267109
 21
6.111799829978729
 31
0.0
  0
LINE
  5
1EC
330
18B
100
AcDbEntity
  8
FIXING
  6
Continuous
 62
     3
100
AcDbLine
 10
2.148100442670938
 20
2.816499829978731
 30
0.0
 11
4.492300442670938
 21
3.669799829978722
 31
0.0
  0
LINE
  5
1ED
330
18B
100
AcDbEntity
  8
FIXING
  6
Continuous
 62
     3
100
AcDbLine
 10
4.492300442670938
 20
3.669799829978722
 30
0.0
 11
2.148100442670938
 21
2.816499829978731
 31
0.0
  0
LINE
  5
1EE
330
18B
100
AcDbEntity
  8
FIXING
  6
Continuous
 62
     3
100
AcDbLine
 10
2.148100442670938
 20
2.816499829978731
 30
0.0
 11
4.492300442670938
 21
3.669799829978722
 31
0.0
  0
LINE
  5
1EF
330
18B
100
AcDbEntity
  8
FIXING
  6
Continuous
 62
     3
100
AcDbLine
 10
2.148600442671039
 20
6.96199982997873
 30
0.0
 11
2.148600442671039
 21
5.258699829978717
 31
0.0
  0
LINE
  5
1F0
330
18B
100
AcDbEntity
  8
FIXING
  6
Continuous
 62
     3
100
AcDbLine
 10
2.148600442671039
 20
5.258699829978717
 30
0.0
 11
2.148600442671039
 21
6.111699829978726
 31
0.0
  0
LINE
  5
1F1
330
18B
100
AcDbEntity
  8
FIXING
  6
Continuous
 62
     3
100
AcDbLine
 10
5.420600442670974
 20
8.179099829978746
 30
0.0
 11
4.492900442670788
 21
8.55359982997873
 31
0.0
  0
LINE
  5
1F2
330
18B
100
AcDbEntity
  8
FIXING
  6
Continuous
 62
     3
100
AcDbLine
 10
5.420800442670924
 20
10.62109982997872
 30
0.0
 11
4.493100442670737
 21
10.99559982997871
 31
0.0
  0
LINE
  5
1F3
330
18B
100
AcDbEntity
  8
FIXING
  6
Continuous
 62
     3
100
AcDbLine
 10
4.49280044267104
 20
8.553799829978708
 30
0.0
 11
4.49280044267104
 21
10.25699982997875
 31
0.0
  0
LINE
  5
1F4
330
18B
100
AcDbEntity
  8
FIXING
  6
Continuous
 62
     3
100
AcDbLine
 10
4.49280044267104
 20
10.25699982997875
 30
0.0
 11
4.49280044267104
 21
8.553799829978708
 31
0.0
  0
LINE
  5
1F5
330
18B
100
AcDbEntity
  8
FIXING
  6
Continuous
 62
     3
100
AcDbLine
 10
4.49280044267104
 20
8.553799829978708
 30
0.0
 11
4.49280044267104
 21
10.25699982997875
 31
0.0
  0
LINE
  5
1F6
330
18B
100
AcDbEntity
  8
FIXING
  6
Continuous
 62
     3
100
AcDbLine
 10
4.49280044267104
 20
10.25699982997875
 30
0.0
 11
5.420800442670924
 21
10.62109982997872
 31
0.0
  0
LINE
  5
1F7
330
18B
100
AcDbEntity
  8
FIXING
  6
Continuous
 62
     3
100
AcDbLine
 10
5.420800442670924
 20
10.62109982997872
 30
0.0
 11
4.493100442670737
 21
10.99559982997871
 31
0.0
  0
LINE
  5
1F8
330
18B
100
AcDbEntity
  8
FIXING
  6
Continuous
 62
     3
100
AcDbLine
 10
1.72540044267086
 20
13.87829982997871
 30
0.0
 11
0.9553004426711311
 21
14.32279982997871
 31
0.0
  0
LINE
  5
1F9
330
18B
100
AcDbEntity
  8
FIXING
  6
Continuous
 62
     3
100
AcDbLine
 10
0.9553004426711311
 20
14.32279982997871
 30
0.0
 11
5.686500442670848
 21
14.32269982997874
 31
0.0
  0
LINE
  5
1FA
330
18B
100
AcDbEntity
  8
FIXING
  6
Continuous
 62
     3
100
AcDbLine
 10
5.686500442670848
 20
14.32269982997874
 30
0.0
 11
6.641800442670927
 21
15.27809982997874
 31
0.0
  0
LINE
  5
1FB
330
18B
100
AcDbEntity
  8
FIXING
  6
Continuous
 62
     3
100
AcDbLine
 10
6.641800442670927
 20
15.27809982997874
 30
0.0
 11
0.0000004426710518
 21
15.27819982997871
 31
0.0
  0
LINE
  5
1FC
330
18B
100
AcDbEntity
  8
FIXING
  6
Continuous
 62
     3
100
AcDbLine
 10
0.9553004426711311
 20
16.03209982997873
 30
0.0
 11
5.686500442670848
 21
16.03199982997872
 31
0.0
  0
LINE
  5
1FD
330
18B
100
AcDbEntity
  8
FIXING
  6
Continuous
 62
     3
100
AcDbLine
 10
5.686500442670848
 20
16.03199982997872
 30
0.0
 11
6.641800442670927
 21
15.64599982997873
 31
0.0
  0
LINE
  5
1FE
330
18B
100
AcDbEntity
  8
FIXING
  6
Continuous
 62
     3
100
AcDbLine
 10
6.641800442670927
 20
15.64599982997873
 30
0.0
 11
0.0000004426710518
 21
15.64609982997873
 31
0.0
  0
LINE
  5
1FF
330
18B
100
AcDbEntity
  8
FIXING
  6
Continuous
 62
     3
100
AcDbLine
 10
5.686500442670848
 20
16.03199982997872
 30
0.0
 11
0.9553004426711311
 21
16.03209982997873
 31
0.0
  0
LINE
  5
200
330
18B
100
AcDbEntity
  8
FIXING
  6
Continuous
 62
     3
100
AcDbLine
 10
0.9553004426711311
 20
16.03209982997873
 30
0.0
 11
0.0000004426710518
 21
15.64609982997873
 31
0.0
  0
LINE
  5
201
330
18B
100
AcDbEntity
  8
FIXING
  6
Continuous
 62
     3
100
AcDbLine
 10
0.0000004426710518
 20
15.64609982997873
 30
0.0
 11
0.0000004426710518
 21
15.27819982997871
 31
0.0
  0
LINE
  5
202
330
18B
100
AcDbEntity
  8
FIXING
  6
Continuous
 62
     3
100
AcDbLine
 10
0.0000004426710518
 20
15.27819982997871
 30
0.0
 11
0.9553004426711311
 21
14.32279982997871
 31
0.0
  0
LINE
  5
203
330
18B
100
AcDbEntity
  8
FIXING
  6
Continuous
 62
     3
100
AcDbLine
 10
0.9553004426711311
 20
14.32279982997871
 30
0.0
 11
5.686500442670848
 21
14.32269982997874
 31
0.0
  0
LINE
  5
204
330
18B
100
AcDbEntity
  8
FIXING
  6
Continuous
 62
     3
100
AcDbLine
 10
5.686500442670848
 20
14.32269982997874
 30
0.0
 11
4.916600442671069
 21
13.87829982997871
 31
0.0
  0
LINE
  5
205
330
18B
100
AcDbEntity
  8
FIXING
  6
Continuous
 62
     3
100
AcDbLine
 10
2.148800442670989
 20
9.403999829978737
 30
0.0
 11
1.220800442671106
 21
9.767999829978713
 31
0.0
  0
LINE
  5
206
330
18B
100
AcDbEntity
  8
FIXING
  6
Continuous
 62
     3
100
AcDbLine
 10
1.220800442671106
 20
9.767999829978713
 30
0.0
 11
5.420900442671126
 21
10.62119982997873
 31
0.0
  0
LINE
  5
207
330
18B
100
AcDbEntity
  8
FIXING
  6
Continuous
 62
     3
100
AcDbLine
 10
5.420900442671126
 20
10.62119982997873
 30
0.0
 11
4.492900442670788
 21
10.25709982997872
 31
0.0
  0
LINE
  5
208
330
18B
100
AcDbEntity
  8
FIXING
  6
Continuous
 62
     3
100
AcDbLine
 10
4.492900442670788
 20
10.25709982997872
 30
0.0
 11
2.148800442670989
 21
9.403999829978737
 31
0.0
  0
ARC
  5
209
330
18B
100
AcDbEntity
  8
FIXING
  6
Continuous
 62
     3
100
AcDbCircle
 10
5.11190044267093
 20
13.53989982997873
 30
0.0
 40
0.3907
100
AcDbArc
 50
120.0004000000002
 51
180.0
  0
ARC
  5
20A
330
18B
100
AcDbEntity
  8
FIXING
  6
Continuous
 62
     3
100
AcDbCircle
 10
5.11190044267093
 20
13.53989982997873
 30
0.0
 40
0.3907
100
AcDbArc
 50
120.0004000000002
 51
180.0
  0
ARC
  5
20B
330
18B
100
AcDbEntity
  8
FIXING
  6
Continuous
 62
     3
100
AcDbCircle
 10
1.530000442670797
 20
13.53989982997873
 30
0.0
 40
0.3907
100
AcDbArc
 50
0.0
 51
59.99950000000186
  0
ARC
  5
20C
330
18B
100
AcDbEntity
  8
FIXING
  6
Continuous
 62
     3
100
AcDbCircle
 10
1.530000442670797
 20
13.53989982997873
 30
0.0
 40
0.3907
100
AcDbArc
 50
0.0
 51
59.99950000000186
  0
LINE
  5
20D
330
18B
100
AcDbEntity
  8
FIXING
  6
Continuous
 62
     3
100
AcDbLine
 10
3.446400442670864
 20
8.291399829978722
 30
0.0
 11
3.446400442670864
 21
8.291399829978722
 31
0.0
  0
LINE
  5
20E
330
18B
100
AcDbEntity
  8
FIXING
  6
Continuous
 62
     3
100
AcDbLine
 10
4.49260044267109
 20
7.815099829978713
 30
0.0
 11
4.492700442670838
 21
7.815099829978713
 31
0.0
  0
LINE
  5
20F
330
18B
100
AcDbEntity
  8
FIXING
  6
Continuous
 62
     3
100
AcDbLine
 10
4.492700442670838
 20
7.815099829978713
 30
0.0
 11
4.49280044267104
 21
7.815199829978745
 31
0.0
  0
LINE
  5
210
330
18B
100
AcDbEntity
  8
FIXING
  6
Continuous
 62
     3
100
AcDbLine
 10
4.492900442670788
 20
10.25709982997872
 30
0.0
 11
4.49300044267099
 21
10.25719982997872
 31
0.0
  0
LINE
  5
211
330
18B
100
AcDbEntity
  8
FIXING
  6
Continuous
 62
     3
100
AcDbLine
 10
4.49280044267104
 20
10.25709982997872
 30
0.0
 11
4.492900442670788
 21
10.25709982997872
 31
0.0
  0
LINE
  5
212
330
18B
100
AcDbEntity
  8
FIXING
  6
Continuous
 62
     3
100
AcDbLine
 10
3.446600442670814
 20
10.73339982997873
 30
0.0
 11
3.446600442670814
 21
10.73339982997873
 31
0.0
  0
LINE
  5
213
330
18B
100
AcDbEntity
  8
FIXING
  6
Continuous
 62
     3
100
AcDbLine
 10
1.220800442671106
 20
9.767999829978713
 30
0.0
 11
2.149000442670939
 21
10.14269982997873
 31
0.0
  0
LINE
  5
214
330
18B
100
AcDbEntity
  8
FIXING
  6
Continuous
 62
     3
100
AcDbLine
 10
2.148900442670737
 20
10.99559982997871
 30
0.0
 11
2.148900442670737
 21
10.14259982997873
 31
0.0
  0
LINE
  5
215
330
18B
100
AcDbEntity
  8
FIXING
  6
Continuous
 62
     3
100
AcDbLine
 10
2.148900442670737
 20
10.14259982997873
 30
0.0
 11
1.220700442670903
 21
9.767899829978738
 31
0.0
  0
LINE
  5
216
330
18B
100
AcDbEntity
  8
FIXING
  6
Continuous
 62
     3
100
AcDbLine
 10
4.721200442671005
 20
13.53989982997873
 30
0.0
 11
4.721200442671005
 21
13.27709982997873
 31
0.0
  0
LINE
  5
217
330
18B
100
AcDbEntity
  8
FIXING
  6
Continuous
 62
     3
100
AcDbLine
 10
4.721200442671005
 20
13.27709982997873
 30
0.0
 11
4.068600442671112
 21
13.27709982997873
 31
0.0
  0
LINE
  5
218
330
18B
100
AcDbEntity
  8
FIXING
  6
Continuous
 62
     3
100
AcDbLine
 10
4.068600442671112
 20
13.27709982997873
 30
0.0
 11
1.996200442671096
 21
12.52279982997873
 31
0.0
  0
LINE
  5
219
330
18B
100
AcDbEntity
  8
FIXING
  6
Continuous
 62
     3
100
AcDbLine
 10
1.920800442670924
 20
13.53989982997873
 30
0.0
 11
1.920800442670924
 21
13.27709982997873
 31
0.0
  0
LINE
  5
21A
330
18B
100
AcDbEntity
  8
FIXING
  6
Continuous
 62
     3
100
AcDbLine
 10
1.920800442670924
 20
13.27709982997873
 30
0.0
 11
1.996200442671096
 21
12.52279982997873
 31
0.0
  0
LINE
  5
21B
330
18B
100
AcDbEntity
  8
FIXING
  6
Continuous
 62
     3
100
AcDbLine
 10
1.996200442671096
 20
12.52279982997873
 30
0.0
 11
1.46280044267084
 21
12.30749982997875
 31
0.0
  0
LINE
  5
21C
330
18B
100
AcDbEntity
  8
FIXING
  6
Continuous
 62
     3
100
AcDbLine
 10
1.46280044267084
 20
12.30749982997875
 30
0.0
 11
1.46280044267084
 21
12.11479982997874
 31
0.0
  0
LINE
  5
21D
330
18B
100
AcDbEntity
  8
FIXING
  6
Continuous
 62
     3
100
AcDbLine
 10
1.46280044267084
 20
12.11479982997874
 30
0.0
 11
4.883400442670762
 21
12.90779982997872
 31
0.0
  0
LINE
  5
21E
330
18B
100
AcDbEntity
  8
FIXING
  6
Continuous
 62
     3
100
AcDbLine
 10
4.883400442670762
 20
12.90779982997872
 30
0.0
 11
4.883400442670762
 21
13.21809982997873
 31
0.0
  0
LINE
  5
21F
330
18B
100
AcDbEntity
  8
FIXING
  6
Continuous
 62
     3
100
AcDbLine
 10
4.883400442670762
 20
13.21809982997873
 30
0.0
 11
4.721200442671005
 21
13.27709982997873
 31
0.0
  0
LINE
  5
220
330
18B
100
AcDbEntity
  8
FIXING
  6
Continuous
 62
     3
100
AcDbLine
 10
4.493100442670737
 20
10.99559982997871
 30
0.0
 11
2.148900442670737
 21
10.99559982997871
 31
0.0
  0
LINE
  5
221
330
18B
100
AcDbEntity
  8
FIXING
  6
Continuous
 62
     3
100
AcDbLine
 10
2.148900442670737
 20
10.99559982997871
 30
0.0
 11
2.060400442670897
 21
11.88039982997872
 31
0.0
  0
LINE
  5
222
330
18B
100
AcDbEntity
  8
FIXING
  6
Continuous
 62
     3
100
AcDbLine
 10
2.060400442670897
 20
11.88039982997872
 30
0.0
 11
1.46280044267084
 21
12.11479982997874
 31
0.0
  0
LINE
  5
223
330
18B
100
AcDbEntity
  8
FIXING
  6
Continuous
 62
     3
100
AcDbLine
 10
1.46280044267084
 20
12.11479982997874
 30
0.0
 11
1.46280044267084
 21
12.30749982997875
 31
0.0
  0
LINE
  5
224
330
18B
100
AcDbEntity
  8
FIXING
  6
Continuous
 62
     3
100
AcDbLine
 10
1.46280044267084
 20
12.30749982997875
 30
0.0
 11
4.883400442670762
 21
13.21809982997873
 31
0.0
  0
LINE
  5
225
330
18B
100
AcDbEntity
  8
FIXING
  6
Continuous
 62
     3
100
AcDbLine
 10
4.883400442670762
 20
13.21809982997873
 30
0.0
 11
4.883400442670762
 21
12.90779982997872
 31
0.0
  0
LINE
  5
226
330
18B
100
AcDbEntity
  8
FIXING
  6
Continuous
 62
     3
100
AcDbLine
 10
4.883400442670762
 20
12.90779982997872
 30
0.0
 11
2.060400442670897
 21
11.88039982997872
 31
0.0
  0
LINE
  5
227
330
18B
100
AcDbEntity
  8
FIXING
  6
Continuous
 62
     3
100
AcDbLine
 10
2.060200442670947
 20
13.27709982997873
 30
0.0
 11
3.779200442670998
 21
13.27709982997873
 31
0.0
  0
LINE
  5
228
330
18B
100
AcDbEntity
  8
FIXING
  6
Continuous
 62
     3
100
AcDbLine
 10
2.148900442670737
 20
10.14239982997872
 30
0.0
 11
4.493100442670737
 21
10.99559982997871
 31
0.0
  0
LINE
  5
229
330
18B
100
AcDbEntity
  8
FIXING
  6
Continuous
 62
     3
100
AcDbLine
 10
4.493100442670737
 20
10.99559982997871
 30
0.0
 11
4.676800442670782
 21
12.83269982997873
 31
0.0
  0
LINE
  5
22A
330
18B
100
AcDbEntity
  8
FIXING
  6
Continuous
 62
     3
100
AcDbLine
 10
1.920800442670924
 20
13.76549982997872
 30
0.0
 11
4.721200442671005
 21
13.76549982997872
 31
0.0
  0
LINE
  5
22B
330
18B
100
AcDbEntity
  8
FIXING
  6
Continuous
 62
     3
100
AcDbLine
 10
6.641800442670927
 20
15.64599982997873
 30
0.0
 11
6.641800442670927
 21
15.27809982997874
 31
0.0
  0
ENDBLK
  5
18D
330
18B
100
AcDbEntity
  8
0
100
AcDbBlockEnd
  0
BLOCK
  5
22D
330
22C
100
AcDbEntity
  8
0
100
AcDbBlockBegin
  2
GEN_BLOCK00004
 70
     0
 10
0.0
 20
0.0
 30
0.0
  3
GEN_BLOCK00004
  1
GEN_BLOCK00004
  0
LINE
  5
230
330
22C
100
AcDbEntity
  8
1
  6
Continuous
 62
     1
100
AcDbLine
 10
35.99939346313477
 20
26.27035140991211
 30
0.0
 11
71.99878692626953
 21
26.27035140991211
 31
0.0
  0
LINE
  5
231
330
22C
100
AcDbEntity
  8
1
  6
Continuous
 62
     1
100
AcDbLine
 10
35.99939346313477
 20
26.27035140991211
 30
0.0
 11
0.0
 21
26.27035140991211
 31
0.0
  0
LINE
  5
232
330
22C
100
AcDbEntity
  8
1
  6
Continuous
 62
     1
100
AcDbLine
 10
69.99878692626953
 20
26.89535140991211
 30
0.0
 11
71.99878692626953
 21
26.27035140991211
 31
0.0
  0
LINE
  5
233
330
22C
100
AcDbEntity
  8
1
  6
Continuous
 62
     1
100
AcDbLine
 10
71.99878692626953
 20
26.27035140991211
 30
0.0
 11
69.99878692626953
 21
25.64535140991211
 31
0.0
  0
LINE
  5
234
330
22C
100
AcDbEntity
  8
1
  6
Continuous
 62
     1
100
AcDbLine
 10
2.0
 20
25.64535140991211
 30
0.0
 11
0.0
 21
26.27035140991211
 31
0.0
  0
LINE
  5
235
330
22C
100
AcDbEntity
  8
1
  6
Continuous
 62
     1
100
AcDbLine
 10
0.0
 20
26.27035140991211
 30
0.0
 11
2.0
 21
26.89535140991211
 31
0.0
  0
LINE
  5
236
330
22C
100
AcDbEntity
  8
1
  6
Continuous
 62
     1
100
AcDbLine
 10
71.99878692626953
 20
0.0
 30
0.0
 11
71.99878692626953
 21
28.87035140991211
 31
0.0
  0
LINE
  5
237
330
22C
100
AcDbEntity
  8
1
  6
Continuous
 62
     1
100
AcDbLine
 10
0.0
 20
3.549221038818359
 30
0.0
 11
0.0
 21
28.87035140991211
 31
0.0
  0
TEXT
  5
238
330
22C
100
AcDbEntity
  8
1
  6
Continuous
 62
     3
100
AcDbText
 10
31.79939346313476
 20
26.77035140991211
 30
0.0
 40
2.5
  1
72.0
100
AcDbText
  0
ENDBLK
  5
22E
330
22C
100
AcDbEntity
  8
0
100
AcDbBlockEnd
  0
BLOCK
  5
23A
330
239
100
AcDbEntity
  8
0
100
AcDbBlockBegin
  2
GEN_BLOCK00005
 70
     0
 10
0.0
 20
0.0
 30
0.0
  3
GEN_BLOCK00005
  1
GEN_BLOCK00005
  0
LINE
  5
23D
330
239
100
AcDbEntity
  8
1
  6
HIDDEN
 62
     1
100
AcDbLine
 10
13.52191925048828
 20
46.10700225830078
 30
0.0
 11
27.25942039489746
 21
46.10700225830078
 31
0.0
  0
LINE
  5
23E
330
239
100
AcDbEntity
  8
1
  6
HIDDEN
 62
     1
100
AcDbLine
 10
27.25942039489746
 20
46.10700225830078
 30
0.0
 11
27.25942039489746
 21
55.79450225830078
 31
0.0
  0
LINE
  5
23F
330
239
100
AcDbEntity
  8
1
  6
HIDDEN
 62
     1
100
AcDbLine
 10
27.25942039489746
 20
55.79450225830078
 30
0.0
 11
13.52191925048828
 21
55.79450225830078
 31
0.0
  0
LINE
  5
240
330
239
100
AcDbEntity
  8
1
  6
HIDDEN
 62
     1
100
AcDbLine
 10
13.52191925048828
 20
55.79450225830078
 30
0.0
 11
13.52191925048828
 21
46.10700225830078
 31
0.0
  0
TEXT
  5
241
330
239
100
AcDbEntity
  8
1
  6
Continuous
 62
     4
100
AcDbText
 10
14.89566898345947
 20
52.20075225830078
 30
0.0
 40
2.5
  1
44mm
100
AcDbText
  0
TEXT
  5
242
330
239
100
AcDbEntity
  8
1
  6
Continuous
 62
     4
100
AcDbText
 10
14.89566898345947
 20
47.20075225830078
 30
0.0
 40
2.5
  1
DOOR
100
AcDbText
  0
LINE
  5
243
330
239
100
AcDbEntity
  8
1
  6
HIDDEN
 62
     1
100
AcDbLine
 10
0.0000000270453739
 20
78.94267011750263
 30
0.0
 11
17.18078761978659
 21
74.51792620807761
 31
0.0
  0
LINE
  5
244
330
239
100
AcDbEntity
  8
1
  6
HIDDEN
 62
     1
100
AcDbLine
 10
17.18078761978659
 20
74.51792620807761
 30
0.0
 11
17.18078761978659
 21
70.95145115534446
 31
0.0
  0
LINE
  5
245
330
239
100
AcDbEntity
  8
1
  6
HIDDEN
 62
     1
100
AcDbLine
 10
17.18078761978659
 20
70.95145115534446
 30
0.0
 11
44.00000002704537
 21
74.51792620807761
 31
0.0
  0
LINE
  5
246
330
239
100
AcDbEntity
  8
1
  6
HIDDEN
 62
     1
100
AcDbLine
 10
0.0000000270453739
 20
78.94267011750263
 30
0.0
 11
0.0000000270453739
 21
-0.0000002133794652
 31
0.0
  0
LINE
  5
247
330
239
100
AcDbEntity
  8
1
  6
HIDDEN
 62
     1
100
AcDbLine
 10
0.0000000270453739
 20
-0.0000002133794652
 30
0.0
 11
44.00000002704537
 21
-0.0000002133794723
 31
0.0
  0
LINE
  5
248
330
239
100
AcDbEntity
  8
1
  6
HIDDEN
 62
     1
100
AcDbLine
 10
44.00000002704537
 20
-0.0000002133794723
 30
0.0
 11
44.00000002704537
 21
74.51792620807761
 31
0.0
  0
ENDBLK
  5
23B
330
239
100
AcDbEntity
  8
0
100
AcDbBlockEnd
  0
BLOCK
  5
24A
330
249
100
AcDbEntity
  8
0
100
AcDbBlockBegin
  2
GEN_BLOCK00006
 70
     0
 10
0.0
 20
0.0
 30
0.0
  3
GEN_BLOCK00006
  1
GEN_BLOCK00006
  0
LINE
  5
24D
330
249
100
AcDbEntity
  8
1
  6
Continuous
 62
     1
100
AcDbLine
 10
2.650000193681542
 20
1.000000089078775
 30
0.0
 11
2.444296488004176
 21
1.205703794756142
 31
0.0
  0
LINE
  5
24E
330
249
100
AcDbEntity
  8
1
  6
Continuous
 62
     1
100
AcDbLine
 10
2.367157598375164
 20
1.282842684385153
 30
0.0
 11
2.161453892697798
 21
1.48854639006252
 31
0.0
  0
LINE
  5
24F
330
249
100
AcDbEntity
  8
1
  6
Continuous
 62
     1
100
AcDbLine
 10
2.084315003068786
 20
1.565685279691532
 30
0.0
 11
1.87861129739142
 21
1.771388985368899
 31
0.0
  0
LINE
  5
250
330
249
100
AcDbEntity
  8
1
  6
Continuous
 62
     1
100
AcDbLine
 10
2.650000269656914
 20
1.000000013103403
 30
0.0
 11
2.650000269656914
 21
1.000000013103403
 31
0.0
  0
LINE
  5
251
330
249
100
AcDbEntity
  8
1
  6
Continuous
 62
     1
100
AcDbLine
 10
2.084315003068785
 20
1.000000089078776
 30
0.0
 11
1.878611297391419
 21
1.205703794756143
 31
0.0
  0
LINE
  5
252
330
249
100
AcDbEntity
  8
1
  6
Continuous
 62
     1
100
AcDbLine
 10
2.850000158729032
 20
1.365685314644042
 30
0.0
 11
2.727139083310553
 21
1.48854639006252
 31
0.0
  0
LINE
  5
253
330
249
100
AcDbEntity
  8
1
  6
Continuous
 62
     1
100
AcDbLine
 10
2.650000193681541
 20
1.565685279691532
 30
0.0
 11
2.465113634079652
 21
1.750571839293421
 31
0.0
  0
LINE
  5
254
330
249
100
AcDbEntity
  8
1
  6
Continuous
 62
     1
100
AcDbLine
 10
2.850000158729032
 20
1.931370505256796
 30
0.0
 11
2.727139083310552
 21
2.054231580675275
 31
0.0
  0
LINE
  5
255
330
249
100
AcDbEntity
  8
1
  6
Continuous
 62
     1
100
AcDbLine
 10
2.65000019368154
 20
2.131370470304287
 30
0.0
 11
2.650000170649961
 21
2.131370493335865
 31
0.0
  0
LINE
  5
256
330
249
100
AcDbEntity
  8
1
  6
Continuous
 62
     1
100
AcDbLine
 10
2.850000158729034
 20
2.497055695869554
 30
0.0
 11
2.727139083310553
 21
2.619916771288034
 31
0.0
  0
LINE
  5
257
330
249
100
AcDbEntity
  8
1
  6
Continuous
 62
     1
100
AcDbLine
 10
2.650000193681541
 20
2.697055660917046
 30
0.0
 11
2.650000170649961
 21
2.697055683948626
 31
0.0
  0
LINE
  5
258
330
249
100
AcDbEntity
  8
1
  6
Continuous
 62
     1
100
AcDbLine
 10
3.162741032107936
 20
2.750000013103405
 30
0.0
 11
3.00998167861693
 21
2.902759366594411
 31
0.0
  0
LINE
  5
259
330
249
100
AcDbEntity
  8
1
  6
Continuous
 62
     1
100
AcDbLine
 10
2.932842788987919
 20
2.979898256223423
 30
0.0
 11
2.912741047009098
 21
2.999999998202245
 31
0.0
  0
LINE
  5
25A
330
249
100
AcDbEntity
  8
1
  6
Continuous
 62
     1
100
AcDbLine
 10
3.57671174951948
 20
2.901714486304616
 30
0.0
 11
3.575666869229687
 21
2.90275936659441
 31
0.0
  0
LINE
  5
25B
330
249
100
AcDbEntity
  8
1
  6
Continuous
 62
     1
100
AcDbLine
 10
2.850000158729029
 20
1.20000005412626
 30
0.0
 11
2.850000158729032
 21
1.200000054126264
 31
0.0
  0
LINE
  5
25C
330
249
100
AcDbEntity
  8
1
  6
Continuous
 62
     1
100
AcDbLine
 10
2.650000117706172
 20
1.000000013103403
 30
0.0
 11
2.65000011770617
 21
1.000000013103401
 31
0.0
  0
LINE
  5
25D
330
249
100
AcDbEntity
  8
1
  6
Continuous
 62
     1
100
AcDbLine
 10
2.367157598375163
 20
1.282842684385152
 30
0.0
 11
2.161453892697797
 21
1.077138978707787
 31
0.0
  0
LINE
  5
25E
330
249
100
AcDbEntity
  8
1
  6
Continuous
 62
     1
100
AcDbLine
 10
2.084315003068785
 20
1.000000089078775
 30
0.0
 11
2.084314927093414
 21
1.000000013103403
 31
0.0
  0
LINE
  5
25F
330
249
100
AcDbEntity
  8
1
  6
Continuous
 62
     1
100
AcDbLine
 10
2.444296488004175
 20
1.359981574014164
 30
0.0
 11
2.650000193681541
 21
1.565685279691529
 31
0.0
  0
LINE
  5
260
330
249
100
AcDbEntity
  8
1
  6
Continuous
 62
     1
100
AcDbLine
 10
2.727139083310553
 20
1.642824169320541
 30
0.0
 11
2.85000015872903
 21
1.765685244739018
 31
0.0
  0
LINE
  5
261
330
249
100
AcDbEntity
  8
1
  6
Continuous
 62
     1
100
AcDbLine
 10
3.292824273923308
 20
2.774194550546049
 30
0.0
 11
3.496313886008252
 21
2.977684162630993
 31
0.0
  0
LINE
  5
262
330
249
100
AcDbEntity
  8
1
  6
Continuous
 62
     1
100
AcDbLine
 10
2.65000017064996
 20
2.131370447272703
 30
0.0
 11
2.65000019368154
 21
2.131370470304283
 31
0.0
  0
LINE
  5
263
330
249
100
AcDbEntity
  8
1
  6
Continuous
 62
     1
100
AcDbLine
 10
2.727139083310552
 20
2.208509359933295
 30
0.0
 11
2.85000015872903
 21
2.331370435351772
 31
0.0
  0
LINE
  5
264
330
249
100
AcDbEntity
  8
1
  6
Continuous
 62
     1
100
AcDbLine
 10
2.084315003068784
 20
1.565685279691529
 30
0.0
 11
1.878611297391418
 21
1.359981574014164
 31
0.0
  0
LINE
  5
265
330
249
100
AcDbEntity
  8
1
  6
Continuous
 62
     1
100
AcDbLine
 10
2.161453892697796
 20
1.642824169320541
 30
0.0
 11
2.274381033848869
 21
1.755751310471615
 31
0.0
  0
LINE
  5
266
330
249
100
AcDbEntity
  8
1
  6
Continuous
 62
     1
100
AcDbLine
 10
2.650000170649959
 20
2.697055637885457
 30
0.0
 11
2.650000193681541
 21
2.697055660917039
 31
0.0
  0
LINE
  5
267
330
249
100
AcDbEntity
  8
1
  6
Continuous
 62
     1
100
AcDbLine
 10
2.727139083310553
 20
2.774194550546051
 30
0.0
 11
2.932842788987919
 21
2.979898256223416
 31
0.0
  0
LINE
  5
268
330
249
100
AcDbEntity
  8
1
  6
Continuous
 62
     1
100
AcDbLine
 10
2.952944530966739
 20
2.999999998202236
 30
0.0
 11
2.952944530966739
 21
2.999999998202236
 31
0.0
  0
LINE
  5
269
330
249
100
AcDbEntity
  8
1
  6
Continuous
 62
     1
100
AcDbLine
 10
1.878611297391418
 20
1.92566676462692
 30
0.0
 11
1.930649175829557
 21
1.977704643065058
 31
0.0
  0
LINE
  5
26A
330
249
100
AcDbEntity
  8
1
  6
Continuous
 62
     1
100
AcDbLine
 10
3.400000195151105
 20
5.250000013103403
 30
0.0
 11
3.547055777440738
 21
5.102944430813771
 31
0.0
  0
LINE
  5
26B
330
249
100
AcDbEntity
  8
1
  6
Continuous
 62
     1
100
AcDbLine
 10
3.563349822369606
 20
5.086650385884903
 30
0.0
 11
3.563349822369606
 21
5.086650385884903
 31
0.0
  0
LINE
  5
26C
330
249
100
AcDbEntity
  8
1
  6
Continuous
 62
     1
100
AcDbLine
 10
2.400000161623494
 20
6.250000046631015
 30
0.0
 11
2.415685396215226
 21
6.234314812039284
 31
0.0
  0
LINE
  5
26D
330
249
100
AcDbEntity
  8
1
  6
Continuous
 62
     1
100
AcDbLine
 10
2.492824285844238
 20
6.157175922410272
 30
0.0
 11
2.698527991521604
 21
5.951472216732906
 31
0.0
  0
LINE
  5
26E
330
249
100
AcDbEntity
  8
1
  6
Continuous
 62
     1
100
AcDbLine
 10
2.775666881150616
 20
5.874333327103894
 30
0.0
 11
2.85000015872903
 21
5.80000004952548
 31
0.0
  0
LINE
  5
26F
330
249
100
AcDbEntity
  8
1
  6
Continuous
 62
     1
100
AcDbLine
 10
1.850000158729038
 20
6.800000049525473
 30
0.0
 11
1.85000015872903
 21
6.80000004952548
 31
0.0
  0
LINE
  5
270
330
249
100
AcDbEntity
  8
1
  6
Continuous
 62
     1
100
AcDbLine
 10
2.650000170649959
 20
5.434314846991795
 30
0.0
 11
2.698527991521605
 21
5.38578702612015
 31
0.0
  0
LINE
  5
271
330
249
100
AcDbEntity
  8
1
  6
Continuous
 62
     1
100
AcDbLine
 10
2.775666881150617
 20
5.308648136491138
 30
0.0
 11
2.981370586827983
 21
5.102944430813771
 31
0.0
  0
LINE
  5
272
330
249
100
AcDbEntity
  8
1
  6
Continuous
 62
     1
100
AcDbLine
 10
3.058509476456995
 20
5.025805541184759
 30
0.0
 11
3.084314989637191
 21
5.000000028004564
 31
0.0
  0
LINE
  5
273
330
249
100
AcDbEntity
  8
1
  6
Continuous
 62
     1
100
AcDbLine
 10
1.850000158729031
 20
6.234314858912724
 30
0.0
 11
1.850000205602471
 21
6.234314812039285
 31
0.0
  0
LINE
  5
274
330
249
100
AcDbEntity
  8
1
  6
Continuous
 62
     1
100
AcDbLine
 10
1.927139095231483
 20
6.157175922410273
 30
0.0
 11
1.988691170173317
 21
6.095623847468439
 31
0.0
  0
LINE
  5
275
330
249
100
AcDbEntity
  8
1
  6
Continuous
 62
     1
100
AcDbLine
 10
2.215685385763864
 20
7.000000013103402
 30
0.0
 11
2.415685396215226
 21
6.80000000265204
 31
0.0
  0
LINE
  5
276
330
249
100
AcDbEntity
  8
1
  6
Continuous
 62
     1
100
AcDbLine
 10
2.492824285844238
 20
6.722861113023028
 30
0.0
 11
2.698527991521604
 21
6.517157407345662
 31
0.0
  0
LINE
  5
277
330
249
100
AcDbEntity
  8
1
  6
Continuous
 62
     1
100
AcDbLine
 10
2.775666881150616
 20
6.44001851771665
 30
0.0
 11
2.85000015872903
 21
6.365685240138236
 31
0.0
  0
LINE
  5
278
330
249
100
AcDbEntity
  8
1
  6
Continuous
 62
     1
100
AcDbLine
 10
2.05000021605382
 20
7.000000013103392
 30
0.0
 11
2.05000021605383
 21
7.000000013103402
 31
0.0
  0
LINE
  5
279
330
249
100
AcDbEntity
  8
1
  6
Continuous
 62
     1
100
AcDbLine
 10
1.850000158729042
 20
6.799999955778614
 30
0.0
 11
1.85000015872903
 21
6.799999955778602
 31
0.0
  0
LINE
  5
27A
330
249
100
AcDbEntity
  8
1
  6
Continuous
 62
     1
100
AcDbLine
 10
2.132842800908848
 20
6.517157407345662
 30
0.0
 11
1.927139095231482
 21
6.311453701668296
 31
0.0
  0
LINE
  5
27B
330
249
100
AcDbEntity
  8
1
  6
Continuous
 62
     1
100
AcDbLine
 10
1.85000020560247
 20
6.234314812039284
 30
0.0
 11
1.85000015872903
 21
6.234314765165845
 31
0.0
  0
LINE
  5
27C
330
249
100
AcDbEntity
  8
1
  6
Continuous
 62
     1
100
AcDbLine
 10
2.20998169053786
 20
6.594296296974674
 30
0.0
 11
2.415685396215226
 21
6.80000000265204
 31
0.0
  0
LINE
  5
27D
330
249
100
AcDbEntity
  8
1
  6
Continuous
 62
     1
100
AcDbLine
 10
2.492824285844238
 20
6.877138892281052
 30
0.0
 11
2.615685406666587
 21
7.000000013103401
 31
0.0
  0
LINE
  5
27E
330
249
100
AcDbEntity
  8
1
  6
Continuous
 62
     1
100
AcDbLine
 10
2.492824285844238
 20
6.311453701668296
 30
0.0
 11
2.698527991521604
 21
6.517157407345662
 31
0.0
  0
LINE
  5
27F
330
249
100
AcDbEntity
  8
1
  6
Continuous
 62
     1
100
AcDbLine
 10
2.775666881150616
 20
6.594296296974674
 30
0.0
 11
2.850000158729033
 21
6.668629574553091
 31
0.0
  0
LINE
  5
280
330
249
100
AcDbEntity
  8
1
  6
Continuous
 62
     1
100
AcDbLine
 10
2.698527991521604
 20
5.951472216732906
 30
0.0
 11
2.650000170649959
 21
5.90294439586126
 31
0.0
  0
LINE
  5
281
330
249
100
AcDbEntity
  8
1
  6
Continuous
 62
     1
100
AcDbLine
 10
2.775666881150616
 20
6.028611106361918
 30
0.0
 11
2.850000158729032
 21
6.102944383940335
 31
0.0
  0
LINE
  5
282
330
249
100
AcDbEntity
  8
1
  6
Continuous
 62
     1
100
AcDbLine
 10
2.850000158729031
 20
5.537259193327577
 30
0.0
 11
2.775666881150616
 21
5.462925915749162
 31
0.0
  0
LINE
  5
283
330
249
100
AcDbEntity
  8
1
  6
Continuous
 62
     1
100
AcDbLine
 10
2.698527991521604
 20
5.38578702612015
 30
0.0
 11
2.65000017064996
 21
5.337259205248506
 31
0.0
  0
LINE
  5
284
330
249
100
AcDbEntity
  8
1
  6
Continuous
 62
     1
100
AcDbLine
 10
3.128426169117616
 20
5.250000013103405
 30
0.0
 11
3.058509476456995
 21
5.180083320442783
 31
0.0
  0
LINE
  5
285
330
249
100
AcDbEntity
  8
1
  6
Continuous
 62
     1
100
AcDbLine
 10
2.981370586827983
 20
5.102944430813771
 30
0.0
 11
2.878426184018776
 21
5.000000028004566
 31
0.0
  0
LINE
  5
286
330
249
100
AcDbEntity
  8
1
  6
Continuous
 62
     1
100
AcDbLine
 10
3.54705577744074
 20
5.102944430813771
 30
0.0
 11
3.451144939431023
 21
5.007033592804055
 31
0.0
  0
LINE
  5
287
330
249
100
AcDbEntity
  8
1
  6
Continuous
 62
     1
100
AcDbLine
 10
3.592203040960272
 20
5.148091694333303
 30
0.0
 11
3.592203040960272
 21
5.148091694333303
 31
0.0
  0
LINE
  5
288
330
249
100
AcDbEntity
  8
1
  6
Continuous
 62
     1
100
AcDbLine
 10
1.85000015872903
 20
2.750000091248724
 30
0.0
 11
2.650000170649959
 21
1.950000079327795
 31
0.0
  0
LINE
  5
289
330
249
100
AcDbEntity
  8
1
  6
Continuous
 62
     1
100
AcDbLine
 10
1.85000015872903
 20
3.88137095800594
 30
0.0
 11
2.755243066356466
 21
2.976128050378502
 31
0.0
  0
LINE
  5
28A
330
249
100
AcDbEntity
  8
1
  6
Continuous
 62
     1
100
AcDbLine
 10
1.85000015872903
 20
5.012741824763156
 30
0.0
 11
3.396863236769299
 21
3.465878746722886
 31
0.0
  0
LINE
  5
28B
330
249
100
AcDbEntity
  8
1
  6
Continuous
 62
     1
100
AcDbLine
 10
1.947489655626351
 20
6.04662319462305
 30
0.0
 11
2.650000170649962
 21
5.344112679599437
 31
0.0
  0
LINE
  5
28C
330
249
100
AcDbEntity
  8
1
  6
Continuous
 62
     1
100
AcDbLine
 10
2.994112822244836
 20
5.000000028004564
 30
0.0
 11
3.401688517119206
 21
4.592424333130193
 31
0.0
  0
LINE
  5
28D
330
249
100
AcDbEntity
  8
1
  6
Continuous
 62
     3
100
AcDbLine
 10
4.570000199260193
 20
8.000000072708048
 30
0.0
 11
15.74157506404489
 21
14.82011257544085
 31
0.0
  0
ARC
  5
28E
330
249
100
AcDbEntity
  8
1
  6
Continuous
 62
     3
100
AcDbCircle
 10
15.95000015872904
 20
14.47870522357814
 30
0.0
 40
0.3999999999999978
100
AcDbArc
 50
301.4035648056335
 51
121.4035648056335
  0
ARC
  5
28F
330
249
100
AcDbEntity
  8
1
  6
Continuous
 62
     3
100
AcDbCircle
 10
15.95000015872904
 20
14.47870522357814
 30
0.0
 40
0.3999999999999978
100
AcDbArc
 50
301.4035648056335
 51
121.4035648056335
  0
LINE
  5
290
330
249
100
AcDbEntity
  8
1
  6
Continuous
 62
     3
100
AcDbLine
 10
16.15842525341318
 20
14.13729787171543
 30
0.0
 11
10.34583330808617
 21
10.58878018469078
 31
0.0
  0
ARC
  5
291
330
249
100
AcDbEntity
  8
1
  6
Continuous
 62
     3
100
AcDbCircle
 10
9.100000158729031
 20
8.715174099099976
 30
0.0
 40
2.25
100
AcDbArc
 50
341.2610915308524
 51
56.37853017329314
  0
ARC
  5
292
330
249
100
AcDbEntity
  8
1
  6
Continuous
 62
     3
100
AcDbCircle
 10
9.100000158729031
 20
8.715174099099976
 30
0.0
 40
2.25
100
AcDbArc
 50
341.2610915308524
 51
56.37853017329314
  0
ARC
  5
293
330
249
100
AcDbEntity
  8
1
  6
Continuous
 62
     3
100
AcDbCircle
 10
-7.709113826628247
 20
14.41747074407262
 30
0.0
 40
20.0
100
AcDbArc
 50
317.7260252640424
 51
341.2610915308523
  0
ARC
  5
294
330
249
100
AcDbEntity
  8
1
  6
Continuous
 62
     3
100
AcDbCircle
 10
-7.709113826628247
 20
14.41747074407262
 30
0.0
 40
20.0
100
AcDbArc
 50
317.7260252640424
 51
341.2610915308523
  0
LINE
  5
295
330
249
100
AcDbEntity
  8
1
  6
Continuous
 62
     3
100
AcDbLine
 10
5.166312754708429
 20
7.426744991639779
 30
0.0
 11
9.539973098420731
 21
10.09681218931718
 31
0.0
  0
ARC
  5
296
330
249
100
AcDbEntity
  8
1
  6
Continuous
 62
     3
100
AcDbCircle
 10
9.100000158729031
 20
8.715174099099976
 30
0.0
 40
1.45
100
AcDbArc
 50
341.2610915308522
 51
72.33628937978912
  0
ARC
  5
297
330
249
100
AcDbEntity
  8
1
  6
Continuous
 62
     3
100
AcDbCircle
 10
9.100000158729031
 20
8.715174099099976
 30
0.0
 40
1.45
100
AcDbArc
 50
341.2610915308522
 51
72.33628937978912
  0
ARC
  5
298
330
249
100
AcDbEntity
  8
1
  6
Continuous
 62
     3
100
AcDbCircle
 10
-7.709113826628247
 20
14.41747074407262
 30
0.0
 40
19.2
100
AcDbArc
 50
320.2523331915361
 51
341.2610915308523
  0
ARC
  5
299
330
249
100
AcDbEntity
  8
1
  6
Continuous
 62
     3
100
AcDbCircle
 10
-7.709113826628247
 20
14.41747074407262
 30
0.0
 40
19.2
100
AcDbArc
 50
320.2523331915361
 51
341.2610915308523
  0
LINE
  5
29A
330
249
100
AcDbEntity
  8
1
  6
Continuous
 62
     3
100
AcDbLine
 10
3.627143035967165
 20
5.250000013103403
 30
0.0
 11
3.050000158729034
 21
5.250000013103403
 31
0.0
  0
LINE
  5
29B
330
249
100
AcDbEntity
  8
1
  6
Continuous
 62
     3
100
AcDbLine
 10
2.850000158729031
 20
5.450000013103399
 30
0.0
 11
2.850000158729031
 21
6.8000000131034
 31
0.0
  0
LINE
  5
29C
330
249
100
AcDbEntity
  8
1
  6
Continuous
 62
     3
100
AcDbLine
 10
2.650000158729036
 20
7.000000013103403
 30
0.0
 11
2.050000158729034
 21
7.000000013103403
 31
0.0
  0
LINE
  5
29D
330
249
100
AcDbEntity
  8
1
  6
Continuous
 62
     3
100
AcDbLine
 10
1.850000158729031
 20
6.8000000131034
 30
0.0
 11
1.850000158729031
 21
1.200000013103399
 31
0.0
  0
LINE
  5
29E
330
249
100
AcDbEntity
  8
1
  6
Continuous
 62
     3
100
AcDbLine
 10
2.050000158729034
 20
1.000000013103403
 30
0.0
 11
2.650000158729036
 21
1.000000013103403
 31
0.0
  0
LINE
  5
29F
330
249
100
AcDbEntity
  8
1
  6
Continuous
 62
     3
100
AcDbLine
 10
2.850000158729031
 20
1.200000013103399
 30
0.0
 11
2.850000158729031
 21
2.5500000131034
 31
0.0
  0
LINE
  5
2A0
330
249
100
AcDbEntity
  8
1
  6
Continuous
 62
     3
100
AcDbLine
 10
3.050000158729034
 20
2.750000013103403
 30
0.0
 11
3.631339459664957
 21
2.750000013103403
 31
0.0
  0
ARC
  5
2A1
330
249
100
AcDbEntity
  8
1
  6
Continuous
 62
     3
100
AcDbCircle
 10
2.650000158729036
 20
1.200000013103399
 30
0.0
 40
0.2
100
AcDbArc
 50
270.0
 51
0.0
  0
ARC
  5
2A2
330
249
100
AcDbEntity
  8
1
  6
Continuous
 62
     3
100
AcDbCircle
 10
2.650000158729036
 20
1.200000013103399
 30
0.0
 40
0.2
100
AcDbArc
 50
270.0
 51
0.0
  0
ARC
  5
2A3
330
249
100
AcDbEntity
  8
1
  6
Continuous
 62
     3
100
AcDbCircle
 10
3.050000158729034
 20
2.5500000131034
 30
0.0
 40
0.2
100
AcDbArc
 50
90.0
 51
180.0
  0
ARC
  5
2A4
330
249
100
AcDbEntity
  8
1
  6
Continuous
 62
     3
100
AcDbCircle
 10
3.050000158729034
 20
2.5500000131034
 30
0.0
 40
0.2
100
AcDbArc
 50
90.0
 51
180.0
  0
ARC
  5
2A5
330
249
100
AcDbEntity
  8
1
  6
Continuous
 62
     3
100
AcDbCircle
 10
3.050000158729034
 20
5.450000013103399
 30
0.0
 40
0.2
100
AcDbArc
 50
180.0
 51
270.0
  0
ARC
  5
2A6
330
249
100
AcDbEntity
  8
1
  6
Continuous
 62
     3
100
AcDbCircle
 10
3.050000158729034
 20
5.450000013103399
 30
0.0
 40
0.2
100
AcDbArc
 50
180.0
 51
270.0
  0
ARC
  5
2A7
330
249
100
AcDbEntity
  8
1
  6
Continuous
 62
     3
100
AcDbCircle
 10
2.650000158729036
 20
6.8000000131034
 30
0.0
 40
0.2
100
AcDbArc
 50
0.0
 51
90.0
  0
ARC
  5
2A8
330
249
100
AcDbEntity
  8
1
  6
Continuous
 62
     3
100
AcDbCircle
 10
2.650000158729036
 20
6.8000000131034
 30
0.0
 40
0.2
100
AcDbArc
 50
0.0
 51
90.0
  0
ARC
  5
2A9
330
249
100
AcDbEntity
  8
1
  6
Continuous
 62
     3
100
AcDbCircle
 10
2.050000158729034
 20
6.8000000131034
 30
0.0
 40
0.2
100
AcDbArc
 50
90.0
 51
180.0
  0
ARC
  5
2AA
330
249
100
AcDbEntity
  8
1
  6
Continuous
 62
     3
100
AcDbCircle
 10
2.050000158729034
 20
6.8000000131034
 30
0.0
 40
0.2
100
AcDbArc
 50
90.0
 51
180.0
  0
ARC
  5
2AB
330
249
100
AcDbEntity
  8
1
  6
Continuous
 62
     3
100
AcDbCircle
 10
2.050000158729034
 20
1.200000013103399
 30
0.0
 40
0.2
100
AcDbArc
 50
180.0
 51
270.0
  0
ARC
  5
2AC
330
249
100
AcDbEntity
  8
1
  6
Continuous
 62
     3
100
AcDbCircle
 10
2.050000158729034
 20
1.200000013103399
 30
0.0
 40
0.2
100
AcDbArc
 50
180.0
 51
270.0
  0
LINE
  5
2AD
330
249
100
AcDbEntity
  8
1
  6
Continuous
 62
     3
100
AcDbLine
 10
5.191714530653833
 20
7.50083350481389
 30
0.0
 11
3.991428762067386
 21
4.000000013103403
 31
0.0
  0
LINE
  5
2AE
330
249
100
AcDbEntity
  8
1
  6
Continuous
 62
     1
100
AcDbLine
 10
0.0000001311618902
 20
5.000000028004557
 30
0.0
 11
0.0000001311618902
 21
5.000000028004557
 31
0.0
  0
LINE
  5
2AF
330
249
100
AcDbEntity
  8
1
  6
Continuous
 62
     1
100
AcDbLine
 10
0.0000001311618902
 20
5.000000028004557
 30
0.0
 11
0.0000001311618902
 21
5.000000028004557
 31
0.0
  0
LINE
  5
2B0
330
249
100
AcDbEntity
  8
1
  6
Continuous
 62
     1
100
AcDbLine
 10
0.0000001311618902
 20
5.000000028004557
 30
0.0
 11
0.0000001311618902
 21
5.000000028004557
 31
0.0
  0
LINE
  5
2B1
330
249
100
AcDbEntity
  8
1
  6
Continuous
 62
     1
100
AcDbLine
 10
0.0000001311618902
 20
5.000000028004557
 30
0.0
 11
0.0000001311618902
 21
5.000000028004557
 31
0.0
  0
LINE
  5
2B2
330
249
100
AcDbEntity
  8
1
  6
Continuous
 62
     1
100
AcDbLine
 10
0.0000001311618902
 20
5.000000028004557
 30
0.0
 11
0.0000001311618902
 21
5.000000028004557
 31
0.0
  0
LINE
  5
2B3
330
249
100
AcDbEntity
  8
1
  6
Continuous
 62
     1
100
AcDbLine
 10
0.0000001311618902
 20
5.000000028004557
 30
0.0
 11
0.0000001311618902
 21
5.000000028004557
 31
0.0
  0
LINE
  5
2B4
330
249
100
AcDbEntity
  8
1
  6
Continuous
 62
     1
100
AcDbLine
 10
0.0000001311618902
 20
5.000000028004557
 30
0.0
 11
0.0000001311618902
 21
5.000000028004557
 31
0.0
  0
LINE
  5
2B5
330
249
100
AcDbEntity
  8
1
  6
Continuous
 62
     1
100
AcDbLine
 10
0.0000001311618902
 20
5.000000028004557
 30
0.0
 11
0.0000001311618902
 21
5.000000028004557
 31
0.0
  0
LINE
  5
2B6
330
249
100
AcDbEntity
  8
1
  6
Continuous
 62
     3
100
AcDbLine
 10
3.594572524878657
 20
2.862253044088135
 30
0.0
 11
4.419271321108695
 21
0.3443673387840036
 31
0.0
  0
LINE
  5
2B7
330
249
100
AcDbEntity
  8
1
  6
Continuous
 62
     3
100
AcDbLine
 10
4.894432866657695
 20
-0.0000000465012491
 30
0.0
 11
5.812277877939955
 21
-0.0000000465012491
 31
0.0
  0
ARC
  5
2B8
330
249
100
AcDbEntity
  8
1
  6
Continuous
 62
     3
100
AcDbCircle
 10
2.650000170649975
 20
5.000000028004564
 30
0.0
 40
6.000000089406967
100
AcDbArc
 50
305.0968012275845
 51
317.7260252640424
  0
ARC
  5
2B9
330
249
100
AcDbEntity
  8
1
  6
Continuous
 62
     3
100
AcDbCircle
 10
2.650000170649975
 20
5.000000028004564
 30
0.0
 40
6.000000089406967
100
AcDbArc
 50
305.0968012275845
 51
317.7260252640424
  0
LINE
  5
2BA
330
249
100
AcDbEntity
  8
1
  6
Continuous
 62
     3
100
AcDbLine
 10
4.570000199260193
 20
8.000000072708048
 30
0.0
 11
3.587760802384295
 21
5.135135165153372
 31
0.0
  0
LINE
  5
2BB
330
249
100
AcDbEntity
  8
1
  6
Continuous
 62
     3
100
AcDbLine
 10
1.850000158729031
 20
5.750000039180428
 30
0.0
 11
1.850000158729031
 21
2.249999987026371
 31
0.0
  0
LINE
  5
2BC
330
249
100
AcDbEntity
  8
1
  6
Continuous
 62
     3
100
AcDbLine
 10
5.07561724155218
 20
0.7499999646746218
 30
0.0
 11
5.732207218062911
 21
0.7499999646746218
 31
0.0
  0
ARC
  5
2BD
330
249
100
AcDbEntity
  8
1
  6
Continuous
 62
     3
100
AcDbCircle
 10
2.650000170649975
 20
5.000000028004564
 30
0.0
 40
5.250000078231096
100
AcDbArc
 50
305.9505676196178
 51
327.0025763907773
  0
ARC
  5
2BE
330
249
100
AcDbEntity
  8
1
  6
Continuous
 62
     3
100
AcDbCircle
 10
2.650000170649975
 20
5.000000028004564
 30
0.0
 40
5.250000078231096
100
AcDbArc
 50
305.9505676196178
 51
327.0025763907773
  0
LINE
  5
2BF
330
249
100
AcDbEntity
  8
1
  6
Continuous
 62
     3
100
AcDbLine
 10
5.017046081309807
 20
6.991383860893762
 30
0.0
 11
3.991428762067386
 21
4.000000013103403
 31
0.0
  0
LINE
  5
2C0
330
249
100
AcDbEntity
  8
1
  6
Continuous
 62
     3
100
AcDbLine
 10
3.991428762067386
 20
4.000000013103403
 30
0.0
 11
5.07561724155218
 21
0.7499999646746218
 31
0.0
  0
ARC
  5
2C1
330
249
100
AcDbEntity
  8
1
  6
Continuous
 62
     3
100
AcDbCircle
 10
5.812277877939955
 20
0.4999999609493386
 30
0.0
 40
0.5000000074505806
100
AcDbArc
 50
270.0
 51
305.0968012275845
  0
ARC
  5
2C2
330
249
100
AcDbEntity
  8
1
  6
Continuous
 62
     3
100
AcDbCircle
 10
5.812277877939955
 20
0.4999999609493386
 30
0.0
 40
0.5000000074505806
100
AcDbArc
 50
270.0
 51
305.0968012275845
  0
ARC
  5
2C3
330
249
100
AcDbEntity
  8
1
  6
Continuous
 62
     3
100
AcDbCircle
 10
4.894432866657695
 20
0.4999999609493315
 30
0.0
 40
0.5000000074505806
100
AcDbArc
 50
198.1354962559053
 51
270.0
  0
ARC
  5
2C4
330
249
100
AcDbEntity
  8
1
  6
Continuous
 62
     3
100
AcDbCircle
 10
4.894432866657695
 20
0.4999999609493315
 30
0.0
 40
0.5000000074505806
100
AcDbArc
 50
198.1354962559053
 51
270.0
  0
LINE
  5
2C5
330
249
100
AcDbEntity
  8
1
  6
HIDDEN
 62
     3
100
AcDbLine
 10
3.587760802384295
 20
5.135135165153372
 30
0.0
 11
3.210512176684752
 21
4.0348266735297
 31
0.0
  0
LINE
  5
2C6
330
249
100
AcDbEntity
  8
1
  6
HIDDEN
 62
     3
100
AcDbLine
 10
3.210512176684752
 20
4.0348266735297
 30
0.0
 11
3.59457252487865
 21
2.862253044088135
 31
0.0
  0
ENDBLK
  5
24B
330
249
100
AcDbEntity
  8
0
100
AcDbBlockEnd
  0
BLOCK
  5
2C8
330
2C7
100
AcDbEntity
  8
0
100
AcDbBlockBegin
  2
GEN_BLOCK00007
 70
     0
 10
0.0
 20
0.0
 30
0.0
  3
GEN_BLOCK00007
  1
GEN_BLOCK00007
  0
CIRCLE
  5
2CB
330
2C7
100
AcDbEntity
  8
1
  6
Continuous
 62
     1
100
AcDbCircle
 10
1.000002114467193
 20
1.000007606696755
 30
0.0
 40
1.0
  0
ARC
  5
2CC
330
2C7
100
AcDbEntity
  8
1
  6
Continuous
 62
     1
100
AcDbCircle
 10
1.000002114467193
 20
1.000007606696755
 30
0.0
 40
1.0
100
AcDbArc
 50
0.0
 51
0.0
  0
ENDBLK
  5
2C9
330
2C7
100
AcDbEntity
  8
0
100
AcDbBlockEnd
  0
BLOCK
  5
2CE
330
2CD
100
AcDbEntity
  8
0
100
AcDbBlockBegin
  2
GEN_BLOCK00008
 70
     0
 10
0.0
 20
0.0
 30
0.0
  3
GEN_BLOCK00008
  1
GEN_BLOCK00008
  0
LINE
  5
2D1
330
2CD
100
AcDbEntity
  8
1
  6
HIDDEN
 62
     3
100
AcDbLine
 10
0.0000005296093804
 20
-0.0000015265268303
 30
0.0
 11
0.0000005296093804
 21
-0.0000015265268303
 31
0.0
  0
ENDBLK
  5
2CF
330
2CD
100
AcDbEntity
  8
0
100
AcDbBlockEnd
  0
BLOCK
  5
2D3
330
2D2
100
AcDbEntity
  8
0
100
AcDbBlockBegin
  2
GEN_BLOCK00009
 70
     0
 10
0.0
 20
0.0
 30
0.0
  3
GEN_BLOCK00009
  1
GEN_BLOCK00009
  0
TEXT
  5
2D6
330
2D2
100
AcDbEntity
  8
1
  6
Continuous
 62
     4
100
AcDbText
 10
19.71435451507568
 20
8.574111938476562
 30
0.0
 40
2.5
  1
CILL OF WOOD-
100
AcDbText
  0
TEXT
  5
2D7
330
2D2
100
AcDbEntity
  8
1
  6
Continuous
 62
     4
100
AcDbText
 10
19.71435451507568
 20
3.574111938476562
 30
0.0
 40
2.5
  1
CONCRETE ETC
100
AcDbText
  0
LINE
  5
2D8
330
2D2
100
AcDbEntity
  8
1
  6
DOT
 62
     3
100
AcDbLine
 10
-0.0000000609580439
 20
0.0000017491753042
 30
0.0
 11
-0.0000000609580439
 21
19.61508459970891
 31
0.0
  0
LINE
  5
2D9
330
2D2
100
AcDbEntity
  8
1
  6
DOT
 62
     3
100
AcDbLine
 10
-0.0000000609580439
 20
19.61508459970891
 30
0.0
 11
25.4225191414467
 21
22.96202274766902
 31
0.0
  0
LINE
  5
2DA
330
2D2
100
AcDbEntity
  8
1
  6
DOT
 62
     3
100
AcDbLine
 10
25.4225191414467
 20
22.96202274766902
 30
0.0
 11
83.97742123343299
 21
22.96202274766902
 31
0.0
  0
LINE
  5
2DB
330
2D2
100
AcDbEntity
  8
1
  6
DOT
 62
     3
100
AcDbLine
 10
83.97742123343299
 20
22.96202274766902
 30
0.0
 11
83.97742123343299
 21
0.0000017491753042
 31
0.0
  0
LINE
  5
2DC
330
2D2
100
AcDbEntity
  8
1
  6
Continuous
 62
     3
100
AcDbLine
 10
25.4225191414467
 20
23.46202274766902
 30
0.0
 11
25.4225191414467
 21
23.46202274766902
 31
0.0
  0
LINE
  5
2DD
330
2D2
100
AcDbEntity
  8
1
  6
Continuous
 62
     3
100
AcDbLine
 10
25.4225191414467
 20
23.46202274766902
 30
0.0
 11
25.4225191414467
 21
23.46202274766902
 31
0.0
  0
LINE
  5
2DE
330
2D2
100
AcDbEntity
  8
1
  6
Continuous
 62
     3
100
AcDbLine
 10
25.4225191414467
 20
23.46202274766902
 30
0.0
 11
25.4225191414467
 21
23.46202274766902
 31
0.0
  0
LINE
  5
2DF
330
2D2
100
AcDbEntity
  8
1
  6
Continuous
 62
     3
100
AcDbLine
 10
25.4225191414467
 20
23.46202274766902
 30
0.0
 11
25.4225191414467
 21
23.46202274766902
 31
0.0
  0
LINE
  5
2E0
330
2D2
100
AcDbEntity
  8
1
  6
Continuous
 62
     3
100
AcDbLine
 10
69.4225191414467
 20
23.46202274766902
 30
0.0
 11
69.4225191414467
 21
23.46202274766902
 31
0.0
  0
ENDBLK
  5
2D4
330
2D2
100
AcDbEntity
  8
0
100
AcDbBlockEnd
  0
BLOCK
  5
2E2
330
2E1
100
AcDbEntity
  8
0
100
AcDbBlockBegin
  2
GEN_BLOCK00010
 70
     0
 10
0.0
 20
0.0
 30
0.0
  3
GEN_BLOCK00010
  1
GEN_BLOCK00010
  0
LINE
  5
2E5
330
2E1
100
AcDbEntity
  8
1
  6
Continuous
 62
     3
100
AcDbLine
 10
35.75795776212644
 20
2.622680026320637
 30
0.0
 11
35.99999707613033
 21
2.380640712316747
 31
0.0
  0
LINE
  5
2E6
330
2E1
100
AcDbEntity
  8
1
  6
Continuous
 62
     3
100
AcDbLine
 10
35.99999707613033
 20
2.380640712316747
 30
0.0
 11
36.25879872500697
 21
2.639442361193389
 31
0.0
  0
LINE
  5
2E7
330
2E1
100
AcDbEntity
  8
1
  6
Continuous
 62
     3
100
AcDbLine
 10
24.40032744062302
 20
6.199998116262648
 30
0.0
 11
26.64798517313831
 21
6.199998116262648
 31
0.0
  0
ARC
  5
2E8
330
2E1
100
AcDbEntity
  8
1
  6
Continuous
 62
     3
100
AcDbCircle
 10
26.64798517313831
 20
6.824998116262648
 30
0.0
 40
0.625
100
AcDbArc
 50
270.0
 51
90.0
  0
ARC
  5
2E9
330
2E1
100
AcDbEntity
  8
1
  6
Continuous
 62
     3
100
AcDbCircle
 10
26.64798517313831
 20
6.824998116262648
 30
0.0
 40
0.625
100
AcDbArc
 50
270.0
 51
90.0
  0
LINE
  5
2EA
330
2E1
100
AcDbEntity
  8
1
  6
Continuous
 62
     3
100
AcDbLine
 10
26.64798517313831
 20
7.449998116262648
 30
0.0
 11
22.16022403867494
 21
7.449998116262634
 31
0.0
  0
LINE
  5
2EB
330
2E1
100
AcDbEntity
  8
1
  6
Continuous
 62
     3
100
AcDbLine
 10
17.55140499357241
 20
3.607358407381341
 30
0.0
 11
18.16377742926821
 21
3.253805016788064
 31
0.0
  0
LINE
  5
2EC
330
2E1
100
AcDbEntity
  8
1
  6
Continuous
 62
     3
100
AcDbLine
 10
18.16377742926821
 20
3.253805016788064
 30
0.0
 11
17.86468571319676
 21
2.735762968429327
 31
0.0
  0
LINE
  5
2ED
330
2E1
100
AcDbEntity
  8
1
  6
Continuous
 62
     3
100
AcDbLine
 10
17.86468571319676
 20
2.735762968429327
 30
0.0
 11
17.81022403867494
 21
2.641432581092246
 31
0.0
  0
LINE
  5
2EE
330
2E1
100
AcDbEntity
  8
1
  6
Continuous
 62
     3
100
AcDbLine
 10
17.81022403867494
 20
2.641432581092246
 30
0.0
 11
17.81022403867493
 21
-0.0000018837373545
 31
0.0
  0
LINE
  5
2EF
330
2E1
100
AcDbEntity
  8
1
  6
Continuous
 62
     3
100
AcDbLine
 10
57.47635022423842
 20
0.1507665642978822
 30
0.0
 11
61.24054212693179
 21
1.520820372944129
 31
0.0
  0
LINE
  5
2F0
330
2E1
100
AcDbEntity
  8
1
  6
Continuous
 62
     1
100
AcDbLine
 10
61.81218689598678
 20
1.350125929076356
 30
0.0
 11
61.82996820719046
 21
1.326312571947511
 31
0.0
  0
ARC
  5
2F1
330
2E1
100
AcDbEntity
  8
1
  6
Continuous
 62
     3
100
AcDbCircle
 10
62.30475612334232
 20
1.735035775040018
 30
0.0
 40
0.6264808233857041
100
AcDbArc
 50
220.7236554207954
 51
40.7236554207955
  0
ARC
  5
2F2
330
2E1
100
AcDbEntity
  8
1
  6
Continuous
 62
     3
100
AcDbCircle
 10
62.30475612334232
 20
1.735035775040018
 30
0.0
 40
0.6264808233857041
100
AcDbArc
 50
220.7236554207954
 51
40.7236554207955
  0
ARC
  5
2F3
330
2E1
100
AcDbEntity
  8
1
  6
Continuous
 62
     3
100
AcDbCircle
 10
64.1807558191053
 20
3.34999811626264
 30
0.0
 40
1.85
100
AcDbArc
 50
319.2517007137775
 51
220.7236554207953
  0
ARC
  5
2F4
330
2E1
100
AcDbEntity
  8
1
  6
Continuous
 62
     3
100
AcDbCircle
 10
64.1807558191053
 20
3.34999811626264
 30
0.0
 40
1.85
100
AcDbArc
 50
319.2517007137775
 51
220.7236554207953
  0
ARC
  5
2F5
330
2E1
100
AcDbEntity
  8
1
  6
Continuous
 62
     3
100
AcDbCircle
 10
66.05580446664
 20
1.734449813984256
 30
0.0
 40
0.6251429817379978
100
AcDbArc
 50
139.2517007137774
 51
319.2517007137775
  0
ARC
  5
2F6
330
2E1
100
AcDbEntity
  8
1
  6
Continuous
 62
     3
100
AcDbCircle
 10
66.05580446664
 20
1.734449813984256
 30
0.0
 40
0.6251429817379978
100
AcDbArc
 50
139.2517007137774
 51
319.2517007137775
  0
ARC
  5
2F7
330
2E1
100
AcDbEntity
  8
1
  6
Continuous
 62
     3
100
AcDbCircle
 10
64.1807558191053
 20
3.34999811626264
 30
0.0
 40
3.1
100
AcDbArc
 50
319.2517007137775
 51
13.97489179347239
  0
ARC
  5
2F8
330
2E1
100
AcDbEntity
  8
1
  6
Continuous
 62
     3
100
AcDbCircle
 10
64.1807558191053
 20
3.34999811626264
 30
0.0
 40
3.1
100
AcDbArc
 50
319.2517007137775
 51
13.97489179347239
  0
ARC
  5
2F9
330
2E1
100
AcDbEntity
  8
1
  6
Continuous
 62
     3
100
AcDbCircle
 10
61.77789227733351
 20
6.323184450318735
 30
0.0
 40
0.7228923319537902
100
AcDbArc
 50
234.5799295400786
 51
308.9443781271985
  0
ARC
  5
2FA
330
2E1
100
AcDbEntity
  8
1
  6
Continuous
 62
     3
100
AcDbCircle
 10
61.77789227733351
 20
6.323184450318735
 30
0.0
 40
0.7228923319537902
100
AcDbArc
 50
234.5799295400786
 51
308.9443781271985
  0
ARC
  5
2FB
330
2E1
100
AcDbEntity
  8
1
  6
Continuous
 62
     3
100
AcDbCircle
 10
61.77789227733351
 20
6.323184450318735
 30
0.0
 40
0.7228923319537902
100
AcDbArc
 50
308.9443781271986
 51
0.0
  0
ARC
  5
2FC
330
2E1
100
AcDbEntity
  8
1
  6
Continuous
 62
     3
100
AcDbCircle
 10
61.77789227733351
 20
6.323184450318735
 30
0.0
 40
0.7228923319537902
100
AcDbArc
 50
308.9443781271986
 51
0.0
  0
LINE
  5
2FD
330
2E1
100
AcDbEntity
  8
1
  6
Continuous
 62
     1
100
AcDbLine
 10
62.50078460928729
 20
6.323184450318735
 30
0.0
 11
62.50078460928729
 21
6.34438613605893
 31
0.0
  0
LINE
  5
2FE
330
2E1
100
AcDbEntity
  8
1
  6
Continuous
 62
     1
100
AcDbLine
 10
63.00078460928729
 20
6.84438613605893
 30
0.0
 11
62.99999694201988
 21
6.84438613605893
 31
0.0
  0
ARC
  5
2FF
330
2E1
100
AcDbEntity
  8
1
  6
Continuous
 62
     3
100
AcDbCircle
 10
63.87499695505839
 20
7.585734273089784
 30
0.0
 40
1.146831322861616
100
AcDbArc
 50
220.2731054855313
 51
319.7268945144686
  0
ARC
  5
300
330
2E1
100
AcDbEntity
  8
1
  6
Continuous
 62
     3
100
AcDbCircle
 10
63.87499695505839
 20
7.585734273089784
 30
0.0
 40
1.146831322861616
100
AcDbArc
 50
220.2731054855313
 51
319.7268945144686
  0
LINE
  5
301
330
2E1
100
AcDbEntity
  8
1
  6
Continuous
 62
     3
100
AcDbLine
 10
17.80028865406235
 20
9.36225116420114
 30
0.0
 11
18.42660179826477
 21
7.449998116262634
 31
0.0
  0
ARC
  5
302
330
2E1
100
AcDbEntity
  8
1
  6
Continuous
 62
     3
100
AcDbCircle
 10
23.77581154458331
 20
6.22497030954888
 30
0.0
 40
0.6250149716957305
100
AcDbArc
 50
229.249857885374
 51
357.7101632768781
  0
ARC
  5
303
330
2E1
100
AcDbEntity
  8
1
  6
Continuous
 62
     3
100
AcDbCircle
 10
23.77581154458331
 20
6.22497030954888
 30
0.0
 40
0.6250149716957305
100
AcDbArc
 50
229.249857885374
 51
357.7101632768781
  0
ARC
  5
304
330
2E1
100
AcDbEntity
  8
1
  6
Continuous
 62
     3
100
AcDbCircle
 10
22.16022403867494
 20
4.34999811626264
 30
0.0
 40
1.85
100
AcDbArc
 50
49.24985788537405
 51
310.7486165669955
  0
ARC
  5
305
330
2E1
100
AcDbEntity
  8
1
  6
Continuous
 62
     3
100
AcDbCircle
 10
22.16022403867494
 20
4.34999811626264
 30
0.0
 40
1.85
100
AcDbArc
 50
49.24985788537405
 51
310.7486165669955
  0
ARC
  5
306
330
2E1
100
AcDbEntity
  8
1
  6
Continuous
 62
     3
100
AcDbCircle
 10
23.7757633283839
 20
2.474980926044168
 30
0.0
 40
0.6250253276533118
100
AcDbArc
 50
14.58992868082882
 51
130.7486165669953
  0
ARC
  5
307
330
2E1
100
AcDbEntity
  8
1
  6
Continuous
 62
     3
100
AcDbCircle
 10
23.7757633283839
 20
2.474980926044168
 30
0.0
 40
0.6250253276533118
100
AcDbArc
 50
14.58992868082882
 51
130.7486165669953
  0
LINE
  5
308
330
2E1
100
AcDbEntity
  8
1
  6
Continuous
 62
     3
100
AcDbLine
 10
71.74999707240504
 20
6.84438613605893
 30
0.0
 11
71.49999706867975
 21
6.84438613605893
 31
0.0
  0
ARC
  5
309
330
2E1
100
AcDbEntity
  8
1
  6
Continuous
 62
     3
100
AcDbCircle
 10
70.62499705564123
 20
6.84438613605893
 30
0.0
 40
0.875000013038516
100
AcDbArc
 50
180.0
 51
0.0
  0
ARC
  5
30A
330
2E1
100
AcDbEntity
  8
1
  6
Continuous
 62
     3
100
AcDbCircle
 10
70.62499705564123
 20
6.84438613605893
 30
0.0
 40
0.875000013038516
100
AcDbArc
 50
180.0
 51
0.0
  0
LINE
  5
30B
330
2E1
100
AcDbEntity
  8
1
  6
Continuous
 62
     3
100
AcDbLine
 10
69.74999704260271
 20
6.84438613605893
 30
0.0
 11
69.24999703515213
 21
6.84438613605893
 31
0.0
  0
ARC
  5
30C
330
2E1
100
AcDbEntity
  8
1
  6
Continuous
 62
     3
100
AcDbCircle
 10
68.37499702211362
 20
6.84438613605893
 30
0.0
 40
0.875000013038516
100
AcDbArc
 50
180.0
 51
0.0
  0
ARC
  5
30D
330
2E1
100
AcDbEntity
  8
1
  6
Continuous
 62
     3
100
AcDbCircle
 10
68.37499702211362
 20
6.84438613605893
 30
0.0
 40
0.875000013038516
100
AcDbArc
 50
180.0
 51
0.0
  0
LINE
  5
30E
330
2E1
100
AcDbEntity
  8
1
  6
Continuous
 62
     3
100
AcDbLine
 10
67.4999970090751
 20
6.84438613605893
 30
0.0
 11
66.99999700162452
 21
6.84438613605893
 31
0.0
  0
ARC
  5
30F
330
2E1
100
AcDbEntity
  8
1
  6
Continuous
 62
     3
100
AcDbCircle
 10
72.86933095795507
 20
2.537332478608533
 30
0.0
 40
1.451970758583345
100
AcDbArc
 50
232.0129704852096
 51
232.0129704852108
  0
ARC
  5
310
330
2E1
100
AcDbEntity
  8
1
  6
Continuous
 62
     3
100
AcDbCircle
 10
72.86933095795507
 20
2.537332478608533
 30
0.0
 40
1.451970758583345
100
AcDbArc
 50
232.0129704852096
 51
232.0129704852108
  0
LINE
  5
311
330
2E1
100
AcDbEntity
  8
1
  6
Continuous
 62
     3
100
AcDbLine
 10
71.74999707240504
 20
6.84438613605893
 30
0.0
 11
71.49999706867975
 21
6.84438613605893
 31
0.0
  0
ARC
  5
312
330
2E1
100
AcDbEntity
  8
1
  6
Continuous
 62
     3
100
AcDbCircle
 10
72.86933095795507
 20
2.537332478608533
 30
0.0
 40
1.451970758583345
100
AcDbArc
 50
232.0129704852096
 51
232.0129704852108
  0
ARC
  5
313
330
2E1
100
AcDbEntity
  8
1
  6
Continuous
 62
     3
100
AcDbCircle
 10
72.86933095795507
 20
2.537332478608533
 30
0.0
 40
1.451970758583345
100
AcDbArc
 50
232.0129704852096
 51
232.0129704852108
  0
ARC
  5
314
330
2E1
100
AcDbEntity
  8
1
  6
Continuous
 62
     3
100
AcDbCircle
 10
66.124996988586
 20
6.84438613605893
 30
0.0
 40
0.875000013038516
100
AcDbArc
 50
180.0
 51
0.0
  0
ARC
  5
315
330
2E1
100
AcDbEntity
  8
1
  6
Continuous
 62
     3
100
AcDbCircle
 10
66.124996988586
 20
6.84438613605893
 30
0.0
 40
0.875000013038516
100
AcDbArc
 50
180.0
 51
0.0
  0
LINE
  5
316
330
2E1
100
AcDbEntity
  8
1
  6
Continuous
 62
     3
100
AcDbLine
 10
65.24999697554749
 20
6.84438613605893
 30
0.0
 11
64.74999696809691
 21
6.84438613605893
 31
0.0
  0
ARC
  5
317
330
2E1
100
AcDbEntity
  8
1
  6
Continuous
 62
     3
100
AcDbCircle
 10
71.74999707240504
 20
6.594386132333639
 30
0.0
 40
0.2500000037252903
100
AcDbArc
 50
0.0
 51
90.0
  0
ARC
  5
318
330
2E1
100
AcDbEntity
  8
1
  6
Continuous
 62
     3
100
AcDbCircle
 10
71.74999707240504
 20
6.594386132333639
 30
0.0
 40
0.2500000037252903
100
AcDbArc
 50
0.0
 51
90.0
  0
ARC
  5
319
330
2E1
100
AcDbEntity
  8
1
  6
Continuous
 62
     3
100
AcDbCircle
 10
3.41022403867494
 20
7.800248843839967
 30
0.0
 40
0.5
100
AcDbArc
 50
39.11799697235669
 51
220.2639316620706
  0
ARC
  5
31A
330
2E1
100
AcDbEntity
  8
1
  6
Continuous
 62
     3
100
AcDbCircle
 10
3.41022403867494
 20
7.800248843839967
 30
0.0
 40
0.5
100
AcDbArc
 50
39.11799697235669
 51
220.2639316620706
  0
ARC
  5
31B
330
2E1
100
AcDbEntity
  8
1
  6
Continuous
 62
     3
100
AcDbCircle
 10
6.91022403867494
 20
10.23287816863171
 30
0.0
 40
0.5
100
AcDbArc
 50
29.33752438578988
 51
210.4834590755055
  0
ARC
  5
31C
330
2E1
100
AcDbEntity
  8
1
  6
Continuous
 62
     3
100
AcDbCircle
 10
6.91022403867494
 20
10.23287816863171
 30
0.0
 40
0.5
100
AcDbArc
 50
29.33752438578988
 51
210.4834590755055
  0
ARC
  5
31D
330
2E1
100
AcDbEntity
  8
1
  6
Continuous
 62
     3
100
AcDbCircle
 10
10.41022403867494
 20
11.89957841442332
 30
0.0
 40
0.5
100
AcDbArc
 50
20.44412722497315
 51
201.5900619146865
  0
ARC
  5
31E
330
2E1
100
AcDbEntity
  8
1
  6
Continuous
 62
     3
100
AcDbCircle
 10
10.41022403867494
 20
11.89957841442332
 30
0.0
 40
0.5
100
AcDbArc
 50
20.44412722497315
 51
201.5900619146865
  0
ARC
  5
31F
330
2E1
100
AcDbEntity
  8
1
  6
Continuous
 62
     3
100
AcDbCircle
 10
19.37638587380583
 20
-11.43725817381723
 30
0.0
 40
25.0
100
AcDbArc
 50
130.8368990069276
 51
139.9677811587691
  0
ARC
  5
320
330
2E1
100
AcDbEntity
  8
1
  6
Continuous
 62
     3
100
AcDbCircle
 10
19.37638587380583
 20
-11.43725817381723
 30
0.0
 40
25.0
100
AcDbArc
 50
130.8368990069276
 51
139.9677811587691
  0
ARC
  5
321
330
2E1
100
AcDbEntity
  8
1
  6
Continuous
 62
     3
100
AcDbCircle
 10
19.37638587380583
 20
-11.43725817381723
 30
0.0
 40
25.0
100
AcDbArc
 50
121.0564264203621
 51
128.5450296274992
  0
ARC
  5
322
330
2E1
100
AcDbEntity
  8
1
  6
Continuous
 62
     3
100
AcDbCircle
 10
19.37638587380583
 20
-11.43725817381723
 30
0.0
 40
25.0
100
AcDbArc
 50
121.0564264203621
 51
128.5450296274992
  0
ARC
  5
323
330
2E1
100
AcDbEntity
  8
1
  6
Continuous
 62
     3
100
AcDbCircle
 10
19.37638587380583
 20
-11.43725817381723
 30
0.0
 40
25.0
100
AcDbArc
 50
112.1630292595445
 51
118.7645570409336
  0
ARC
  5
324
330
2E1
100
AcDbEntity
  8
1
  6
Continuous
 62
     3
100
AcDbCircle
 10
19.37638587380583
 20
-11.43725817381723
 30
0.0
 40
25.0
100
AcDbArc
 50
112.1630292595445
 51
118.7645570409336
  0
ARC
  5
325
330
2E1
100
AcDbEntity
  8
1
  6
Continuous
 62
     3
100
AcDbCircle
 10
19.37638587380583
 20
-11.43725817381723
 30
0.0
 40
25.0
100
AcDbArc
 50
103.5307464986789
 51
109.8711598801153
  0
ARC
  5
326
330
2E1
100
AcDbEntity
  8
1
  6
Continuous
 62
     3
100
AcDbCircle
 10
19.37638587380583
 20
-11.43725817381723
 30
0.0
 40
25.0
100
AcDbArc
 50
103.5307464986789
 51
109.8711598801153
  0
ARC
  5
327
330
2E1
100
AcDbEntity
  8
1
  6
Continuous
 62
     3
100
AcDbCircle
 10
0.9999970761303274
 20
3.999980399083896
 30
0.0
 40
1.0
100
AcDbArc
 50
139.9677811587691
 51
316.9560632782728
  0
ARC
  5
328
330
2E1
100
AcDbEntity
  8
1
  6
Continuous
 62
     3
100
AcDbCircle
 10
0.9999970761303274
 20
3.999980399083896
 30
0.0
 40
1.0
100
AcDbArc
 50
139.9677811587691
 51
316.9560632782728
  0
ARC
  5
329
330
2E1
100
AcDbEntity
  8
1
  6
Continuous
 62
     3
100
AcDbCircle
 10
20.00159014639208
 20
-13.74655336929412
 30
0.0
 40
25.0
100
AcDbArc
 50
107.1859379357977
 51
136.9560632782728
  0
ARC
  5
32A
330
2E1
100
AcDbEntity
  8
1
  6
Continuous
 62
     3
100
AcDbCircle
 10
20.00159014639208
 20
-13.74655336929412
 30
0.0
 40
25.0
100
AcDbArc
 50
107.1859379357977
 51
136.9560632782728
  0
LINE
  5
32B
330
2E1
100
AcDbEntity
  8
1
  6
Continuous
 62
     3
100
AcDbLine
 10
13.91022403867494
 20
9.181868441339091
 30
0.0
 11
13.91022403867494
 21
6.999998116262645
 31
0.0
  0
LINE
  5
32C
330
2E1
100
AcDbEntity
  8
1
  6
Continuous
 62
     3
100
AcDbLine
 10
23.91022403867494
 20
-0.0000018837373545
 30
0.0
 11
23.91022403867494
 21
0.3999981162626369
 31
0.0
  0
LINE
  5
32D
330
2E1
100
AcDbEntity
  8
1
  6
Continuous
 62
     3
100
AcDbLine
 10
23.91022403867494
 20
0.3999981162626369
 30
0.0
 11
54.24272317038729
 21
1.730340462855352
 31
0.0
  0
LINE
  5
32E
330
2E1
100
AcDbEntity
  8
1
  6
Continuous
 62
     3
100
AcDbLine
 10
24.88123531079076
 20
2.258653763375364
 30
0.0
 11
35.75795776212644
 21
2.622680026320637
 31
0.0
  0
LINE
  5
32F
330
2E1
100
AcDbEntity
  8
1
  6
Continuous
 62
     3
100
AcDbLine
 10
36.25879872500697
 20
2.639442361193389
 30
0.0
 11
53.91421346568629
 21
3.230340462855352
 31
0.0
  0
ARC
  5
330
330
2E1
100
AcDbEntity
  8
1
  6
Continuous
 62
     3
100
AcDbCircle
 10
56.62129986592424
 20
2.499998116262645
 30
0.0
 40
2.5
100
AcDbArc
 50
270.0
 51
290.0000000000001
  0
ARC
  5
331
330
2E1
100
AcDbEntity
  8
1
  6
Continuous
 62
     3
100
AcDbCircle
 10
56.62129986592424
 20
2.499998116262645
 30
0.0
 40
2.5
100
AcDbArc
 50
270.0
 51
290.0000000000001
  0
ARC
  5
332
330
2E1
100
AcDbEntity
  8
1
  6
Continuous
 62
     3
100
AcDbCircle
 10
56.62129986592424
 20
2.499998116262645
 30
0.0
 40
2.5
100
AcDbArc
 50
197.9304957389324
 51
270.0
  0
ARC
  5
333
330
2E1
100
AcDbEntity
  8
1
  6
Continuous
 62
     3
100
AcDbCircle
 10
56.62129986592424
 20
2.499998116262645
 30
0.0
 40
2.5
100
AcDbArc
 50
197.9304957389324
 51
270.0
  0
ARC
  5
334
330
2E1
100
AcDbEntity
  8
1
  6
Continuous
 62
     3
100
AcDbCircle
 10
17.61022403867493
 20
9.299998116262657
 30
0.0
 40
0.2
100
AcDbArc
 50
18.13549625590597
 51
180.0
  0
ARC
  5
335
330
2E1
100
AcDbEntity
  8
1
  6
Continuous
 62
     3
100
AcDbCircle
 10
17.61022403867493
 20
9.299998116262657
 30
0.0
 40
0.2
100
AcDbArc
 50
18.13549625590597
 51
180.0
  0
LINE
  5
336
330
2E1
100
AcDbEntity
  8
1
  6
Continuous
 62
     3
100
AcDbLine
 10
17.41022403867494
 20
9.299998116262657
 30
0.0
 11
17.41022403867494
 21
7.999998116262645
 31
0.0
  0
LINE
  5
337
330
2E1
100
AcDbEntity
  8
1
  6
Continuous
 62
     3
100
AcDbLine
 10
17.41022403867494
 20
7.999998116262645
 30
0.0
 11
15.91022403867494
 21
7.999998116262645
 31
0.0
  0
LINE
  5
338
330
2E1
100
AcDbEntity
  8
1
  6
Continuous
 62
     3
100
AcDbLine
 10
15.91022403867494
 20
7.999998116262645
 30
0.0
 11
15.91022403867494
 21
13.99999811626265
 31
0.0
  0
LINE
  5
339
330
2E1
100
AcDbEntity
  8
1
  6
Continuous
 62
     3
100
AcDbLine
 10
15.91022403867494
 20
13.99999811626265
 30
0.0
 11
17.41022403867494
 21
13.99999811626265
 31
0.0
  0
LINE
  5
33A
330
2E1
100
AcDbEntity
  8
1
  6
Continuous
 62
     3
100
AcDbLine
 10
17.41022403867494
 20
13.99999811626265
 30
0.0
 11
17.41022403867494
 21
12.69999811626263
 31
0.0
  0
ARC
  5
33B
330
2E1
100
AcDbEntity
  8
1
  6
Continuous
 62
     3
100
AcDbCircle
 10
17.61022403867493
 20
12.69999811626263
 30
0.0
 40
0.2
100
AcDbArc
 50
180.0
 51
341.0753555839485
  0
ARC
  5
33C
330
2E1
100
AcDbEntity
  8
1
  6
Continuous
 62
     3
100
AcDbCircle
 10
17.61022403867493
 20
12.69999811626263
 30
0.0
 40
0.2
100
AcDbArc
 50
180.0
 51
341.0753555839485
  0
LINE
  5
33D
330
2E1
100
AcDbEntity
  8
1
  6
Continuous
 62
     3
100
AcDbLine
 10
17.79941322786412
 20
12.63513325139778
 30
0.0
 11
18.41022403867494
 21
14.4166647829293
 31
0.0
  0
ARC
  5
33E
330
2E1
100
AcDbEntity
  8
1
  6
Continuous
 62
     3
100
AcDbCircle
 10
17.91022403867494
 20
14.49999811626265
 30
0.0
 40
0.5
100
AcDbArc
 50
0.0
 51
90.0
  0
ARC
  5
33F
330
2E1
100
AcDbEntity
  8
1
  6
Continuous
 62
     3
100
AcDbCircle
 10
17.91022403867494
 20
14.49999811626265
 30
0.0
 40
0.5
100
AcDbArc
 50
0.0
 51
90.0
  0
ARC
  5
340
330
2E1
100
AcDbEntity
  8
1
  6
Continuous
 62
     3
100
AcDbCircle
 10
17.91022403867494
 20
14.49999811626265
 30
0.0
 40
0.5
100
AcDbArc
 50
341.0753555839473
 51
0.0
  0
ARC
  5
341
330
2E1
100
AcDbEntity
  8
1
  6
Continuous
 62
     3
100
AcDbCircle
 10
17.91022403867494
 20
14.49999811626265
 30
0.0
 40
0.5
100
AcDbArc
 50
341.0753555839473
 51
0.0
  0
ARC
  5
342
330
2E1
100
AcDbEntity
  8
1
  6
Continuous
 62
     3
100
AcDbCircle
 10
17.91022403867494
 20
14.49999811626265
 30
0.0
 40
0.5
100
AcDbArc
 50
0.0
 51
90.0
  0
ARC
  5
343
330
2E1
100
AcDbEntity
  8
1
  6
Continuous
 62
     3
100
AcDbCircle
 10
17.91022403867494
 20
14.49999811626265
 30
0.0
 40
0.5
100
AcDbArc
 50
0.0
 51
90.0
  0
ARC
  5
344
330
2E1
100
AcDbEntity
  8
1
  6
Continuous
 62
     3
100
AcDbCircle
 10
47.87201867734252
 20
2.82449460299955
 30
0.0
 40
1.451970736947295
100
AcDbArc
 50
232.0129704852096
 51
232.0129704852108
  0
ARC
  5
345
330
2E1
100
AcDbEntity
  8
1
  6
Continuous
 62
     3
100
AcDbCircle
 10
47.87201867734252
 20
2.82449460299955
 30
0.0
 40
1.451970736947295
100
AcDbArc
 50
232.0129704852096
 51
232.0129704852108
  0
LINE
  5
346
330
2E1
100
AcDbEntity
  8
1
  6
Continuous
 62
     3
100
AcDbLine
 10
17.91022403867494
 20
14.99999811626265
 30
0.0
 11
15.41022403867494
 21
14.99999811626265
 31
0.0
  0
LINE
  5
347
330
2E1
100
AcDbEntity
  8
1
  6
Continuous
 62
     3
100
AcDbLine
 10
13.91022403867494
 20
13.49999811626265
 30
0.0
 11
13.91022403867494
 21
13.35497675885932
 31
0.0
  0
ARC
  5
348
330
2E1
100
AcDbEntity
  8
1
  6
Continuous
 62
     3
100
AcDbCircle
 10
15.41022403867494
 20
13.49999811626265
 30
0.0
 40
1.5
100
AcDbArc
 50
90.0
 51
180.0
  0
ARC
  5
349
330
2E1
100
AcDbEntity
  8
1
  6
Continuous
 62
     3
100
AcDbCircle
 10
15.41022403867494
 20
13.49999811626265
 30
0.0
 40
1.5
100
AcDbArc
 50
90.0
 51
180.0
  0
LINE
  5
34A
330
2E1
100
AcDbEntity
  8
1
  6
Continuous
 62
     3
100
AcDbLine
 10
17.81022403867494
 20
-0.0000018837373545
 30
0.0
 11
19.66022403867494
 21
-0.0000018837373545
 31
0.0
  0
LINE
  5
34B
330
2E1
100
AcDbEntity
  8
1
  6
Continuous
 62
     3
100
AcDbLine
 10
20.16022403867494
 20
-0.0000018837373545
 30
0.0
 11
20.66022403867494
 21
-0.0000018837373545
 31
0.0
  0
LINE
  5
34C
330
2E1
100
AcDbEntity
  8
1
  6
Continuous
 62
     3
100
AcDbLine
 10
21.16022403867494
 20
-0.0000018837373545
 30
0.0
 11
21.66022403867494
 21
-0.0000018837373545
 31
0.0
  0
LINE
  5
34D
330
2E1
100
AcDbEntity
  8
1
  6
Continuous
 62
     3
100
AcDbLine
 10
22.16022403867494
 20
-0.0000018837373545
 30
0.0
 11
22.66022403867494
 21
-0.0000018837373545
 31
0.0
  0
LINE
  5
34E
330
2E1
100
AcDbEntity
  8
1
  6
Continuous
 62
     3
100
AcDbLine
 10
23.16022403867494
 20
-0.0000018837373545
 30
0.0
 11
23.91022403867494
 21
-0.0000018837373545
 31
0.0
  0
ARC
  5
34F
330
2E1
100
AcDbEntity
  8
1
  6
Continuous
 62
     3
100
AcDbCircle
 10
22.91022403867494
 20
-0.0000018837373545
 30
0.0
 40
0.25
100
AcDbArc
 50
0.0
 51
180.0
  0
ARC
  5
350
330
2E1
100
AcDbEntity
  8
1
  6
Continuous
 62
     3
100
AcDbCircle
 10
22.91022403867494
 20
-0.0000018837373545
 30
0.0
 40
0.25
100
AcDbArc
 50
0.0
 51
180.0
  0
ARC
  5
351
330
2E1
100
AcDbEntity
  8
1
  6
Continuous
 62
     3
100
AcDbCircle
 10
21.91022403867494
 20
-0.0000018837373545
 30
0.0
 40
0.25
100
AcDbArc
 50
0.0
 51
180.0
  0
ARC
  5
352
330
2E1
100
AcDbEntity
  8
1
  6
Continuous
 62
     3
100
AcDbCircle
 10
21.91022403867494
 20
-0.0000018837373545
 30
0.0
 40
0.25
100
AcDbArc
 50
0.0
 51
180.0
  0
ARC
  5
353
330
2E1
100
AcDbEntity
  8
1
  6
Continuous
 62
     3
100
AcDbCircle
 10
20.91022403867494
 20
-0.0000018837373545
 30
0.0
 40
0.25
100
AcDbArc
 50
0.0
 51
180.0
  0
ARC
  5
354
330
2E1
100
AcDbEntity
  8
1
  6
Continuous
 62
     3
100
AcDbCircle
 10
20.91022403867494
 20
-0.0000018837373545
 30
0.0
 40
0.25
100
AcDbArc
 50
0.0
 51
180.0
  0
ARC
  5
355
330
2E1
100
AcDbEntity
  8
1
  6
Continuous
 62
     3
100
AcDbCircle
 10
19.91022403867494
 20
-0.0000018837373545
 30
0.0
 40
0.25
100
AcDbArc
 50
0.0
 51
180.0
  0
ARC
  5
356
330
2E1
100
AcDbEntity
  8
1
  6
Continuous
 62
     3
100
AcDbCircle
 10
19.91022403867494
 20
-0.0000018837373545
 30
0.0
 40
0.25
100
AcDbArc
 50
0.0
 51
180.0
  0
ARC
  5
357
330
2E1
100
AcDbEntity
  8
1
  6
Continuous
 62
     3
100
AcDbCircle
 10
59.91022403867493
 20
3.697068617902488
 30
0.0
 40
2.5
100
AcDbArc
 50
54.5799295400786
 51
93.6702573747949
  0
ARC
  5
358
330
2E1
100
AcDbEntity
  8
1
  6
Continuous
 62
     3
100
AcDbCircle
 10
59.91022403867493
 20
3.697068617902488
 30
0.0
 40
2.5
100
AcDbArc
 50
54.5799295400786
 51
93.6702573747949
  0
ARC
  5
359
330
2E1
100
AcDbEntity
  8
1
  6
Continuous
 62
     3
100
AcDbCircle
 10
59.91022403867493
 20
3.697068617902488
 30
0.0
 40
2.5
100
AcDbArc
 50
93.6702573747949
 51
109.2360336359783
  0
ARC
  5
35A
330
2E1
100
AcDbEntity
  8
1
  6
Continuous
 62
     3
100
AcDbCircle
 10
59.91022403867493
 20
3.697068617902488
 30
0.0
 40
2.5
100
AcDbArc
 50
93.6702573747949
 51
109.2360336359783
  0
ARC
  5
35B
330
2E1
100
AcDbEntity
  8
1
  6
Continuous
 62
     3
100
AcDbCircle
 10
59.91022403867493
 20
3.697068617902488
 30
0.0
 40
1.25
100
AcDbArc
 50
289.9999999999999
 51
109.236033635978
  0
ARC
  5
35C
330
2E1
100
AcDbEntity
  8
1
  6
Continuous
 62
     3
100
AcDbCircle
 10
59.91022403867493
 20
3.697068617902488
 30
0.0
 40
1.25
100
AcDbArc
 50
289.9999999999999
 51
109.236033635978
  0
ARC
  5
35D
330
2E1
100
AcDbEntity
  8
1
  6
Continuous
 62
     3
100
AcDbCircle
 10
56.62129986592424
 20
2.499998116262645
 30
0.0
 40
1.25
100
AcDbArc
 50
109.9999999999994
 51
290.0000000000007
  0
ARC
  5
35E
330
2E1
100
AcDbEntity
  8
1
  6
Continuous
 62
     3
100
AcDbCircle
 10
56.62129986592424
 20
2.499998116262645
 30
0.0
 40
1.25
100
AcDbArc
 50
109.9999999999994
 51
290.0000000000007
  0
LINE
  5
35F
330
2E1
100
AcDbEntity
  8
1
  6
Continuous
 62
     3
100
AcDbLine
 10
57.04882504508134
 20
1.325382340280271
 30
0.0
 11
58.30325501445859
 21
1.781957510105045
 31
0.0
  0
ARC
  5
360
330
2E1
100
AcDbEntity
  8
1
  6
Continuous
 62
     3
100
AcDbCircle
 10
55.9565767875599
 20
4.253214654254975
 30
0.0
 40
0.625
100
AcDbArc
 50
290.7639663640226
 51
110.7639663640213
  0
ARC
  5
361
330
2E1
100
AcDbEntity
  8
1
  6
Continuous
 62
     3
100
AcDbCircle
 10
55.9565767875599
 20
4.253214654254975
 30
0.0
 40
0.625
100
AcDbArc
 50
290.7639663640226
 51
110.7639663640213
  0
ARC
  5
362
330
2E1
100
AcDbEntity
  8
1
  6
Continuous
 62
     3
100
AcDbCircle
 10
59.29248559134987
 20
5.467386163061093
 30
0.0
 40
0.625
100
AcDbArc
 50
109.2360336359775
 51
289.2360336359785
  0
ARC
  5
363
330
2E1
100
AcDbEntity
  8
1
  6
Continuous
 62
     3
100
AcDbCircle
 10
59.29248559134987
 20
5.467386163061093
 30
0.0
 40
0.625
100
AcDbArc
 50
109.2360336359775
 51
289.2360336359785
  0
LINE
  5
364
330
2E1
100
AcDbEntity
  8
1
  6
Continuous
 62
     3
100
AcDbLine
 10
60.33774921783203
 20
2.522452841920114
 30
0.0
 11
58.30325501445859
 21
1.781957510105045
 31
0.0
  0
ARC
  5
365
330
2E1
100
AcDbEntity
  8
1
  6
Continuous
 62
     3
100
AcDbCircle
 10
56.62129986592424
 20
2.499998116262645
 30
0.0
 40
2.5
100
AcDbArc
 50
110.0
 51
155.8061175462502
  0
ARC
  5
366
330
2E1
100
AcDbEntity
  8
1
  6
Continuous
 62
     3
100
AcDbCircle
 10
56.62129986592424
 20
2.499998116262645
 30
0.0
 40
2.5
100
AcDbArc
 50
110.0
 51
155.8061175462502
  0
ARC
  5
367
330
2E1
100
AcDbEntity
  8
1
  6
Continuous
 62
     3
100
AcDbCircle
 10
59.98116900605754
 20
2.662250620025461
 30
0.0
 40
1.451970736947295
100
AcDbArc
 50
232.0129704852096
 51
232.0129704852108
  0
ARC
  5
368
330
2E1
100
AcDbEntity
  8
1
  6
Continuous
 62
     3
100
AcDbCircle
 10
59.98116900605754
 20
2.662250620025461
 30
0.0
 40
1.451970736947295
100
AcDbArc
 50
232.0129704852096
 51
232.0129704852108
  0
ARC
  5
369
330
2E1
100
AcDbEntity
  8
1
  6
Continuous
 62
     3
100
AcDbCircle
 10
53.88480822892966
 20
3.729475045960243
 30
0.0
 40
0.5
100
AcDbArc
 50
273.3715373382716
 51
335.8061175462503
  0
ARC
  5
36A
330
2E1
100
AcDbEntity
  8
1
  6
Continuous
 62
     3
100
AcDbCircle
 10
53.88480822892966
 20
3.729475045960243
 30
0.0
 40
0.5
100
AcDbArc
 50
273.3715373382716
 51
335.8061175462503
  0
ARC
  5
36B
330
2E1
100
AcDbEntity
  8
1
  6
Continuous
 62
     3
100
AcDbCircle
 10
59.91022403867493
 20
3.697068617902488
 30
0.0
 40
2.5
100
AcDbArc
 50
54.5799295400786
 51
93.6702573747949
  0
ARC
  5
36C
330
2E1
100
AcDbEntity
  8
1
  6
Continuous
 62
     3
100
AcDbCircle
 10
59.91022403867493
 20
3.697068617902488
 30
0.0
 40
2.5
100
AcDbArc
 50
54.5799295400786
 51
93.6702573747949
  0
ARC
  5
36D
330
2E1
100
AcDbEntity
  8
1
  6
Continuous
 62
     3
100
AcDbCircle
 10
59.91022403867493
 20
3.697068617902488
 30
0.0
 40
2.5
100
AcDbArc
 50
93.6702573747949
 51
109.2360336359783
  0
ARC
  5
36E
330
2E1
100
AcDbEntity
  8
1
  6
Continuous
 62
     3
100
AcDbCircle
 10
59.91022403867493
 20
3.697068617902488
 30
0.0
 40
2.5
100
AcDbArc
 50
93.6702573747949
 51
109.2360336359783
  0
ARC
  5
36F
330
2E1
100
AcDbEntity
  8
1
  6
Continuous
 62
     3
100
AcDbCircle
 10
59.91022403867493
 20
3.697068617902488
 30
0.0
 40
1.25
100
AcDbArc
 50
289.9999999999999
 51
109.236033635978
  0
ARC
  5
370
330
2E1
100
AcDbEntity
  8
1
  6
Continuous
 62
     3
100
AcDbCircle
 10
59.91022403867493
 20
3.697068617902488
 30
0.0
 40
1.25
100
AcDbArc
 50
289.9999999999999
 51
109.236033635978
  0
ARC
  5
371
330
2E1
100
AcDbEntity
  8
1
  6
Continuous
 62
     3
100
AcDbCircle
 10
59.29248559134987
 20
5.467386163061093
 30
0.0
 40
0.625
100
AcDbArc
 50
109.2360336359775
 51
289.2360336359785
  0
ARC
  5
372
330
2E1
100
AcDbEntity
  8
1
  6
Continuous
 62
     3
100
AcDbCircle
 10
59.29248559134987
 20
5.467386163061093
 30
0.0
 40
0.625
100
AcDbArc
 50
109.2360336359775
 51
289.2360336359785
  0
LINE
  5
373
330
2E1
100
AcDbEntity
  8
1
  6
Continuous
 62
     3
100
AcDbLine
 10
60.33774921783203
 20
2.522452841920114
 30
0.0
 11
58.30325501445859
 21
1.781957510105045
 31
0.0
  0
ARC
  5
374
330
2E1
100
AcDbEntity
  8
1
  6
Continuous
 62
     3
100
AcDbCircle
 10
59.98116900605754
 20
2.662250620025461
 30
0.0
 40
1.451970736947295
100
AcDbArc
 50
232.0129704852096
 51
232.0129704852108
  0
ARC
  5
375
330
2E1
100
AcDbEntity
  8
1
  6
Continuous
 62
     3
100
AcDbCircle
 10
59.98116900605754
 20
2.662250620025461
 30
0.0
 40
1.451970736947295
100
AcDbArc
 50
232.0129704852096
 51
232.0129704852108
  0
ARC
  5
376
330
2E1
100
AcDbEntity
  8
1
  6
Continuous
 62
     3
100
AcDbCircle
 10
12.91022403867494
 20
9.181868441339091
 30
0.0
 40
1.0
100
AcDbArc
 50
0.0
 51
107.1859379357978
  0
ARC
  5
377
330
2E1
100
AcDbEntity
  8
1
  6
Continuous
 62
     3
100
AcDbCircle
 10
12.91022403867494
 20
9.181868441339091
 30
0.0
 40
1.0
100
AcDbArc
 50
0.0
 51
107.1859379357978
  0
ARC
  5
378
330
2E1
100
AcDbEntity
  8
1
  6
Continuous
 62
     3
100
AcDbCircle
 10
13.41022403867494
 20
13.35497675885932
 30
0.0
 40
0.5
100
AcDbArc
 50
283.5307464986788
 51
0.0
  0
ARC
  5
379
330
2E1
100
AcDbEntity
  8
1
  6
Continuous
 62
     3
100
AcDbCircle
 10
13.41022403867494
 20
13.35497675885932
 30
0.0
 40
0.5
100
AcDbArc
 50
283.5307464986788
 51
0.0
  0
LINE
  5
37A
330
2E1
100
AcDbEntity
  8
1
  6
Continuous
 62
     3
100
AcDbLine
 10
71.99999707613033
 20
6.594386132333639
 30
0.0
 11
71.99999707613033
 21
0.4999981162626455
 31
0.0
  0
LINE
  5
37B
330
2E1
100
AcDbEntity
  8
1
  6
Continuous
 62
     3
100
AcDbLine
 10
71.49999707613033
 20
-0.0000018837373545
 30
0.0
 11
71.24999707613033
 21
-0.0000018837373545
 31
0.0
  0
LINE
  5
37C
330
2E1
100
AcDbEntity
  8
1
  6
Continuous
 62
     3
100
AcDbLine
 10
70.74999707613033
 20
1.719386123020413
 30
0.0
 11
70.74999707613033
 21
4.219386123020413
 31
0.0
  0
LINE
  5
37D
330
2E1
100
AcDbEntity
  8
1
  6
Continuous
 62
     3
100
AcDbLine
 10
70.24999707613033
 20
4.719386123020413
 30
0.0
 11
67.67420175309451
 21
4.719386123020413
 31
0.0
  0
ARC
  5
37E
330
2E1
100
AcDbEntity
  8
1
  6
Continuous
 62
     3
100
AcDbCircle
 10
70.24999707613033
 20
4.219386123020413
 30
0.0
 40
0.5
100
AcDbArc
 50
0.0
 51
90.0
  0
ARC
  5
37F
330
2E1
100
AcDbEntity
  8
1
  6
Continuous
 62
     3
100
AcDbCircle
 10
70.24999707613033
 20
4.219386123020413
 30
0.0
 40
0.5
100
AcDbArc
 50
0.0
 51
90.0
  0
ARC
  5
380
330
2E1
100
AcDbEntity
  8
1
  6
Continuous
 62
     3
100
AcDbCircle
 10
71.49999707613033
 20
0.4999981162626455
 30
0.0
 40
0.5
100
AcDbArc
 50
270.0
 51
0.0
  0
ARC
  5
381
330
2E1
100
AcDbEntity
  8
1
  6
Continuous
 62
     3
100
AcDbCircle
 10
71.49999707613033
 20
0.4999981162626455
 30
0.0
 40
0.5
100
AcDbArc
 50
270.0
 51
0.0
  0
ARC
  5
382
330
2E1
100
AcDbEntity
  8
1
  6
Continuous
 62
     3
100
AcDbCircle
 10
71.24999707613033
 20
0.4999981162626455
 30
0.0
 40
0.5
100
AcDbArc
 50
214.1404868935876
 51
270.0
  0
ARC
  5
383
330
2E1
100
AcDbEntity
  8
1
  6
Continuous
 62
     3
100
AcDbCircle
 10
71.24999707613033
 20
0.4999981162626455
 30
0.0
 40
0.5
100
AcDbArc
 50
214.1404868935876
 51
270.0
  0
ARC
  5
384
330
2E1
100
AcDbEntity
  8
1
  6
Continuous
 62
     3
100
AcDbCircle
 10
67.67420175309451
 20
4.219386123020413
 30
0.0
 40
0.5
100
AcDbArc
 50
90.0
 51
193.9748917934724
  0
ARC
  5
385
330
2E1
100
AcDbEntity
  8
1
  6
Continuous
 62
     3
100
AcDbCircle
 10
67.67420175309451
 20
4.219386123020413
 30
0.0
 40
0.5
100
AcDbArc
 50
90.0
 51
193.9748917934724
  0
ARC
  5
386
330
2E1
100
AcDbEntity
  8
1
  6
Continuous
 62
     3
100
AcDbCircle
 10
61.41155219859462
 20
1.050974062551177
 30
0.0
 40
0.5
100
AcDbArc
 50
36.74850782711038
 51
110.0000000000001
  0
ARC
  5
387
330
2E1
100
AcDbEntity
  8
1
  6
Continuous
 62
     3
100
AcDbCircle
 10
61.41155219859462
 20
1.050974062551177
 30
0.0
 40
0.5
100
AcDbArc
 50
36.74850782711038
 51
110.0000000000001
  0
ARC
  5
388
330
2E1
100
AcDbEntity
  8
1
  6
Continuous
 62
     3
100
AcDbCircle
 10
63.00078460928729
 20
6.34438613605893
 30
0.0
 40
0.5
100
AcDbArc
 50
90.0
 51
180.0
  0
ARC
  5
389
330
2E1
100
AcDbEntity
  8
1
  6
Continuous
 62
     3
100
AcDbCircle
 10
63.00078460928729
 20
6.34438613605893
 30
0.0
 40
0.5
100
AcDbArc
 50
90.0
 51
180.0
  0
LINE
  5
38A
330
2E1
100
AcDbEntity
  8
1
  6
Continuous
 62
     3
100
AcDbLine
 10
15.41022403867494
 20
5.499998116262645
 30
0.0
 11
16.17001381357601
 21
5.499998116262645
 31
0.0
  0
ARC
  5
38B
330
2E1
100
AcDbEntity
  8
1
  6
Continuous
 62
     3
100
AcDbCircle
 10
15.41022403867494
 20
6.999998116262645
 30
0.0
 40
1.5
100
AcDbArc
 50
180.0
 51
270.0
  0
ARC
  5
38C
330
2E1
100
AcDbEntity
  8
1
  6
Continuous
 62
     3
100
AcDbCircle
 10
15.41022403867494
 20
6.999998116262645
 30
0.0
 40
1.5
100
AcDbArc
 50
180.0
 51
270.0
  0
LINE
  5
38D
330
2E1
100
AcDbEntity
  8
1
  6
Continuous
 62
     3
100
AcDbLine
 10
18.41022403867494
 20
7.449998116262648
 30
0.0
 11
22.16022403867494
 21
7.449998116262648
 31
0.0
  0
ARC
  5
38E
330
2E1
100
AcDbEntity
  8
1
  6
Continuous
 62
     3
100
AcDbCircle
 10
24.86451048596902
 20
2.758373965323088
 30
0.0
 40
0.5
100
AcDbArc
 50
194.5899286808287
 51
271.9168813238778
  0
ARC
  5
38F
330
2E1
100
AcDbEntity
  8
1
  6
Continuous
 62
     3
100
AcDbCircle
 10
24.86451048596902
 20
2.758373965323088
 30
0.0
 40
0.5
100
AcDbArc
 50
194.5899286808287
 51
271.9168813238778
  0
LINE
  5
390
330
2E1
100
AcDbEntity
  8
1
  6
Continuous
 62
     3
100
AcDbLine
 10
16.60302651546823
 20
5.249998116262645
 30
0.0
 11
17.5514049935724
 21
3.607358407381355
 31
0.0
  0
ARC
  5
391
330
2E1
100
AcDbEntity
  8
1
  6
Continuous
 62
     3
100
AcDbCircle
 10
16.17001381357601
 20
4.999998116262645
 30
0.0
 40
0.5
100
AcDbArc
 50
29.99999999999993
 51
90.0
  0
ARC
  5
392
330
2E1
100
AcDbEntity
  8
1
  6
Continuous
 62
     3
100
AcDbCircle
 10
16.17001381357601
 20
4.999998116262645
 30
0.0
 40
0.5
100
AcDbArc
 50
29.99999999999993
 51
90.0
  0
LINE
  5
393
330
2E1
100
AcDbEntity
  8
1
  6
Continuous
 62
     3
100
AcDbLine
 10
70.24999707613033
 20
1.219386123020413
 30
0.0
 11
69.74999707613033
 21
1.219386123020413
 31
0.0
  0
ARC
  5
394
330
2E1
100
AcDbEntity
  8
1
  6
Continuous
 62
     3
100
AcDbCircle
 10
69.74999707613033
 20
0.7193861230204135
 30
0.0
 40
0.5
100
AcDbArc
 50
90.0
 51
270.0
  0
ARC
  5
395
330
2E1
100
AcDbEntity
  8
1
  6
Continuous
 62
     3
100
AcDbCircle
 10
69.74999707613033
 20
0.7193861230204135
 30
0.0
 40
0.5
100
AcDbArc
 50
90.0
 51
270.0
  0
LINE
  5
396
330
2E1
100
AcDbEntity
  8
1
  6
Continuous
 62
     3
100
AcDbLine
 10
69.74999707613033
 20
0.2193861230204135
 30
0.0
 11
70.83616509422387
 21
0.2193861230204135
 31
0.0
  0
ARC
  5
397
330
2E1
100
AcDbEntity
  8
1
  6
Continuous
 62
     3
100
AcDbCircle
 10
70.24999707613033
 20
1.719386123020413
 30
0.0
 40
0.5
100
AcDbArc
 50
270.0
 51
0.0
  0
ARC
  5
398
330
2E1
100
AcDbEntity
  8
1
  6
Continuous
 62
     3
100
AcDbCircle
 10
70.24999707613033
 20
1.719386123020413
 30
0.0
 40
0.5
100
AcDbArc
 50
270.0
 51
0.0
  0
ENDBLK
  5
2E3
330
2E1
100
AcDbEntity
  8
0
100
AcDbBlockEnd
  0
BLOCK
  5
39A
330
399
100
AcDbEntity
  8
0
100
AcDbBlockBegin
  2
GEN_BLOCK00011
 70
     0
 10
0.0
 20
0.0
 30
0.0
  3
GEN_BLOCK00011
  1
GEN_BLOCK00011
  0
LINE
  5
39D
330
399
100
AcDbEntity
  8
1
  6
HIDDEN
 62
     3
100
AcDbLine
 10
0.0000001893828454
 20
0.000000028004564
 30
0.0
 11
0.0000001893828454
 21
0.000000028004564
 31
0.0
  0
ENDBLK
  5
39B
330
399
100
AcDbEntity
  8
0
100
AcDbBlockEnd
  0
BLOCK
  5
39F
330
39E
100
AcDbEntity
  8
0
100
AcDbBlockBegin
  2
GEN_BLOCK00012
 70
     0
 10
0.0
 20
0.0
 30
0.0
  3
GEN_BLOCK00012
  1
GEN_BLOCK00012
  0
LINE
  5
3A2
330
39E
100
AcDbEntity
  8
0
  6
Continuous
 62
     9
100
AcDbLine
 10
0.0000026988430477
 20
18.00000724078798
 30
0.0
 11
196.0200119639592
 21
18.00000724078798
 31
0.0
  0
LINE
  5
3A3
330
39E
100
AcDbEntity
  8
0
  6
Continuous
 62
     9
100
AcDbLine
 10
114.000002698843
 20
18.00000724078797
 30
0.0
 11
114.000002698843
 21
0.0000072407879657
 31
0.0
  0
LINE
  5
3A4
330
39E
100
AcDbEntity
  8
0
  6
Continuous
 62
     9
100
AcDbLine
 10
103.7450599639593
 20
28.00000724078797
 30
0.0
 11
103.7450599639593
 21
18.00000724078797
 31
0.0
  0
LINE
  5
3A5
330
39E
100
AcDbEntity
  8
0
  6
Continuous
 62
     9
100
AcDbLine
 10
135.1700439639593
 20
18.00000724078797
 30
0.0
 11
135.1700439639593
 21
38.00000724078797
 31
0.0
  0
LINE
  5
3A6
330
39E
100
AcDbEntity
  8
0
  6
Continuous
 62
     9
100
AcDbLine
 10
166.5950279639593
 20
18.00000724078797
 30
0.0
 11
166.5950279639593
 21
38.00000724078797
 31
0.0
  0
LINE
  5
3A7
330
39E
100
AcDbEntity
  8
0
  6
Continuous
 62
     9
100
AcDbLine
 10
114.000002698843
 20
9.000007240787909
 30
0.0
 11
196.0200119639592
 21
9.000007240787966
 31
0.0
  0
LINE
  5
3A8
330
39E
100
AcDbEntity
  8
0
  6
Continuous
 62
     9
100
AcDbLine
 10
135.1700439639593
 20
38.00000724078798
 30
0.0
 11
196.0200119639592
 21
38.00000724078797
 31
0.0
  0
LINE
  5
3A9
330
39E
100
AcDbEntity
  8
0
  6
Continuous
 62
     9
100
AcDbLine
 10
103.7450599639593
 20
28.00000724078797
 30
0.0
 11
196.0200119639592
 21
28.00000724078797
 31
0.0
  0
LINE
  5
3AA
330
39E
100
AcDbEntity
  8
0
  6
Continuous
 62
     9
100
AcDbLine
 10
0.0000026988430477
 20
0.0000072407879657
 30
0.0
 11
0.0000026988430477
 21
0.0000072407879657
 31
0.0
  0
LINE
  5
3AB
330
39E
100
AcDbEntity
  8
0
  6
Continuous
 62
     9
100
AcDbLine
 10
196.0200119639592
 20
0.0000072407879657
 30
0.0
 11
196.0200119639592
 21
283.0594585255471
 31
0.0
  0
LINE
  5
3AC
330
39E
100
AcDbEntity
  8
0
  6
Continuous
 62
     9
100
AcDbLine
 10
0.0000026988430477
 20
0.0000072407879657
 30
0.0
 11
0.0000026988430477
 21
283.0594585255471
 31
0.0
  0
LINE
  5
3AD
330
39E
100
AcDbEntity
  8
0
  6
Continuous
 62
     9
100
AcDbLine
 10
0.0000026988430477
 20
283.0594585255471
 30
0.0
 11
196.0200119639592
 21
283.0594585255471
 31
0.0
  0
LINE
  5
3AE
330
39E
100
AcDbEntity
  8
0
  6
Continuous
 62
     9
100
AcDbLine
 10
196.0200119639592
 20
0.0000072407879657
 30
0.0
 11
196.0200119639592
 21
0.0000072407879657
 31
0.0
  0
LINE
  5
3AF
330
39E
100
AcDbEntity
  8
0
  6
Continuous
 62
     9
100
AcDbLine
 10
196.0200119639592
 20
0.0000072407879657
 30
0.0
 11
0.0000026988430477
 21
0.0000072407879657
 31
0.0
  0
ENDBLK
  5
3A0
330
39E
100
AcDbEntity
  8
0
100
AcDbBlockEnd
  0
BLOCK
  5
3B1
330
3B0
100
AcDbEntity
  8
0
100
AcDbBlockBegin
  2
PROTO
 70
     2
 10
0.0
 20
0.0
 30
0.0
  3
PROTO
  1
PROTO
  0
ATTDEF
  5
3B3
330
3B0
100
AcDbEntity
  8
0
100
AcDbText
 10
0.0
 20
0.0
 30
0.0
 40
1.0
  1

100
AcDbAttributeDefinition
  3
Enter PAT_NAME
  2
PAT_NAME
 70
     0
280
     0
  0
TEXT
  5
3B7
330
3B0
100
AcDbEntity
  8
0
  6
Continuous
 62
    15
100
AcDbText
 10
52.34669469868066
 20
10.46824645996094
 30
0.0
 40
1.759999990463257
  1
Mountpleasant, Dundalk, Ireland
  7
ARIAL
100
AcDbText
  0
TEXT
  5
3B8
330
3B0
100
AcDbEntity
  8
0
  6
Continuous
 62
    15
100
AcDbText
 10
55.05813795981885
 20
7.476246118545532
 30
0.0
 40
1.759999990463257
  1
Telephone (353/42) 9371244
  7
ARIAL
100
AcDbText
  0
TEXT
  5
3B9
330
3B0
100
AcDbEntity
  8
0
  6
Continuous
 62
    15
100
AcDbText
 10
59.36454784515595
 20
4.484245777130127
 30
0.0
 40
1.759999990463257
  1
Fax (353/42) 9371221
  7
ARIAL
100
AcDbText
  0
TEXT
  5
3BA
330
3B0
100
AcDbEntity
  8
0
  6
Continuous
 62
    15
100
AcDbText
 10
112.7659931182861
 20
4.708246469497681
 30
0.0
 40
1.759999990463257
  1
DESCRIPTION
  7
ARIAL
100
AcDbText
  0
TEXT
  5
3BB
330
3B0
100
AcDbEntity
  8
0
  6
Continuous
 62
    15
100
AcDbText
 10
112.7659931182861
 20
13.70825409889221
 30
0.0
 40
1.759999990463257
  1
CODE
  7
ARIAL
100
AcDbText
  0
TEXT
  5
3BC
330
3B0
100
AcDbEntity
  8
0
  6
Continuous
 62
    15
100
AcDbText
 10
102.5110511779785
 20
23.70825409889221
 30
0.0
 40
1.759999990463257
  1
DRAWN
  7
ARIAL
100
AcDbText
  0
TEXT
  5
3BD
330
3B0
100
AcDbEntity
  8
0
  6
Continuous
 62
    15
100
AcDbText
 10
133.93603515625
 20
23.70825409889221
 30
0.0
 40
1.759999990463257
  1
DRAWING No
  7
ARIAL
100
AcDbText
  0
TEXT
  5
3BE
330
3B0
100
AcDbEntity
  8
0
  6
Continuous
 62
    15
100
AcDbText
 10
133.93603515625
 20
33.70825409889221
 30
0.0
 40
1.759999990463257
  1
SCALE
  7
ARIAL
100
AcDbText
  0
TEXT
  5
3BF
330
3B0
100
AcDbEntity
  8
0
  6
Continuous
 62
    15
100
AcDbText
 10
165.3610229492188
 20
33.70825409889221
 30
0.0
 40
1.759999990463257
  1
APPROVED
  7
ARIAL
100
AcDbText
  0
TEXT
  5
3C0
330
3B0
100
AcDbEntity
  8
0
  6
Continuous
 62
    15
100
AcDbText
 10
165.3610229492188
 20
23.70825409889221
 30
0.0
 40
1.759999990463257
  1
DATE
  7
ARIAL
100
AcDbText
  0
TEXT
  5
3C1
330
3B0
100
AcDbEntity
  8
0
  6
Continuous
 62
    15
100
AcDbText
 10
110.786003112793
 20
279.4977099895477
 30
0.0
 40
1.059999942779541
  1
DATE
  7
ARIAL
100
AcDbText
  0
TEXT
  5
3C2
330
3B0
100
AcDbEntity
  8
0
  6
Continuous
 62
    15
100
AcDbText
 10
118.786003112793
 20
279.4977099895477
 30
0.0
 40
1.059999942779541
  1
ISSUE
  7
ARIAL
100
AcDbText
  0
TEXT
  5
3C3
330
3B0
100
AcDbEntity
  8
0
  6
Continuous
 62
    15
100
AcDbText
 10
144.786003112793
 20
279.4977099895477
 30
0.0
 40
1.059999942779541
  1
CHANGE
  7
ARIAL
100
AcDbText
  0
TEXT
  5
3C4
330
3B0
100
AcDbEntity
  8
0
  6
Continuous
 62
    15
100
AcDbText
 10
177.286003112793
 20
279.4977099895477
 30
0.0
 40
1.059999942779541
  1
SIGNED
  7
ARIAL
100
AcDbText
  0
TEXT
  5
3C5
330
3B0
100
AcDbEntity
  8
0
  6
Continuous
 62
    15
100
AcDbText
 10
0.581207275390625
 20
278.9977099895477
 30
0.0
 40
1.059999942779541
  1
THIS DRAWING  IS  THE PROPERTY OF  EXITEX  LTD  AND  MUST
  7
ARIAL
100
AcDbText
  0
TEXT
  5
3C6
330
3B0
100
AcDbEntity
  8
0
  6
Continuous
 62
    15
100
AcDbText
 10
0.581207275390625
 20
277.1957098245621
 30
0.0
 40
1.059999942779541
  1
NOT BE REPRODUCED IN WHOLE OR IN PART WITHOUT CONSENT
  7
ARIAL
100
AcDbText
  0
TEXT
  5
3C7
330
3B0
100
AcDbEntity
  8
0
  6
Continuous
 62
    15
100
AcDbText
 10
0.581207275390625
 20
275.3937096595764
 30
0.0
 40
1.059999942779541
  1
C  COPYRIGHT EXITEX.
  7
ARIAL
100
AcDbText
  0
TEXT
  5
3C8
330
3B0
100
AcDbEntity
  8
0
  6
Continuous
 62
    15
100
AcDbText
 10
165.3610229492188
 20
28.96158814430237
 30
0.0
 40
1.759999990463257
  1
SBG
  7
ARIAL
100
AcDbText
  0
TEXT
  5
3C9
330
3B0
100
AcDbEntity
  8
0
  6
Continuous
 62
    15
100
AcDbText
 10
165.3610229492188
 20
19.07084107398987
 30
0.0
 40
1.759999990463257
  1
16/06/15
  7
ARIAL
100
AcDbText
  0
TEXT
  5
3CA
330
3B0
100
AcDbEntity
  8
0
  6
Continuous
 62
    15
100
AcDbText
 10
112.7659931182861
 20
9.831583261489868
 30
0.0
 40
1.759999990463257
  1
MXS 15-72 FS
  7
ARIAL
100
AcDbText
  0
TEXT
  5
3CB
330
3B0
100
AcDbEntity
  8
0
  6
Continuous
 62
    15
100
AcDbText
 10
112.7659931182861
 20
0.7699987888336182
 30
0.0
 40
1.759999990463257
  1
MXS 15-72 frame specific
  7
ARIAL
100
AcDbText
  0
ENDBLK
  5
3B2
330
3B0
100
AcDbEntity
  8
0
100
AcDbBlockEnd
  0
BLOCK
  5
3CD
330
3CC
100
AcDbEntity
  8
0
100
AcDbBlockBegin
  2
_RASTER_[__EXITEX-DC2_ARTWORK_PIERCE_COMMUNICATIONS_LOGO_EXITEXLOGOSMALLVERSION_JPG]
 70
     2
 10
0.0
 20
0.0
 30
0.0
  3
_RASTER_[__EXITEX-DC2_ARTWORK_PIERCE_COMMUNICATIONS_LOGO_EXITEXLOGOSMALLVERSION_JPG]
  1
_RASTER_[__EXITEX-DC2_ARTWORK_PIERCE_COMMUNICATIONS_LOGO_EXITEXLOGOSMALLVERSION_JPG]
  0
ATTDEF
  5
3CF
330
3CC
100
AcDbEntity
  8
1
100
AcDbText
 10
0.0
 20
0.0
 30
0.0
 40
1.0
  1

100
AcDbAttributeDefinition
  3
Enter PAT_NAME
  2
PAT_NAME
 70
     0
280
     0
  0
ENDBLK
  5
3CE
330
3CC
100
AcDbEntity
  8
0
100
AcDbBlockEnd
  0
BLOCK
  5
3D4
330
3D3
100
AcDbEntity
  8
0
100
AcDbBlockBegin
  2
GEN_BLOCK00013
 70
     0
 10
0.0
 20
0.0
 30
0.0
  3
GEN_BLOCK00013
  1
GEN_BLOCK00013
  0
LINE
  5
3D7
330
3D3
100
AcDbEntity
  8
1
  6
Continuous
 62
     1
100
AcDbLine
 10
2.999999541248968
 20
34.68282246112823
 30
0.0
 11
3.000000226766922
 21
19.00000027726427
 31
0.0
  0
LINE
  5
3D8
330
3D3
100
AcDbEntity
  8
1
  6
Continuous
 62
     1
100
AcDbLine
 10
3.000001057283335
 20
0.000000172357062
 30
0.0
 11
3.000000882437774
 21
4.000000172357058
 31
0.0
  0
LINE
  5
3D9
330
3D3
100
AcDbEntity
  8
1
  6
Continuous
 62
     1
100
AcDbLine
 10
3.625000139344145
 20
21.00000030458388
 30
0.0
 11
3.000000226766922
 21
19.00000027726427
 31
0.0
  0
LINE
  5
3DA
330
3D3
100
AcDbEntity
  8
1
  6
Continuous
 62
     1
100
AcDbLine
 10
3.000000226766922
 20
19.00000027726427
 30
0.0
 11
2.375000139344145
 21
21.00000024994464
 31
0.0
  0
LINE
  5
3DB
330
3D3
100
AcDbEntity
  8
1
  6
Continuous
 62
     1
100
AcDbLine
 10
2.375000969860551
 20
2.000000145037443
 30
0.0
 11
3.000000882437774
 21
4.000000172357058
 31
0.0
  0
LINE
  5
3DC
330
3D3
100
AcDbEntity
  8
1
  6
Continuous
 62
     1
100
AcDbLine
 10
3.000000882437774
 20
4.000000172357058
 30
0.0
 11
3.625000969860551
 21
2.000000199676681
 31
0.0
  0
LINE
  5
3DD
330
3D3
100
AcDbEntity
  8
1
  6
Continuous
 62
     1
100
AcDbLine
 10
37.79198217391968
 20
19.00000179807016
 30
0.0
 11
0.4000002267669274
 21
19.00000016361465
 31
0.0
  0
LINE
  5
3DE
330
3D3
100
AcDbEntity
  8
1
  6
Continuous
 62
     1
100
AcDbLine
 10
40.19197988510132
 20
4.000001798070159
 30
0.0
 11
0.4000008824377801
 21
4.000000058707442
 31
0.0
  0
TEXT
  5
3DF
330
3D3
100
AcDbEntity
  8
1
  6
Continuous
 62
     3
100
AcDbText
 10
2.49996839652254
 20
26.27652005026322
 30
0.0
 40
2.5
  1
15.0
 50
89.71352388012032
100
AcDbText
  0
LINE
  5
3E0
330
3D3
100
AcDbEntity
  8
1
  6
Continuous
 62
     1
100
AcDbLine
 10
103.9725424131757
 20
0.0000022391526286
 30
0.0
 11
103.9725422383302
 21
4.000002239152625
 31
0.0
  0
LINE
  5
3E1
330
3D3
100
AcDbEntity
  8
1
  6
Continuous
 62
     1
100
AcDbLine
 10
103.9725414421249
 20
22.21505500793457
 30
0.0
 11
103.9725419391525
 21
10.84438928266812
 31
0.0
  0
LINE
  5
3E2
330
3D3
100
AcDbEntity
  8
1
  6
Continuous
 62
     1
100
AcDbLine
 10
103.347542325753
 20
2.00000221183301
 30
0.0
 11
103.9725422383302
 21
4.000002239152625
 31
0.0
  0
LINE
  5
3E3
330
3D3
100
AcDbEntity
  8
1
  6
Continuous
 62
     1
100
AcDbLine
 10
103.9725422383302
 20
4.000002239152625
 30
0.0
 11
104.597542325753
 21
2.000002266472247
 31
0.0
  0
LINE
  5
3E4
330
3D3
100
AcDbEntity
  8
1
  6
Continuous
 62
     1
100
AcDbLine
 10
104.5975418517297
 20
12.84438930998774
 30
0.0
 11
103.9725419391525
 21
10.84438928266812
 31
0.0
  0
LINE
  5
3E5
330
3D3
100
AcDbEntity
  8
1
  6
Continuous
 62
     1
100
AcDbLine
 10
103.9725419391525
 20
10.84438928266812
 30
0.0
 11
103.3475418517297
 21
12.8443892553485
 31
0.0
  0
LINE
  5
3E6
330
3D3
100
AcDbEntity
  8
1
  6
Continuous
 62
     1
100
AcDbLine
 10
98.88175201416016
 20
4.000002016627107
 30
0.0
 11
106.5725422383302
 21
4.000002352802237
 31
0.0
  0
LINE
  5
3E7
330
3D3
100
AcDbEntity
  8
1
  6
Continuous
 62
     1
100
AcDbLine
 10
99.13175201416016
 20
10.84438907107046
 30
0.0
 11
106.5725419391525
 21
10.84438939631773
 31
0.0
  0
TEXT
  5
3E8
330
3D3
100
AcDbEntity
  8
1
  6
Continuous
 62
     3
100
AcDbText
 10
103.4725102712284
 20
15.90876572185313
 30
0.0
 40
2.5
  1
6.8
 50
89.71352388012032
100
AcDbText
  0
ENDBLK
  5
3D5
330
3D3
100
AcDbEntity
  8
0
100
AcDbBlockEnd
  0
BLOCK
  5
3EA
330
3E9
100
AcDbEntity
  8
0
100
AcDbBlockBegin
  2
GEN_BLOCK00014
 70
     0
 10
0.0
 20
0.0
 30
0.0
  3
GEN_BLOCK00014
  1
GEN_BLOCK00014
  0
LINE
  5
3ED
330
3E9
100
AcDbEntity
  8
1
  6
Continuous
 62
     3
100
AcDbLine
 10
0.000000538336181
 20
-0.0000003279003096
 30
0.0
 11
0.000000538336181
 21
98.5337107689907
 31
0.0
  0
LINE
  5
3EE
330
3E9
100
AcDbEntity
  8
1
  6
Continuous
 62
     3
100
AcDbLine
 10
0.000000538336181
 20
98.5337107689907
 30
0.0
 11
22.45576670490182
 21
98.5337107689907
 31
0.0
  0
LINE
  5
3EF
330
3E9
100
AcDbEntity
  8
1
  6
Continuous
 62
     3
100
AcDbLine
 10
22.45576670490182
 20
98.5337107689907
 30
0.0
 11
22.45576670490182
 21
15.49999967209969
 31
0.0
  0
LINE
  5
3F0
330
3E9
100
AcDbEntity
  8
1
  6
Continuous
 62
     3
100
AcDbLine
 10
22.45576670490182
 20
98.5337107689907
 30
0.0
 11
26.45576670490182
 21
98.5337107689907
 31
0.0
  0
LINE
  5
3F1
330
3E9
100
AcDbEntity
  8
1
  6
Continuous
 62
     3
100
AcDbLine
 10
26.45576670490182
 20
98.5337107689907
 30
0.0
 11
41.21558908972439
 21
94.96169309453704
 31
0.0
  0
LINE
  5
3F2
330
3E9
100
AcDbEntity
  8
1
  6
Continuous
 62
     3
100
AcDbLine
 10
41.21558908972439
 20
94.96169309453704
 30
0.0
 11
54.40457742616864
 21
101.2814166724166
 31
0.0
  0
LINE
  5
3F3
330
3E9
100
AcDbEntity
  8
1
  6
Continuous
 62
     3
100
AcDbLine
 10
54.40457742616864
 20
101.2814166724166
 30
0.0
 11
66.2197128108999
 21
94.4121519138519
 31
0.0
  0
LINE
  5
3F4
330
3E9
100
AcDbEntity
  8
1
  6
Continuous
 62
     3
100
AcDbLine
 10
66.2197128108999
 20
94.4121519138519
 30
0.0
 11
73.45576670490182
 21
98.5337107689907
 31
0.0
  0
LINE
  5
3F5
330
3E9
100
AcDbEntity
  8
1
  6
Continuous
 62
     3
100
AcDbLine
 10
73.45576670490182
 20
98.5337107689907
 30
0.0
 11
73.45576670490182
 21
7.844387691895975
 31
0.0
  0
ENDBLK
  5
3EB
330
3E9
100
AcDbEntity
  8
0
100
AcDbBlockEnd
  0
BLOCK
  5
3F7
330
3F6
100
AcDbEntity
  8
0
100
AcDbBlockBegin
  2
GEN_BLOCK00015
 70
     0
 10
0.0
 20
0.0
 30
0.0
  3
GEN_BLOCK00015
  1
GEN_BLOCK00015
  0
ENDBLK
  5
3F8
330
3F6
100
AcDbEntity
  8
0
100
AcDbBlockEnd
  0
BLOCK
  5
3FB
330
3FA
100
AcDbEntity
  8
0
100
AcDbBlockBegin
  2
GEN_BLOCK00016
 70
     0
 10
0.0
 20
0.0
 30
0.0
  3
GEN_BLOCK00016
  1
GEN_BLOCK00016
  0
ARC
  5
3FE
330
3FA
100
AcDbEntity
  8
1
  6
Continuous
 62
     3
100
AcDbCircle
 10
31.15108383444844
 20
4.898946964062262
 30
0.0
 40
0.25
100
AcDbArc
 50
0.0
 51
177.845830724474
  0
ARC
  5
3FF
330
3FA
100
AcDbEntity
  8
1
  6
Continuous
 62
     3
100
AcDbCircle
 10
31.15108383444844
 20
4.898946964062262
 30
0.0
 40
0.25
100
AcDbArc
 50
0.0
 51
177.845830724474
  0
ARC
  5
400
330
3FA
100
AcDbEntity
  8
1
  6
Continuous
 62
     3
100
AcDbCircle
 10
31.15108383444844
 20
4.898946964062262
 30
0.0
 40
0.25
100
AcDbArc
 50
357.8458307244773
 51
0.0
  0
ARC
  5
401
330
3FA
100
AcDbEntity
  8
1
  6
Continuous
 62
     3
100
AcDbCircle
 10
31.15108383444844
 20
4.898946964062262
 30
0.0
 40
0.25
100
AcDbArc
 50
357.8458307244773
 51
0.0
  0
ARC
  5
402
330
3FA
100
AcDbEntity
  8
1
  6
Continuous
 62
     3
100
AcDbCircle
 10
25.15108383444844
 20
5.124637395461292
 30
0.0
 40
0.25
100
AcDbArc
 50
0.0
 51
177.845830724474
  0
ARC
  5
403
330
3FA
100
AcDbEntity
  8
1
  6
Continuous
 62
     3
100
AcDbCircle
 10
25.15108383444844
 20
5.124637395461292
 30
0.0
 40
0.25
100
AcDbArc
 50
0.0
 51
177.845830724474
  0
ARC
  5
404
330
3FA
100
AcDbEntity
  8
1
  6
Continuous
 62
     3
100
AcDbCircle
 10
25.15108383444844
 20
5.124637395461292
 30
0.0
 40
0.25
100
AcDbArc
 50
357.845830724474
 51
0.0
  0
ARC
  5
405
330
3FA
100
AcDbEntity
  8
1
  6
Continuous
 62
     3
100
AcDbCircle
 10
25.15108383444844
 20
5.124637395461292
 30
0.0
 40
0.25
100
AcDbArc
 50
357.845830724474
 51
0.0
  0
ARC
  5
406
330
3FA
100
AcDbEntity
  8
1
  6
Continuous
 62
     3
100
AcDbCircle
 10
19.15108383444844
 20
5.350327826860308
 30
0.0
 40
0.25
100
AcDbArc
 50
0.0
 51
177.845830724474
  0
ARC
  5
407
330
3FA
100
AcDbEntity
  8
1
  6
Continuous
 62
     3
100
AcDbCircle
 10
19.15108383444844
 20
5.350327826860308
 30
0.0
 40
0.25
100
AcDbArc
 50
0.0
 51
177.845830724474
  0
ARC
  5
408
330
3FA
100
AcDbEntity
  8
1
  6
Continuous
 62
     3
100
AcDbCircle
 10
19.15108383444844
 20
5.350327826860308
 30
0.0
 40
0.25
100
AcDbArc
 50
357.845830724474
 51
0.0
  0
ARC
  5
409
330
3FA
100
AcDbEntity
  8
1
  6
Continuous
 62
     3
100
AcDbCircle
 10
19.15108383444844
 20
5.350327826860308
 30
0.0
 40
0.25
100
AcDbArc
 50
357.845830724474
 51
0.0
  0
ARC
  5
40A
330
3FA
100
AcDbEntity
  8
1
  6
Continuous
 62
     3
100
AcDbCircle
 10
13.15108383444844
 20
5.576018258259339
 30
0.0
 40
0.25
100
AcDbArc
 50
0.0
 51
177.845830724474
  0
ARC
  5
40B
330
3FA
100
AcDbEntity
  8
1
  6
Continuous
 62
     3
100
AcDbCircle
 10
13.15108383444844
 20
5.576018258259339
 30
0.0
 40
0.25
100
AcDbArc
 50
0.0
 51
177.845830724474
  0
ARC
  5
40C
330
3FA
100
AcDbEntity
  8
1
  6
Continuous
 62
     3
100
AcDbCircle
 10
13.15108383444844
 20
5.576018258259339
 30
0.0
 40
0.25
100
AcDbArc
 50
357.845830724474
 51
0.0
  0
ARC
  5
40D
330
3FA
100
AcDbEntity
  8
1
  6
Continuous
 62
     3
100
AcDbCircle
 10
13.15108383444844
 20
5.576018258259339
 30
0.0
 40
0.25
100
AcDbArc
 50
357.845830724474
 51
0.0
  0
ARC
  5
40E
330
3FA
100
AcDbEntity
  8
1
  6
Continuous
 62
     3
100
AcDbCircle
 10
7.151083834448443
 20
5.801708689658355
 30
0.0
 40
0.25
100
AcDbArc
 50
0.0
 51
177.845830724474
  0
ARC
  5
40F
330
3FA
100
AcDbEntity
  8
1
  6
Continuous
 62
     3
100
AcDbCircle
 10
7.151083834448443
 20
5.801708689658355
 30
0.0
 40
0.25
100
AcDbArc
 50
0.0
 51
177.845830724474
  0
ARC
  5
410
330
3FA
100
AcDbEntity
  8
1
  6
Continuous
 62
     3
100
AcDbCircle
 10
7.151083834448443
 20
5.801708689658355
 30
0.0
 40
0.25
100
AcDbArc
 50
357.845830724474
 51
0.0
  0
ARC
  5
411
330
3FA
100
AcDbEntity
  8
1
  6
Continuous
 62
     3
100
AcDbCircle
 10
7.151083834448443
 20
5.801708689658355
 30
0.0
 40
0.25
100
AcDbArc
 50
357.845830724474
 51
0.0
  0
LINE
  5
412
330
3FA
100
AcDbEntity
  8
1
  6
Continuous
 62
     3
100
AcDbLine
 10
32.08736659438907
 20
4.863728620728523
 30
0.0
 11
31.40090716020354
 21
4.889549841701736
 31
0.0
  0
LINE
  5
413
330
3FA
100
AcDbEntity
  8
1
  6
Continuous
 62
     3
100
AcDbLine
 10
30.90126050869334
 20
4.908344086422801
 30
0.0
 11
25.40090716020354
 21
5.115240273100753
 31
0.0
  0
LINE
  5
414
330
3FA
100
AcDbEntity
  8
1
  6
Continuous
 62
     3
100
AcDbLine
 10
24.90126050869334
 20
5.134034517821831
 30
0.0
 11
19.40090716020354
 21
5.340930704499783
 31
0.0
  0
LINE
  5
415
330
3FA
100
AcDbEntity
  8
1
  6
Continuous
 62
     3
100
AcDbLine
 10
18.90126050869334
 20
5.359724949220848
 30
0.0
 11
13.40090716020354
 21
5.566621135898799
 31
0.0
  0
LINE
  5
416
330
3FA
100
AcDbEntity
  8
1
  6
Continuous
 62
     3
100
AcDbLine
 10
12.90126050869334
 20
5.585415380619864
 30
0.0
 11
10.39219135684621
 21
5.679794197168263
 31
0.0
  0
LINE
  5
417
330
3FA
100
AcDbEntity
  8
1
  6
Continuous
 62
     3
100
AcDbLine
 10
9.891128808259268
 20
5.698641700959669
 30
0.0
 11
7.400907160203545
 21
5.792311567297816
 31
0.0
  0
LINE
  5
418
330
3FA
100
AcDbEntity
  8
1
  6
Continuous
 62
     3
100
AcDbLine
 10
6.901260508693341
 20
5.811105812018894
 30
0.0
 11
2.442866176177489
 21
5.978808635394302
 31
0.0
  0
LINE
  5
419
330
3FA
100
AcDbEntity
  8
1
  6
Continuous
 62
     3
100
AcDbLine
 10
32.56857234966799
 20
4.364081969218319
 30
0.0
 11
32.56857234966799
 21
4.049144644413289
 31
0.0
  0
ARC
  5
41A
330
3FA
100
AcDbEntity
  8
1
  6
Continuous
 62
     3
100
AcDbCircle
 10
32.06857234966799
 20
4.364081969218319
 30
0.0
 40
0.5
100
AcDbArc
 50
0.0
 51
87.84583072447506
  0
ARC
  5
41B
330
3FA
100
AcDbEntity
  8
1
  6
Continuous
 62
     3
100
AcDbCircle
 10
32.06857234966799
 20
4.364081969218319
 30
0.0
 40
0.5
100
AcDbArc
 50
0.0
 51
87.84583072447506
  0
LINE
  5
41C
330
3FA
100
AcDbEntity
  8
1
  6
Continuous
 62
     3
100
AcDbLine
 10
1.924071931456425
 20
5.479161983884097
 30
0.0
 11
1.924071931456425
 21
4.76624665821889
 31
0.0
  0
LINE
  5
41D
330
3FA
100
AcDbEntity
  8
1
  6
Continuous
 62
     3
100
AcDbLine
 10
1.40527768673536
 20
4.266600006708671
 30
0.0
 11
0.6484931516613983
 21
4.295066511408166
 31
0.0
  0
ARC
  5
41E
330
3FA
100
AcDbEntity
  8
1
  6
Continuous
 62
     3
100
AcDbCircle
 10
0.6250003457600641
 20
3.670508197020411
 30
0.0
 40
0.625
100
AcDbArc
 50
87.84583072447529
 51
267.8458307244746
  0
ARC
  5
41F
330
3FA
100
AcDbEntity
  8
1
  6
Continuous
 62
     3
100
AcDbCircle
 10
0.6250003457600641
 20
3.670508197020411
 30
0.0
 40
0.625
100
AcDbArc
 50
87.84583072447529
 51
267.8458307244746
  0
LINE
  5
420
330
3FA
100
AcDbEntity
  8
1
  6
Continuous
 62
     3
100
AcDbLine
 10
0.6015075398587229
 20
3.045949882632641
 30
0.0
 11
1.617689197293217
 21
3.007726136524951
 31
0.0
  0
LINE
  5
421
330
3FA
100
AcDbEntity
  8
1
  6
Continuous
 62
     3
100
AcDbLine
 10
3.174071931456425
 20
4.506666091055578
 30
0.0
 11
3.174071931456425
 21
4.700420282394177
 31
0.0
  0
LINE
  5
422
330
3FA
100
AcDbEntity
  8
1
  6
Continuous
 62
     3
100
AcDbLine
 10
7.518794590481136
 20
4.536993227190109
 30
0.0
 11
12.66987807916951
 21
4.343234851401036
 31
0.0
  0
LINE
  5
423
330
3FA
100
AcDbEntity
  8
1
  6
Continuous
 62
     3
100
AcDbLine
 10
14.91987807916951
 20
4.258600939626405
 30
0.0
 11
30.83736659438907
 21
3.659863464661584
 31
0.0
  0
ARC
  5
424
330
3FA
100
AcDbEntity
  8
1
  6
Continuous
 62
     3
100
AcDbCircle
 10
2.424071931456425
 20
5.479161983884097
 30
0.0
 40
0.5
100
AcDbArc
 50
87.8458307244752
 51
180.0
  0
ARC
  5
425
330
3FA
100
AcDbEntity
  8
1
  6
Continuous
 62
     3
100
AcDbCircle
 10
2.424071931456425
 20
5.479161983884097
 30
0.0
 40
0.5
100
AcDbArc
 50
87.8458307244752
 51
180.0
  0
ARC
  5
426
330
3FA
100
AcDbEntity
  8
1
  6
Continuous
 62
     3
100
AcDbCircle
 10
1.424071931456425
 20
4.76624665821889
 30
0.0
 40
0.5
100
AcDbArc
 50
267.8458307244753
 51
0.0
  0
ARC
  5
427
330
3FA
100
AcDbEntity
  8
1
  6
Continuous
 62
     3
100
AcDbCircle
 10
1.424071931456425
 20
4.76624665821889
 30
0.0
 40
0.5
100
AcDbArc
 50
267.8458307244753
 51
0.0
  0
ARC
  5
428
330
3FA
100
AcDbEntity
  8
1
  6
Continuous
 62
     3
100
AcDbCircle
 10
1.674071931456425
 20
4.506666091055578
 30
0.0
 40
1.5
100
AcDbArc
 50
267.8458307244751
 51
0.0
  0
ARC
  5
429
330
3FA
100
AcDbEntity
  8
1
  6
Continuous
 62
     3
100
AcDbCircle
 10
1.674071931456425
 20
4.506666091055578
 30
0.0
 40
1.5
100
AcDbArc
 50
267.8458307244751
 51
0.0
  0
LINE
  5
42A
330
3FA
100
AcDbEntity
  8
1
  6
Continuous
 62
     3
100
AcDbLine
 10
31.31857234966799
 20
3.160216813151379
 30
0.0
 11
31.31857234966799
 21
1.905583632757867
 31
0.0
  0
LINE
  5
42B
330
3FA
100
AcDbEntity
  8
1
  6
Continuous
 62
     3
100
AcDbLine
 10
30.98958242133082
 20
1.435737322364915
 30
0.0
 11
30.37571287332514
 21
1.212307079168397
 31
0.0
  0
ARC
  5
42C
330
3FA
100
AcDbEntity
  8
1
  6
Continuous
 62
     3
100
AcDbCircle
 10
30.58947546290369
 20
0.6249991911772099
 30
0.0
 40
0.6250000000000004
100
AcDbArc
 50
110.0000000000002
 51
290.0000000000002
  0
ARC
  5
42D
330
3FA
100
AcDbEntity
  8
1
  6
Continuous
 62
     3
100
AcDbCircle
 10
30.58947546290369
 20
0.6249991911772099
 30
0.0
 40
0.6250000000000004
100
AcDbArc
 50
110.0000000000002
 51
290.0000000000002
  0
LINE
  5
42E
330
3FA
100
AcDbEntity
  8
1
  6
Continuous
 62
     3
100
AcDbLine
 10
30.80323805248224
 20
0.0376913031860227
 30
0.0
 11
32.23958242133082
 21
0.5604778996027875
 31
0.0
  0
LINE
  5
42F
330
3FA
100
AcDbEntity
  8
1
  6
Continuous
 62
     3
100
AcDbLine
 10
32.56857234966799
 20
1.03032420999574
 30
0.0
 11
32.56857234966799
 21
4.364081969218319
 31
0.0
  0
ARC
  5
430
330
3FA
100
AcDbEntity
  8
1
  6
Continuous
 62
     3
100
AcDbCircle
 10
30.81857234966799
 20
3.160216813151379
 30
0.0
 40
0.5
100
AcDbArc
 50
0.0
 51
87.84583072447506
  0
ARC
  5
431
330
3FA
100
AcDbEntity
  8
1
  6
Continuous
 62
     3
100
AcDbCircle
 10
30.81857234966799
 20
3.160216813151379
 30
0.0
 40
0.5
100
AcDbArc
 50
0.0
 51
87.84583072447506
  0
ARC
  5
432
330
3FA
100
AcDbEntity
  8
1
  6
Continuous
 62
     3
100
AcDbCircle
 10
32.06857234966799
 20
1.03032420999574
 30
0.0
 40
0.5
100
AcDbArc
 50
290.0000000000002
 51
0.0
  0
ARC
  5
433
330
3FA
100
AcDbEntity
  8
1
  6
Continuous
 62
     3
100
AcDbCircle
 10
32.06857234966799
 20
1.03032420999574
 30
0.0
 40
0.5
100
AcDbArc
 50
290.0000000000002
 51
0.0
  0
ARC
  5
434
330
3FA
100
AcDbEntity
  8
1
  6
Continuous
 62
     3
100
AcDbCircle
 10
30.81857234966799
 20
1.905583632757867
 30
0.0
 40
0.5
100
AcDbArc
 50
290.0000000000002
 51
0.0
  0
ARC
  5
435
330
3FA
100
AcDbEntity
  8
1
  6
Continuous
 62
     3
100
AcDbCircle
 10
30.81857234966799
 20
1.905583632757867
 30
0.0
 40
0.5
100
AcDbArc
 50
290.0000000000002
 51
0.0
  0
LINE
  5
436
330
3FA
100
AcDbEntity
  8
1
  6
Continuous
 62
     3
100
AcDbLine
 10
3.174071931456425
 20
4.506666091055578
 30
0.0
 11
3.174071931456425
 21
4.700420282394177
 31
0.0
  0
LINE
  5
437
330
3FA
100
AcDbEntity
  8
1
  6
Continuous
 62
     3
100
AcDbLine
 10
3.174071931456425
 20
4.700420282394177
 30
0.0
 11
5.419878079169507
 21
4.615944122674861
 31
0.0
  0
LINE
  5
438
330
3FA
100
AcDbEntity
  8
1
  6
Continuous
 62
     3
100
AcDbLine
 10
5.901083834448443
 20
4.116297471164657
 30
0.0
 11
5.901083834448443
 21
1.725449719137274
 31
0.0
  0
ARC
  5
439
330
3FA
100
AcDbEntity
  8
1
  6
Continuous
 62
     3
100
AcDbCircle
 10
6.526083834448443
 20
1.725449719137274
 30
0.0
 40
0.625
100
AcDbArc
 50
180.0
 51
0.0
  0
ARC
  5
43A
330
3FA
100
AcDbEntity
  8
1
  6
Continuous
 62
     3
100
AcDbCircle
 10
6.526083834448443
 20
1.725449719137274
 30
0.0
 40
0.625
100
AcDbArc
 50
180.0
 51
0.0
  0
LINE
  5
43B
330
3FA
100
AcDbEntity
  8
1
  6
Continuous
 62
     3
100
AcDbLine
 10
7.151083834448443
 20
1.725449719137274
 30
0.0
 11
7.151083834448443
 21
4.031663559390012
 31
0.0
  0
LINE
  5
43C
330
3FA
100
AcDbEntity
  8
1
  6
Continuous
 62
     3
100
AcDbLine
 10
13.15108383444844
 20
3.843588199890831
 30
0.0
 11
13.15108383444844
 21
1.968095462665389
 31
0.0
  0
ARC
  5
43D
330
3FA
100
AcDbEntity
  8
1
  6
Continuous
 62
     3
100
AcDbCircle
 10
13.77608383444844
 20
1.968095462665389
 30
0.0
 40
0.6249999999999964
100
AcDbArc
 50
180.0
 51
0.0
  0
ARC
  5
43E
330
3FA
100
AcDbEntity
  8
1
  6
Continuous
 62
     3
100
AcDbCircle
 10
13.77608383444844
 20
1.968095462665389
 30
0.0
 40
0.6249999999999964
100
AcDbArc
 50
180.0
 51
0.0
  0
LINE
  5
43F
330
3FA
100
AcDbEntity
  8
1
  6
Continuous
 62
     3
100
AcDbLine
 10
14.40108383444844
 20
1.968095462665389
 30
0.0
 11
14.40108383444844
 21
3.7589542881162
 31
0.0
  0
ARC
  5
440
330
3FA
100
AcDbEntity
  8
1
  6
Continuous
 62
     3
100
AcDbCircle
 10
5.401083834448443
 20
4.116297471164657
 30
0.0
 40
0.5
100
AcDbArc
 50
0.0
 51
87.84583072447519
  0
ARC
  5
441
330
3FA
100
AcDbEntity
  8
1
  6
Continuous
 62
     3
100
AcDbCircle
 10
5.401083834448443
 20
4.116297471164657
 30
0.0
 40
0.5
100
AcDbArc
 50
0.0
 51
87.84583072447519
  0
ARC
  5
442
330
3FA
100
AcDbEntity
  8
1
  6
Continuous
 62
     3
100
AcDbCircle
 10
7.651083834448443
 20
4.031663559390012
 30
0.0
 40
0.5
100
AcDbArc
 50
87.84583072447519
 51
180.0
  0
ARC
  5
443
330
3FA
100
AcDbEntity
  8
1
  6
Continuous
 62
     3
100
AcDbCircle
 10
7.651083834448443
 20
4.031663559390012
 30
0.0
 40
0.5
100
AcDbArc
 50
87.84583072447519
 51
180.0
  0
ARC
  5
444
330
3FA
100
AcDbEntity
  8
1
  6
Continuous
 62
     3
100
AcDbCircle
 10
12.65108383444844
 20
3.843588199890831
 30
0.0
 40
0.5
100
AcDbArc
 50
0.0
 51
87.84583072447519
  0
ARC
  5
445
330
3FA
100
AcDbEntity
  8
1
  6
Continuous
 62
     3
100
AcDbCircle
 10
12.65108383444844
 20
3.843588199890831
 30
0.0
 40
0.5
100
AcDbArc
 50
0.0
 51
87.84583072447519
  0
ARC
  5
446
330
3FA
100
AcDbEntity
  8
1
  6
Continuous
 62
     3
100
AcDbCircle
 10
14.90108383444844
 20
3.7589542881162
 30
0.0
 40
0.5
100
AcDbArc
 50
87.84583072447498
 51
180.0
  0
ARC
  5
447
330
3FA
100
AcDbEntity
  8
1
  6
Continuous
 62
     3
100
AcDbCircle
 10
14.90108383444844
 20
3.7589542881162
 30
0.0
 40
0.5
100
AcDbArc
 50
87.84583072447498
 51
180.0
  0
LINE
  5
448
330
3FA
100
AcDbEntity
  8
1
  6
Continuous
 62
     3
100
AcDbLine
 10
9.891128808259268
 20
5.698641700959683
 30
0.0
 11
10.15108383444844
 21
5.438686674770494
 31
0.0
  0
LINE
  5
449
330
3FA
100
AcDbEntity
  8
1
  6
Continuous
 62
     3
100
AcDbLine
 10
10.15108383444844
 20
5.438686674770494
 30
0.0
 11
10.39219135684621
 21
5.679794197168263
 31
0.0
  0
ENDBLK
  5
3FC
330
3FA
100
AcDbEntity
  8
0
100
AcDbBlockEnd
  0
BLOCK
  5
44B
330
44A
100
AcDbEntity
  8
0
100
AcDbBlockBegin
  2
GEN_BLOCK00017
 70
     0
 10
0.0
 20
0.0
 30
0.0
  3
GEN_BLOCK00017
  1
GEN_BLOCK00017
  0
LINE
  5
44E
330
44A
100
AcDbEntity
  8
0
  6
Continuous
 62
     9
100
AcDbLine
 10
0.0000026988430477
 20
18.00000724078798
 30
0.0
 11
196.0200119639592
 21
18.00000724078798
 31
0.0
  0
LINE
  5
44F
330
44A
100
AcDbEntity
  8
0
  6
Continuous
 62
     9
100
AcDbLine
 10
114.000002698843
 20
18.00000724078797
 30
0.0
 11
114.000002698843
 21
0.0000072407879657
 31
0.0
  0
LINE
  5
450
330
44A
100
AcDbEntity
  8
0
  6
Continuous
 62
     9
100
AcDbLine
 10
103.7450599639593
 20
28.00000724078797
 30
0.0
 11
103.7450599639593
 21
18.00000724078797
 31
0.0
  0
LINE
  5
451
330
44A
100
AcDbEntity
  8
0
  6
Continuous
 62
     9
100
AcDbLine
 10
135.1700439639593
 20
18.00000724078797
 30
0.0
 11
135.1700439639593
 21
38.00000724078797
 31
0.0
  0
LINE
  5
452
330
44A
100
AcDbEntity
  8
0
  6
Continuous
 62
     9
100
AcDbLine
 10
166.5950279639593
 20
18.00000724078797
 30
0.0
 11
166.5950279639593
 21
38.00000724078797
 31
0.0
  0
LINE
  5
453
330
44A
100
AcDbEntity
  8
0
  6
Continuous
 62
     9
100
AcDbLine
 10
114.000002698843
 20
9.000007240787909
 30
0.0
 11
196.0200119639592
 21
9.000007240787966
 31
0.0
  0
LINE
  5
454
330
44A
100
AcDbEntity
  8
0
  6
Continuous
 62
     9
100
AcDbLine
 10
135.1700439639593
 20
38.00000724078798
 30
0.0
 11
196.0200119639592
 21
38.00000724078797
 31
0.0
  0
LINE
  5
455
330
44A
100
AcDbEntity
  8
0
  6
Continuous
 62
     9
100
AcDbLine
 10
103.7450599639593
 20
28.00000724078797
 30
0.0
 11
196.0200119639592
 21
28.00000724078797
 31
0.0
  0
LINE
  5
456
330
44A
100
AcDbEntity
  8
0
  6
Continuous
 62
     9
100
AcDbLine
 10
0.0000026988430477
 20
0.0000072407879657
 30
0.0
 11
0.0000026988430477
 21
0.0000072407879657
 31
0.0
  0
LINE
  5
457
330
44A
100
AcDbEntity
  8
0
  6
Continuous
 62
     9
100
AcDbLine
 10
196.0200119639592
 20
0.0000072407879657
 30
0.0
 11
196.0200119639592
 21
283.0594585255471
 31
0.0
  0
LINE
  5
458
330
44A
100
AcDbEntity
  8
0
  6
Continuous
 62
     9
100
AcDbLine
 10
0.0000026988430477
 20
0.0000072407879657
 30
0.0
 11
0.0000026988430477
 21
283.0594585255471
 31
0.0
  0
LINE
  5
459
330
44A
100
AcDbEntity
  8
0
  6
Continuous
 62
     9
100
AcDbLine
 10
0.0000026988430477
 20
283.0594585255471
 30
0.0
 11
196.0200119639592
 21
283.0594585255471
 31
0.0
  0
LINE
  5
45A
330
44A
100
AcDbEntity
  8
0
  6
Continuous
 62
     9
100
AcDbLine
 10
196.0200119639592
 20
0.0000072407879657
 30
0.0
 11
196.0200119639592
 21
0.0000072407879657
 31
0.0
  0
LINE
  5
45B
330
44A
100
AcDbEntity
  8
0
  6
Continuous
 62
     9
100
AcDbLine
 10
196.0200119639592
 20
0.0000072407879657
 30
0.0
 11
0.0000026988430477
 21
0.0000072407879657
 31
0.0
  0
ENDBLK
  5
44C
330
44A
100
AcDbEntity
  8
0
100
AcDbBlockEnd
  0
ENDSEC
  0
SECTION
  2
ENTITIES
  0
INSERT
  5
77
330
1F
100
AcDbEntity
  8
1
100
AcDbBlockReference
  2
GEN_BLOCK
 10
10.40041542053223
 20
20.62930870056152
 30
0.0
  0
INSERT
  5
7E
330
1F
100
AcDbEntity
  8
SYSTEM_ASSIGNED_LAYER
100
AcDbBlockReference
  2
GEN_BLOCK00000
 10
-50.64182281494141
 20
-83.09932708740234
 30
0.0
  0
INSERT
  5
85
330
1F
100
AcDbEntity
  8
0
100
AcDbBlockReference
  2
GEN_BLOCK00001
 10
29.41703796386719
 20
-19.55899429321289
 30
0.0
  0
INSERT
  5
CC
330
1F
100
AcDbEntity
  8
0
100
AcDbBlockReference
  2
GEN_BLOCK00002
 10
14.08394622802734
 20
129.3023529052734
 30
0.0
  0
INSERT
  5
D5
330
1F
100
AcDbEntity
  8
1
100
AcDbBlockReference
  2
GEN_BLOCK00003
 10
-23.21477508544922
 20
-21.17887496948242
 30
0.0
  0
INSERT
  5
18F
330
1F
100
AcDbEntity
  8
FIXING
100
AcDbBlockReference
 66
     1
  2
8569S
 10
9.648085594177246
 20
-33.70797348022461
 30
0.0
  0
ATTRIB
  5
190
330
18F
100
AcDbEntity
  8
FIXING
100
AcDbText
 10
0.0
 20
0.0
 30
0.0
 40
1.0
  1
8569S
100
AcDbAttribute
  2
PAT_NAME
 70
     1
280
     0
  0
SEQEND
  5
191
330
18F
100
AcDbEntity
  8
FIXING
  0
INSERT
  5
22F
330
1F
100
AcDbEntity
  8
1
100
AcDbBlockReference
  2
GEN_BLOCK00004
 10
-23.21356201171875
 20
-18.17887687683105
 30
0.0
  0
INSERT
  5
23C
330
1F
100
AcDbEntity
  8
1
100
AcDbBlockReference
  2
GEN_BLOCK00005
 10
-0.7949485778808594
 20
-6.348381042480469
 30
0.0
  0
INSERT
  5
24C
330
1F
100
AcDbEntity
  8
1
100
AcDbBlockReference
  2
GEN_BLOCK00006
 10
-8.872203826904297
 20
-14.0016622543335
 30
0.0
  0
INSERT
  5
2CA
330
1F
100
AcDbEntity
  8
1
100
AcDbBlockReference
  2
GEN_BLOCK00007
 10
-95.37540435791016
 20
134.6907958984375
 30
0.0
  0
INSERT
  5
2D0
330
1F
100
AcDbEntity
  8
1
100
AcDbBlockReference
  2
GEN_BLOCK00008
 10
-29.83706474304199
 20
59.90702438354492
 30
0.0
  0
INSERT
  5
2D5
330
1F
100
AcDbEntity
  8
1
100
AcDbBlockReference
  2
GEN_BLOCK00009
 10
-34.73705673217773
 20
-44.65700912475586
 30
0.0
  0
INSERT
  5
2E4
330
1F
100
AcDbEntity
  8
1
100
AcDbBlockReference
  2
GEN_BLOCK00010
 10
-81.06468963623047
 20
-63.44987487792969
 30
0.0
  0
INSERT
  5
39C
330
1F
100
AcDbEntity
  8
1
100
AcDbBlockReference
  2
GEN_BLOCK00011
 10
-5.330775260925293
 20
-9.001662254333496
 30
0.0
  0
INSERT
  5
3A1
330
1F
100
AcDbEntity
  8
0
100
AcDbBlockReference
  2
GEN_BLOCK00012
 10
-97.93606567382812
 20
-141.7571105957031
 30
0.0
  0
INSERT
  5
3B4
330
1F
100
AcDbEntity
  8
0
100
AcDbBlockReference
 66
     1
  2
PROTO
 10
-95.70205688476562
 20
-140.2253570556641
 30
0.0
  0
ATTRIB
  5
3B5
330
3B4
100
AcDbEntity
  8
0
100
AcDbText
 10
0.0
 20
0.0
 30
0.0
 40
1.0
  1
PROTO
100
AcDbAttribute
  2
PAT_NAME
 70
     1
280
     0
  0
SEQEND
  5
3B6
330
3B4
100
AcDbEntity
  8
0
  0
INSERT
  5
3D0
330
1F
100
AcDbEntity
  8
1
100
AcDbBlockReference
 66
     1
  2
_RASTER_[__EXITEX-DC2_ARTWORK_PIERCE_COMMUNICATIONS_LOGO_EXITEXLOGOSMALLVERSION_JPG]
 10
-86.04881286621094
 20
-140.4469604492188
 30
0.0
  0
ATTRIB
  5
3D1
330
3D0
100
AcDbEntity
  8
1
100
AcDbText
 10
0.0
 20
0.0
 30
0.0
 40
1.0
  1
_RASTER_[\\EXITEX-DC2\ARTWORK\PIERCE COMMUNICATIONS\LOGO\EXITEXLOGOSMALLVERSION.JPG]
100
AcDbAttribute
  2
PAT_NAME
 70
     1
280
     0
  0
SEQEND
  5
3D2
330
3D0
100
AcDbEntity
  8
1
  0
INSERT
  5
3D6
330
1F
100
AcDbEntity
  8
1
100
AcDbBlockReference
  2
GEN_BLOCK00013
 10
-48.08692932128906
 20
-25.02115249633789
 30
0.0
  0
INSERT
  5
3EC
330
1F
100
AcDbEntity
  8
1
100
AcDbBlockReference
  2
GEN_BLOCK00014
 10
-27.2507152557373
 20
-22.02115058898926
 30
0.0
  0
INSERT
  5
3F9
330
1F
100
AcDbEntity
  8
0
100
AcDbBlockReference
  2
GEN_BLOCK00015
 10
-97.93606567382812
 20
-141.7571105957031
 30
0.0
  0
INSERT
  5
3FD
330
1F
100
AcDbEntity
  8
1
100
AcDbBlockReference
  2
GEN_BLOCK00016
 10
-55.39289855957031
 20
-61.98362350463867
 30
0.0
  0
INSERT
  5
44D
330
1F
100
AcDbEntity
  8
0
100
AcDbBlockReference
  2
GEN_BLOCK00017
 10
-97.93606567382812
 20
-141.7571105957031
 30
0.0
  0
ENDSEC
  0
SECTION
  2
OBJECTS
  0
DICTIONARY
  5
C
330
0
100
AcDbDictionary
281
     1
  3
ACAD_DETAILVIEWSTYLE
350
490
  3
ACAD_GROUP
350
D
  3
ACAD_LAYOUT
350
1A
  3
ACAD_MATERIAL
350
43
  3
ACAD_MLEADERSTYLE
350
48F
  3
ACAD_MLINESTYLE
350
17
  3
ACAD_PLOTSETTINGS
350
19
  3
ACAD_PLOTSTYLENAME
350
E
  3
ACAD_SCALELIST
350
47
  3
ACAD_SECTIONVIEWSTYLE
350
491
  3
ACAD_TABLESTYLE
350
48E
  3
ACAD_VISUALSTYLE
350
2A
  3
AcDbVariableDictionary
350
45C
  0
SUN
  5
69
330
29
100
AcDbSun
 90
        1
290
     0
 63
     7
421
 16777215
 40
1.0
291
     1
 91
  2455826
 92
 54000000
292
     0
 70
     2
 71
   256
280
     1
  0
DICTIONARY
  5
490
102
{ACAD_REACTORS
330
C
102
}
330
C
100
AcDbDictionary
281
     1
  0
DICTIONARY
  5
D
102
{ACAD_REACTORS
330
C
102
}
330
C
100
AcDbDictionary
281
     1
  0
DICTIONARY
  5
1A
102
{ACAD_REACTORS
330
C
102
}
330
C
100
AcDbDictionary
281
     1
  3
Layout1
350
1E
  3
Layout2
350
26
  3
Model
350
22
  0
DICTIONARY
  5
43
102
{ACAD_REACTORS
330
C
102
}
330
C
100
AcDbDictionary
281
     1
  3
ByBlock
350
45
  3
ByLayer
350
44
  3
Global
350
46
  0
DICTIONARY
  5
48F
102
{ACAD_REACTORS
330
C
102
}
330
C
100
AcDbDictionary
281
     1
  0
DICTIONARY
  5
17
102
{ACAD_REACTORS
330
C
102
}
330
C
100
AcDbDictionary
281
     1
  3
Standard
350
18
  0
DICTIONARY
  5
19
102
{ACAD_REACTORS
330
C
102
}
330
C
100
AcDbDictionary
281
     1
  0
ACDBDICTIONARYWDFLT
  5
E
102
{ACAD_REACTORS
330
C
102
}
330
C
100
AcDbDictionary
281
     1
  3
Normal
350
F
100
AcDbDictionaryWithDefault
340
F
  0
DICTIONARY
  5
47
102
{ACAD_REACTORS
330
C
102
}
330
C
100
AcDbDictionary
281
     1
  3
A0
350
48
  3
A1
350
49
  3
A2
350
4A
  3
A3
350
4B
  3
A4
350
4C
  3
A5
350
4D
  3
A6
350
4E
  3
A7
350
4F
  3
A8
350
50
  3
A9
350
51
  3
B0
350
52
  3
B1
350
53
  3
B2
350
54
  3
B3
350
55
  3
B4
350
56
  3
B5
350
57
  3
B6
350
58
  3
B7
350
59
  3
B8
350
5A
  3
B9
350
5B
  3
C0
350
5C
  3
C1
350
5D
  3
C2
350
5E
  3
C3
350
5F
  3
C4
350
60
  3
C5
350
61
  3
C6
350
62
  3
C7
350
63
  3
C8
350
64
  3
C9
350
65
  3
D0
350
66
  3
D1
350
67
  3
D2
350
68
  0
DICTIONARY
  5
491
102
{ACAD_REACTORS
330
C
102
}
330
C
100
AcDbDictionary
281
     1
  0
DICTIONARY
  5
48E
102
{ACAD_REACTORS
330
C
102
}
330
C
100
AcDbDictionary
281
     1
  0
DICTIONARY
  5
2A
102
{ACAD_REACTORS
330
C
102
}
330
C
100
AcDbDictionary
281
     1
  3
2dWireframe
350
2F
  3
Basic
350
32
  3
Brighten
350
36
  3
ColorChange
350
3A
  3
Conceptual
350
34
  3
Dim
350
35
  3
EdgeColorOff
350
3D
  3
Facepattern
350
39
  3
Flat
350
2B
  3
FlatWithEdges
350
2C
  3
Gouraud
350
2D
  3
GouraudWithEdges
350
2E
  3
Hidden
350
31
  3
JitterOff
350
3B
  3
Linepattern
350
38
  3
OverhangOff
350
3C
  3
Realistic
350
33
  3
Shaded
350
42
  3
Shaded with edges
350
41
  3
Shades of Gray
350
3E
  3
Sketchy
350
3F
  3
Thicken
350
37
  3
Wireframe
350
30
  3
X-Ray
350
40
  0
DICTIONARY
  5
45C
102
{ACAD_REACTORS
330
C
102
}
330
C
100
AcDbDictionary
281
     1
  3
CANNOSCALE
350
45D
  0
LAYOUT
  5
1E
102
{ACAD_REACTORS
330
1A
102
}
330
1A
100
AcDbPlotSettings
  1

  2
none_device
  4

  6

 40
0.0
 41
0.0
 42
0.0
 43
0.0
 44
0.0
 45
0.0
 46
0.0
 47
0.0
 48
0.0
 49
0.0
140
0.0
141
0.0
142
1.0
143
1.0
 70
   688
 72
     1
 73
     0
 74
     5
  7

 75
    16
 76
     0
 77
     2
 78
   300
147
1.0
148
0.0
149
0.0
100
AcDbLayout
  1
Layout1
 70
     1
 71
     1
 10
0.0
 20
0.0
 11
420.0
 21
297.0
 12
0.0
 22
0.0
 32
0.0
 14
1.000000000000000E+20
 24
1.000000000000000E+20
 34
1.000000000000000E+20
 15
-1.000000000000000E+20
 25
-1.000000000000000E+20
 35
-1.000000000000000E+20
146
0.0
 13
0.0
 23
0.0
 33
0.0
 16
1.0
 26
0.0
 36
0.0
 17
0.0
 27
1.0
 37
0.0
 76
     0
330
1B
  0
LAYOUT
  5
26
102
{ACAD_REACTORS
330
1A
102
}
330
1A
100
AcDbPlotSettings
  1

  2
none_device
  4

  6

 40
0.0
 41
0.0
 42
0.0
 43
0.0
 44
0.0
 45
0.0
 46
0.0
 47
0.0
 48
0.0
 49
0.0
140
0.0
141
0.0
142
1.0
143
1.0
 70
   688
 72
     1
 73
     0
 74
     5
  7

 75
    16
 76
     0
 77
     2
 78
   300
147
1.0
148
0.0
149
0.0
100
AcDbLayout
  1
Layout2
 70
     1
 71
     2
 10
0.0
 20
0.0
 11
0.0
 21
0.0
 12
0.0
 22
0.0
 32
0.0
 14
0.0
 24
0.0
 34
0.0
 15
0.0
 25
0.0
 35
0.0
146
0.0
 13
0.0
 23
0.0
 33
0.0
 16
1.0
 26
0.0
 36
0.0
 17
0.0
 27
1.0
 37
0.0
 76
     0
330
23
  0
LAYOUT
  5
22
102
{ACAD_REACTORS
330
1A
102
}
330
1A
100
AcDbPlotSettings
  1

  2
none_device
  4
Letter_(8.50_x_11.00_Inches)
  6

 40
6.35
 41
6.35
 42
6.35000508
 43
6.35000508
 44
215.9
 45
279.4
 46
0.0
 47
0.0
 48
0.0
 49
0.0
140
0.0
141
0.0
142
1.0
143
1.0
 70
  1712
 72
     1
 73
     0
 74
     0
  7

 75
     0
 76
     0
 77
     2
 78
   300
147
1.0
148
0.0
149
0.0
100
AcDbLayout
  1
Model
 70
     1
 71
     0
 10
0.0
 20
0.0
 11
420.0
 21
297.0
 12
0.0
 22
0.0
 32
0.0
 14
-97.93606297498508
 24
-141.7571033549152
 34
0.0
 15
98.0839462901311
 25
141.302347929844
 35
0.0
146
0.0
 13
0.0
 23
0.0
 33
0.0
 16
1.0
 26
0.0
 36
0.0
 17
0.0
 27
1.0
 37
0.0
 76
     0
330
1F
331
29
  0
MATERIAL
  5
45
102
{ACAD_REACTORS
330
43
102
}
330
43
100
AcDbMaterial
  1
ByBlock
 72
     1
 94
      127
  0
MATERIAL
  5
44
102
{ACAD_REACTORS
330
43
102
}
330
43
100
AcDbMaterial
  1
ByLayer
 72
     1
 94
      127
  0
MATERIAL
  5
46
102
{ACAD_REACTORS
330
43
102
}
330
43
100
AcDbMaterial
  1
Global
 72
     1
 94
      127
  0
MLINESTYLE
  5
18
102
{ACAD_REACTORS
330
17
102
}
330
17
100
AcDbMlineStyle
  2
Standard
 70
     0
  3

 62
   256
 51
90.0
 52
90.0
 71
     2
 49
0.5
 62
   256
  6
BYLAYER
 49
-0.5
 62
   256
  6
BYLAYER
  0
ACDBPLACEHOLDER
  5
F
102
{ACAD_REACTORS
330
E
102
}
330
E
  0
SCALE
  5
48
102
{ACAD_REACTORS
330
47
102
}
330
47
100
AcDbScale
 70
     0
300
1:1
140
1.0
141
1.0
290
     1
  0
SCALE
  5
49
102
{ACAD_REACTORS
330
47
102
}
330
47
100
AcDbScale
 70
     0
300
1:2
140
1.0
141
2.0
290
     0
  0
SCALE
  5
4A
102
{ACAD_REACTORS
330
47
102
}
330
47
100
AcDbScale
 70
     0
300
1:4
140
1.0
141
4.0
290
     0
  0
SCALE
  5
4B
102
{ACAD_REACTORS
330
47
102
}
330
47
100
AcDbScale
 70
     0
300
1:5
140
1.0
141
5.0
290
     0
  0
SCALE
  5
4C
102
{ACAD_REACTORS
330
47
102
}
330
47
100
AcDbScale
 70
     0
300
1:8
140
1.0
141
8.0
290
     0
  0
SCALE
  5
4D
102
{ACAD_REACTORS
330
47
102
}
330
47
100
AcDbScale
 70
     0
300
1:10
140
1.0
141
10.0
290
     0
  0
SCALE
  5
4E
102
{ACAD_REACTORS
330
47
102
}
330
47
100
AcDbScale
 70
     0
300
1:16
140
1.0
141
16.0
290
     0
  0
SCALE
  5
4F
102
{ACAD_REACTORS
330
47
102
}
330
47
100
AcDbScale
 70
     0
300
1:20
140
1.0
141
20.0
290
     0
  0
SCALE
  5
50
102
{ACAD_REACTORS
330
47
102
}
330
47
100
AcDbScale
 70
     0
300
1:30
140
1.0
141
30.0
290
     0
  0
SCALE
  5
51
102
{ACAD_REACTORS
330
47
102
}
330
47
100
AcDbScale
 70
     0
300
1:40
140
1.0
141
40.0
290
     0
  0
SCALE
  5
52
102
{ACAD_REACTORS
330
47
102
}
330
47
100
AcDbScale
 70
     0
300
1:50
140
1.0
141
50.0
290
     0
  0
SCALE
  5
53
102
{ACAD_REACTORS
330
47
102
}
330
47
100
AcDbScale
 70
     0
300
1:100
140
1.0
141
100.0
290
     0
  0
SCALE
  5
54
102
{ACAD_REACTORS
330
47
102
}
330
47
100
AcDbScale
 70
     0
300
2:1
140
2.0
141
1.0
290
     0
  0
SCALE
  5
55
102
{ACAD_REACTORS
330
47
102
}
330
47
100
AcDbScale
 70
     0
300
4:1
140
4.0
141
1.0
290
     0
  0
SCALE
  5
56
102
{ACAD_REACTORS
330
47
102
}
330
47
100
AcDbScale
 70
     0
300
8:1
140
8.0
141
1.0
290
     0
  0
SCALE
  5
57
102
{ACAD_REACTORS
330
47
102
}
330
47
100
AcDbScale
 70
     0
300
10:1
140
10.0
141
1.0
290
     0
  0
SCALE
  5
58
102
{ACAD_REACTORS
330
47
102
}
330
47
100
AcDbScale
 70
     0
300
100:1
140
100.0
141
1.0
290
     0
  0
SCALE
  5
59
102
{ACAD_REACTORS
330
47
102
}
330
47
100
AcDbScale
 70
     0
300
1/128" = 1'-0"
140
0.0078125
141
12.0
290
     0
  0
SCALE
  5
5A
102
{ACAD_REACTORS
330
47
102
}
330
47
100
AcDbScale
 70
     0
300
1/64" = 1'-0"
140
0.015625
141
12.0
290
     0
  0
SCALE
  5
5B
102
{ACAD_REACTORS
330
47
102
}
330
47
100
AcDbScale
 70
     0
300
1/32" = 1'-0"
140
0.03125
141
12.0
290
     0
  0
SCALE
  5
5C
102
{ACAD_REACTORS
330
47
102
}
330
47
100
AcDbScale
 70
     0
300
1/16" = 1'-0"
140
0.0625
141
12.0
290
     0
  0
SCALE
  5
5D
102
{ACAD_REACTORS
330
47
102
}
330
47
100
AcDbScale
 70
     0
300
3/32" = 1'-0"
140
0.09375
141
12.0
290
     0
  0
SCALE
  5
5E
102
{ACAD_REACTORS
330
47
102
}
330
47
100
AcDbScale
 70
     0
300
1/8" = 1'-0"
140
0.125
141
12.0
290
     0
  0
SCALE
  5
5F
102
{ACAD_REACTORS
330
47
102
}
330
47
100
AcDbScale
 70
     0
300
3/16" = 1'-0"
140
0.1875
141
12.0
290
     0
  0
SCALE
  5
60
102
{ACAD_REACTORS
330
47
102
}
330
47
100
AcDbScale
 70
     0
300
1/4" = 1'-0"
140
0.25
141
12.0
290
     0
  0
SCALE
  5
61
102
{ACAD_REACTORS
330
47
102
}
330
47
100
AcDbScale
 70
     0
300
3/8" = 1'-0"
140
0.375
141
12.0
290
     0
  0
SCALE
  5
62
102
{ACAD_REACTORS
330
47
102
}
330
47
100
AcDbScale
 70
     0
300
1/2" = 1'-0"
140
0.5
141
12.0
290
     0
  0
SCALE
  5
63
102
{ACAD_REACTORS
330
47
102
}
330
47
100
AcDbScale
 70
     0
300
3/4" = 1'-0"
140
0.75
141
12.0
290
     0
  0
SCALE
  5
64
102
{ACAD_REACTORS
330
47
102
}
330
47
100
AcDbScale
 70
     0
300
1" = 1'-0"
140
1.0
141
12.0
290
     0
  0
SCALE
  5
65
102
{ACAD_REACTORS
330
47
102
}
330
47
100
AcDbScale
 70
     0
300
1-1/2" = 1'-0"
140
1.5
141
12.0
290
     0
  0
SCALE
  5
66
102
{ACAD_REACTORS
330
47
102
}
330
47
100
AcDbScale
 70
     0
300
3" = 1'-0"
140
3.0
141
12.0
290
     0
  0
SCALE
  5
67
102
{ACAD_REACTORS
330
47
102
}
330
47
100
AcDbScale
 70
     0
300
6" = 1'-0"
140
6.0
141
12.0
290
     0
  0
SCALE
  5
68
102
{ACAD_REACTORS
330
47
102
}
330
47
100
AcDbScale
 70
     0
300
1'-0" = 1'-0"
140
12.0
141
12.0
290
     0
  0
VISUALSTYLE
  5
2F
102
{ACAD_REACTORS
330
2A
102
}
102
{ACAD_XDICTIONARY
360
466
102
}
330
2A
100
AcDbVisualStyle
  2
2dWireframe
 70
     4
177
     2
291
     0
 71
     0
176
     1
 72
     2
176
     1
 73
     0
176
     1
 90
        0
176
     1
 40
0.6
176
     1
 41
30.0
176
     1
 62
     5
 63
     7
421
 16777215
176
     1
 74
     1
176
     1
 91
        4
176
     1
 64
     7
176
     1
 65
   257
176
     1
 75
     1
176
     1
175
     1
176
     1
 42
1.0
176
     1
 92
        0
176
     1
 66
   257
176
     1
 43
1.0
176
     1
 76
     1
176
     1
 77
     6
176
     1
 78
     2
176
     1
 67
     7
176
     1
 79
     5
176
     1
170
     0
176
     1
171
     0
176
     1
290
     0
176
     1
 93
        1
176
     1
 44
0.0
176
     1
173
     0
176
     1
  0
VISUALSTYLE
  5
32
102
{ACAD_REACTORS
330
2A
102
}
102
{ACAD_XDICTIONARY
360
46C
102
}
330
2A
100
AcDbVisualStyle
  2
Basic
 70
     7
177
     2
291
     1
 71
     1
176
     1
 72
     0
176
     1
 73
     1
176
     1
 90
        0
176
     1
 40
0.6
176
     1
 41
30.0
176
     1
 62
     5
 63
     7
421
 16777215
176
     1
 74
     0
176
     1
 91
        4
176
     1
 64
     7
176
     1
 65
   257
176
     1
 75
     1
176
     1
175
     1
176
     1
 42
1.0
176
     1
 92
        8
176
     1
 66
     7
176
     1
 43
1.0
176
     1
 76
     1
176
     1
 77
     6
176
     1
 78
     2
176
     1
 67
     7
176
     1
 79
     5
176
     1
170
     0
176
     1
171
     0
176
     1
290
     0
176
     1
 93
        1
176
     1
 44
0.0
176
     1
173
     0
176
     1
  0
VISUALSTYLE
  5
36
102
{ACAD_REACTORS
330
2A
102
}
102
{ACAD_XDICTIONARY
360
474
102
}
330
2A
100
AcDbVisualStyle
  2
Brighten
 70
    12
177
     2
291
     1
 71
     2
176
     1
 72
     2
176
     1
 73
     0
176
     1
 90
        0
176
     1
 40
0.6
176
     1
 41
30.0
176
     1
 62
     5
 63
     7
421
 16777215
176
     1
 74
     1
176
     1
 91
        4
176
     1
 64
     7
176
     1
 65
   257
176
     1
 75
     1
176
     1
175
     1
176
     1
 42
1.0
176
     1
 92
        8
176
     1
 66
     7
176
     1
 43
1.0
176
     1
 76
     1
176
     1
 77
     6
176
     1
 78
     2
176
     1
 67
     7
176
     1
 79
     5
176
     1
170
     0
176
     1
171
     0
176
     1
290
     0
176
     1
 93
        1
176
     1
 44
50.0
176
     1
173
     0
176
     1
  0
VISUALSTYLE
  5
3A
102
{ACAD_REACTORS
330
2A
102
}
102
{ACAD_XDICTIONARY
360
47C
102
}
330
2A
100
AcDbVisualStyle
  2
ColorChange
 70
    16
177
     2
291
     1
 71
     2
176
     1
 72
     2
176
     1
 73
     3
176
     1
 90
        0
176
     1
 40
0.6
176
     1
 41
30.0
176
     1
 62
     5
 63
     8
421
  8421504
176
     1
 74
     1
176
     1
 91
        4
176
     1
 64
     7
176
     1
 65
   257
176
     1
 75
     1
176
     1
175
     1
176
     1
 42
1.0
176
     1
 92
        8
176
     1
 66
     8
424
  8421504
176
     1
 43
1.0
176
     1
 76
     1
176
     1
 77
     6
176
     1
 78
     2
176
     1
 67
     7
176
     1
 79
     5
176
     1
170
     0
176
     1
171
     0
176
     1
290
     0
176
     1
 93
        1
176
     1
 44
0.0
176
     1
173
     0
176
     1
  0
VISUALSTYLE
  5
34
102
{ACAD_REACTORS
330
2A
102
}
102
{ACAD_XDICTIONARY
360
470
102
}
330
2A
100
AcDbVisualStyle
  2
Conceptual
 70
     9
177
     2
291
     0
 71
     3
176
     1
 72
     2
176
     1
 73
     0
176
     1
 90
        0
176
     1
 40
0.6
176
     1
 41
30.0
176
     1
 62
     5
 63
     7
421
 16777215
176
     1
 74
     2
176
     1
 91
        2
176
     1
 64
     7
176
     1
 65
   257
176
     1
 75
     1
176
     1
175
     1
176
     1
 42
179.0
176
     1
 92
        8
176
     1
 66
     7
176
     1
 43
1.0
176
     1
 76
     1
176
     1
 77
     6
176
     1
 78
     2
176
     1
 67
     7
176
     1
 79
     3
176
     1
170
     0
176
     1
171
     0
176
     1
290
     0
176
     1
 93
        1
176
     1
 44
0.0
176
     1
173
     0
176
     1
  0
VISUALSTYLE
  5
35
102
{ACAD_REACTORS
330
2A
102
}
102
{ACAD_XDICTIONARY
360
472
102
}
330
2A
100
AcDbVisualStyle
  2
Dim
 70
    11
177
     2
291
     1
 71
     2
176
     1
 72
     2
176
     1
 73
     0
176
     1
 90
        0
176
     1
 40
0.6
176
     1
 41
30.0
176
     1
 62
     5
 63
     7
421
 16777215
176
     1
 74
     1
176
     1
 91
        4
176
     1
 64
     7
176
     1
 65
   257
176
     1
 75
     1
176
     1
175
     1
176
     1
 42
1.0
176
     1
 92
        8
176
     1
 66
     7
176
     1
 43
1.0
176
     1
 76
     1
176
     1
 77
     6
176
     1
 78
     2
176
     1
 67
     7
176
     1
 79
     5
176
     1
170
     0
176
     1
171
     0
176
     1
290
     0
176
     1
 93
        1
176
     1
 44
-50.0
176
     1
173
     0
176
     1
  0
VISUALSTYLE
  5
3D
102
{ACAD_REACTORS
330
2A
102
}
102
{ACAD_XDICTIONARY
360
482
102
}
330
2A
100
AcDbVisualStyle
  2
EdgeColorOff
 70
    22
177
     2
291
     1
 71
     2
176
     0
 72
     2
176
     0
 73
     0
176
     0
 90
        0
176
     0
 40
0.6
176
     0
 41
30.0
176
     0
 62
     5
 63
     7
421
 16777215
176
     0
 74
     1
176
     0
 91
        4
176
     0
 64
     7
176
     0
 65
   257
176
     0
 75
     1
176
     0
175
     1
176
     0
 42
1.0
176
     0
 92
        8
176
     2
 66
     7
176
     0
 43
1.0
176
     0
 76
     1
176
     0
 77
     6
176
     0
 78
     2
176
     0
 67
     7
176
     0
 79
     5
176
     0
170
     0
176
     0
171
     0
176
     0
290
     0
176
     0
 93
        1
176
     0
 44
0.0
176
     0
173
     0
176
     0
  0
VISUALSTYLE
  5
39
102
{ACAD_REACTORS
330
2A
102
}
102
{ACAD_XDICTIONARY
360
47A
102
}
330
2A
100
AcDbVisualStyle
  2
Facepattern
 70
    15
177
     2
291
     1
 71
     2
176
     1
 72
     2
176
     1
 73
     0
176
     1
 90
        0
176
     1
 40
0.6
176
     1
 41
30.0
176
     1
 62
     5
 63
     7
421
 16777215
176
     1
 74
     1
176
     1
 91
        4
176
     1
 64
     7
176
     1
 65
   257
176
     1
 75
     1
176
     1
175
     1
176
     1
 42
1.0
176
     1
 92
        8
176
     1
 66
     7
176
     1
 43
1.0
176
     1
 76
     1
176
     1
 77
     6
176
     1
 78
     2
176
     1
 67
     7
176
     1
 79
     5
176
     1
170
     0
176
     1
171
     0
176
     1
290
     0
176
     1
 93
        1
176
     1
 44
0.0
176
     1
173
     0
176
     1
  0
VISUALSTYLE
  5
2B
102
{ACAD_REACTORS
330
2A
102
}
102
{ACAD_XDICTIONARY
360
45E
102
}
330
2A
100
AcDbVisualStyle
  2
Flat
 70
     0
177
     2
291
     1
 71
     2
176
     1
 72
     1
176
     1
 73
     1
176
     1
 90
        2
176
     1
 40
0.6
176
     1
 41
30.0
176
     1
 62
     5
 63
     7
421
 16777215
176
     1
 74
     0
176
     1
 91
        0
176
     1
 64
     7
176
     1
 65
   257
176
     1
 75
     1
176
     1
175
     1
176
     1
 42
1.0
176
     1
 92
        8
176
     1
 66
     7
176
     1
 43
1.0
176
     1
 76
     1
176
     1
 77
     6
176
     1
 78
     2
176
     1
 67
     7
176
     1
 79
     5
176
     1
170
     0
176
     1
171
     0
176
     1
290
     0
176
     1
 93
       13
176
     1
 44
0.0
176
     1
173
     0
176
     1
  0
VISUALSTYLE
  5
2C
102
{ACAD_REACTORS
330
2A
102
}
102
{ACAD_XDICTIONARY
360
460
102
}
330
2A
100
AcDbVisualStyle
  2
FlatWithEdges
 70
     1
177
     2
291
     1
 71
     2
176
     1
 72
     1
176
     1
 73
     1
176
     1
 90
        2
176
     1
 40
0.6
176
     1
 41
30.0
176
     1
 62
     5
 63
     7
421
 16777215
176
     1
 74
     1
176
     1
 91
        0
176
     1
 64
     7
176
     1
 65
   257
176
     1
 75
     1
176
     1
175
     1
176
     1
 42
1.0
176
     1
 92
        0
176
     1
 66
   257
176
     1
 43
1.0
176
     1
 76
     1
176
     1
 77
     6
176
     1
 78
     2
176
     1
 67
     7
176
     1
 79
     5
176
     1
170
     0
176
     1
171
     0
176
     1
290
     0
176
     1
 93
       13
176
     1
 44
0.0
176
     1
173
     0
176
     1
  0
VISUALSTYLE
  5
2D
102
{ACAD_REACTORS
330
2A
102
}
102
{ACAD_XDICTIONARY
360
462
102
}
330
2A
100
AcDbVisualStyle
  2
Gouraud
 70
     2
177
     2
291
     1
 71
     2
176
     1
 72
     2
176
     1
 73
     1
176
     1
 90
        2
176
     1
 40
0.6
176
     1
 41
30.0
176
     1
 62
     5
 63
     7
421
 16777215
176
     1
 74
     0
176
     1
 91
        0
176
     1
 64
     7
176
     1
 65
   257
176
     1
 75
     1
176
     1
175
     1
176
     1
 42
1.0
176
     1
 92
        0
176
     1
 66
     7
176
     1
 43
1.0
176
     1
 76
     1
176
     1
 77
     6
176
     1
 78
     2
176
     1
 67
     7
176
     1
 79
     5
176
     1
170
     0
176
     1
171
     0
176
     1
290
     0
176
     1
 93
       13
176
     1
 44
0.0
176
     1
173
     0
176
     1
  0
VISUALSTYLE
  5
2E
102
{ACAD_REACTORS
330
2A
102
}
102
{ACAD_XDICTIONARY
360
464
102
}
330
2A
100
AcDbVisualStyle
  2
GouraudWithEdges
 70
     3
177
     2
291
     1
 71
     2
176
     1
 72
     2
176
     1
 73
     1
176
     1
 90
        2
176
     1
 40
0.6
176
     1
 41
30.0
176
     1
 62
     5
 63
     7
421
 16777215
176
     1
 74
     1
176
     1
 91
        0
176
     1
 64
     7
176
     1
 65
   257
176
     1
 75
     1
176
     1
175
     1
176
     1
 42
1.0
176
     1
 92
        0
176
     1
 66
   257
176
     1
 43
1.0
176
     1
 76
     1
176
     1
 77
     6
176
     1
 78
     2
176
     1
 67
     7
176
     1
 79
     5
176
     1
170
     0
176
     1
171
     0
176
     1
290
     0
176
     1
 93
       13
176
     1
 44
0.0
176
     1
173
     0
176
     1
  0
VISUALSTYLE
  5
31
102
{ACAD_REACTORS
330
2A
102
}
102
{ACAD_XDICTIONARY
360
46A
102
}
330
2A
100
AcDbVisualStyle
  2
Hidden
 70
     6
177
     2
291
     0
 71
     1
176
     1
 72
     2
176
     1
 73
     2
176
     1
 90
        0
176
     1
 40
0.6
176
     1
 41
30.0
176
     1
 62
     5
 63
     7
421
 16777215
176
     1
 74
     2
176
     1
 91
        2
176
     1
 64
     7
176
     1
 65
   257
176
     1
 75
     2
176
     1
175
     1
176
     1
 42
40.0
176
     1
 92
        0
176
     1
 66
   257
176
     1
 43
1.0
176
     1
 76
     1
176
     1
 77
     6
176
     1
 78
     2
176
     1
 67
     7
176
     1
 79
     3
176
     1
170
     0
176
     1
171
     0
176
     1
290
     0
176
     1
 93
        1
176
     1
 44
0.0
176
     1
173
     0
176
     1
  0
VISUALSTYLE
  5
3B
102
{ACAD_REACTORS
330
2A
102
}
102
{ACAD_XDICTIONARY
360
47E
102
}
330
2A
100
AcDbVisualStyle
  2
JitterOff
 70
    20
177
     2
291
     1
 71
     2
176
     0
 72
     2
176
     0
 73
     0
176
     0
 90
        0
176
     0
 40
0.6
176
     0
 41
30.0
176
     0
 62
     5
 63
     7
421
 16777215
176
     0
 74
     1
176
     0
 91
        4
176
     0
 64
     7
176
     0
 65
   257
176
     0
 75
     1
176
     0
175
     1
176
     0
 42
1.0
176
     0
 92
       10
176
     2
 66
     7
176
     0
 43
1.0
176
     0
 76
     1
176
     0
 77
     6
176
     0
 78
     2
176
     0
 67
     7
176
     0
 79
     5
176
     0
170
     0
176
     0
171
     0
176
     0
290
     0
176
     0
 93
        1
176
     0
 44
0.0
176
     0
173
     0
176
     0
  0
VISUALSTYLE
  5
38
102
{ACAD_REACTORS
330
2A
102
}
102
{ACAD_XDICTIONARY
360
478
102
}
330
2A
100
AcDbVisualStyle
  2
Linepattern
 70
    14
177
     2
291
     1
 71
     2
176
     1
 72
     2
176
     1
 73
     0
176
     1
 90
        0
176
     1
 40
0.6
176
     1
 41
30.0
176
     1
 62
     5
 63
     7
421
 16777215
176
     1
 74
     1
176
     1
 91
        4
176
     1
 64
     7
176
     1
 65
   257
176
     1
 75
     7
176
     1
175
     7
176
     1
 42
1.0
176
     1
 92
        8
176
     1
 66
     7
176
     1
 43
1.0
176
     1
 76
     1
176
     1
 77
     6
176
     1
 78
     2
176
     1
 67
     7
176
     1
 79
     5
176
     1
170
     0
176
     1
171
     0
176
     1
290
     0
176
     1
 93
        1
176
     1
 44
0.0
176
     1
173
     0
176
     1
  0
VISUALSTYLE
  5
3C
102
{ACAD_REACTORS
330
2A
102
}
102
{ACAD_XDICTIONARY
360
480
102
}
330
2A
100
AcDbVisualStyle
  2
OverhangOff
 70
    21
177
     2
291
     1
 71
     2
176
     0
 72
     2
176
     0
 73
     0
176
     0
 90
        0
176
     0
 40
0.6
176
     0
 41
30.0
176
     0
 62
     5
 63
     7
421
 16777215
176
     0
 74
     1
176
     0
 91
        4
176
     0
 64
     7
176
     0
 65
   257
176
     0
 75
     1
176
     0
175
     1
176
     0
 42
1.0
176
     0
 92
        9
176
     2
 66
     7
176
     0
 43
1.0
176
     0
 76
     1
176
     0
 77
     6
176
     0
 78
     2
176
     0
 67
     7
176
     0
 79
     5
176
     0
170
     0
176
     0
171
     0
176
     0
290
     0
176
     0
 93
        1
176
     0
 44
0.0
176
     0
173
     0
176
     0
  0
VISUALSTYLE
  5
33
102
{ACAD_REACTORS
330
2A
102
}
102
{ACAD_XDICTIONARY
360
46E
102
}
330
2A
100
AcDbVisualStyle
  2
Realistic
 70
     8
177
     2
291
     0
 71
     2
176
     1
 72
     3
176
     1
 73
     0
176
     1
 90
        2
176
     1
 40
0.6
176
     1
 41
30.0
176
     1
 62
     5
 63
     7
421
 16777215
176
     1
 74
     0
176
     1
 91
        0
176
     1
 64
     7
176
     1
 65
   257
176
     1
 75
     1
176
     1
175
     1
176
     1
 42
1.0
176
     1
 92
        8
176
     1
 66
   257
176
     1
 43
1.0
176
     1
 76
     1
176
     1
 77
     6
176
     1
 78
     2
176
     1
 67
     7
176
     1
 79
     3
176
     1
170
     0
176
     1
171
     0
176
     1
290
     0
176
     1
 93
       13
176
     1
 44
0.0
176
     1
173
     0
176
     1
  0
VISUALSTYLE
  5
42
102
{ACAD_REACTORS
330
2A
102
}
102
{ACAD_XDICTIONARY
360
48C
102
}
330
2A
100
AcDbVisualStyle
  2
Shaded
 70
    27
177
     2
291
     0
 71
     2
176
     1
 72
     2
176
     1
 73
     1
176
     1
 90
        2
176
     1
 40
0.6
176
     1
 41
30.0
176
     1
 62
     5
 63
     7
421
 16777215
176
     1
 74
     0
176
     1
 91
        4
176
     1
 64
     7
176
     1
 65
   257
176
     1
 75
     1
176
     1
175
     1
176
     1
 42
1.0
176
     1
 92
        8
176
     1
 66
   257
176
     1
 43
1.0
176
     1
 76
     1
176
     1
 77
     6
176
     1
 78
     2
176
     1
 67
     8
425
  7895160
176
     1
 79
     3
176
     1
170
     0
176
     1
171
     0
176
     1
290
     0
176
     1
 93
        5
176
     1
 44
0.0
176
     1
173
     0
176
     1
  0
VISUALSTYLE
  5
41
102
{ACAD_REACTORS
330
2A
102
}
102
{ACAD_XDICTIONARY
360
48A
102
}
330
2A
100
AcDbVisualStyle
  2
Shaded with edges
 70
    26
177
     2
291
     0
 71
     2
176
     1
 72
     2
176
     1
 73
     1
176
     1
 90
        2
176
     1
 40
0.6
176
     1
 41
30.0
176
     1
 62
     5
 63
     7
421
 16777215
176
     1
 74
     1
176
     1
 91
       10
176
     1
 64
     7
176
     1
 65
   257
176
     1
 75
     2
176
     1
175
     1
176
     1
 42
1.0
176
     1
 92
        8
176
     1
 66
   257
176
     1
 43
1.0
176
     1
 76
     1
176
     1
 77
     6
176
     1
 78
     2
176
     1
 67
     7
176
     1
 79
     3
176
     1
170
     0
176
     1
171
     0
176
     1
290
     0
176
     1
 93
        5
176
     1
 44
0.0
176
     1
173
     0
176
     1
  0
VISUALSTYLE
  5
3E
102
{ACAD_REACTORS
330
2A
102
}
102
{ACAD_XDICTIONARY
360
484
102
}
330
2A
100
AcDbVisualStyle
  2
Shades of Gray
 70
    23
177
     2
291
     0
 71
     2
176
     1
 72
     2
176
     1
 73
     3
176
     1
 90
        0
176
     1
 40
0.6
176
     1
 41
30.0
176
     1
 62
     5
 63
     7
421
 16777215
176
     1
 74
     2
176
     1
 91
        2
176
     1
 64
     7
176
     1
 65
     7
176
     1
 75
     1
176
     1
175
     1
176
     1
 42
40.0
176
     1
 92
        8
176
     1
 66
     7
176
     1
 43
1.0
176
     1
 76
     1
176
     1
 77
     6
176
     1
 78
     2
176
     1
 67
     7
176
     1
 79
     3
176
     1
170
     0
176
     1
171
     0
176
     1
290
     0
176
     1
 93
        1
176
     1
 44
0.0
176
     1
173
     0
176
     1
  0
VISUALSTYLE
  5
3F
102
{ACAD_REACTORS
330
2A
102
}
102
{ACAD_XDICTIONARY
360
486
102
}
330
2A
100
AcDbVisualStyle
  2
Sketchy
 70
    24
177
     2
291
     0
 71
     1
176
     1
 72
     2
176
     1
 73
     2
176
     1
 90
        0
176
     1
 40
0.6
176
     1
 41
30.0
176
     1
 62
     5
 63
     7
421
 16777215
176
     1
 74
     2
176
     1
 91
        2
176
     1
 64
     7
176
     1
 65
     7
176
     1
 75
     1
176
     1
175
     1
176
     1
 42
40.0
176
     1
 92
       11
176
     1
 66
     7
176
     1
 43
1.0
176
     1
 76
     1
176
     1
 77
     6
176
     1
 78
     2
176
     1
 67
     7
176
     1
 79
     6
176
     1
170
     0
176
     1
171
     0
176
     1
290
     0
176
     1
 93
        1
176
     1
 44
0.0
176
     1
173
     0
176
     1
  0
VISUALSTYLE
  5
37
102
{ACAD_REACTORS
330
2A
102
}
102
{ACAD_XDICTIONARY
360
476
102
}
330
2A
100
AcDbVisualStyle
  2
Thicken
 70
    13
177
     2
291
     1
 71
     2
176
     1
 72
     2
176
     1
 73
     0
176
     1
 90
        0
176
     1
 40
0.6
176
     1
 41
30.0
176
     1
 62
     5
 63
     7
421
 16777215
176
     1
 74
     1
176
     1
 91
        4
176
     1
 64
     7
176
     1
 65
   257
176
     1
 75
     1
176
     1
175
     1
176
     1
 42
1.0
176
     1
 92
       12
176
     1
 66
     7
176
     1
 43
1.0
176
     1
 76
     1
176
     1
 77
     6
176
     1
 78
     2
176
     1
 67
     7
176
     1
 79
     5
176
     1
170
     0
176
     1
171
     0
176
     1
290
     0
176
     1
 93
        1
176
     1
 44
0.0
176
     1
173
     0
176
     1
  0
VISUALSTYLE
  5
30
102
{ACAD_REACTORS
330
2A
102
}
102
{ACAD_XDICTIONARY
360
468
102
}
330
2A
100
AcDbVisualStyle
  2
Wireframe
 70
     5
177
     2
291
     0
 71
     0
176
     1
 72
     2
176
     1
 73
     0
176
     1
 90
        0
176
     1
 40
0.6
176
     1
 41
30.0
176
     1
 62
     5
 63
     7
421
 16777215
176
     1
 74
     1
176
     1
 91
        4
176
     1
 64
     7
176
     1
 65
   257
176
     1
 75
     1
176
     1
175
     1
176
     1
 42
1.0
176
     1
 92
        0
176
     1
 66
   257
176
     1
 43
1.0
176
     1
 76
     1
176
     1
 77
     6
176
     1
 78
     2
176
     1
 67
     7
176
     1
 79
     3
176
     1
170
     0
176
     1
171
     0
176
     1
290
     0
176
     1
 93
        1
176
     1
 44
0.0
176
     1
173
     0
176
     1
  0
VISUALSTYLE
  5
40
102
{ACAD_REACTORS
330
2A
102
}
102
{ACAD_XDICTIONARY
360
488
102
}
330
2A
100
AcDbVisualStyle
  2
X-Ray
 70
    25
177
     2
291
     0
 71
     2
176
     1
 72
     2
176
     1
 73
     1
176
     1
 90
        1
176
     1
 40
0.5
176
     1
 41
30.0
176
     1
 62
     5
 63
     7
421
 16777215
176
     1
 74
     1
176
     1
 91
        0
176
     1
 64
     7
176
     1
 65
   257
176
     1
 75
     1
176
     1
175
     1
176
     1
 42
1.0
176
     1
 92
        8
176
     1
 66
     7
176
     1
 43
1.0
176
     1
 76
     1
176
     1
 77
     6
176
     1
 78
     2
176
     1
 67
     7
176
     1
 79
     3
176
     1
170
     0
176
     1
171
     0
176
     1
290
     0
176
     1
 93
       13
176
     1
 44
0.0
176
     1
173
     0
176
     1
  0
DICTIONARYVAR
  5
45D
102
{ACAD_REACTORS
330
45C
102
}
330
45C
100
DictionaryVariables
280
     0
  1
1:1
  0
DICTIONARY
  5
466
330
2F
100
AcDbDictionary
280
     1
281
     1
  3
ACAD_XREC_ROUNDTRIP
360
467
  0
DICTIONARY
  5
46C
330
32
100
AcDbDictionary
280
     1
281
     1
  3
ACAD_XREC_ROUNDTRIP
360
46D
  0
DICTIONARY
  5
474
330
36
100
AcDbDictionary
280
     1
281
     1
  3
ACAD_XREC_ROUNDTRIP
360
475
  0
DICTIONARY
  5
47C
330
3A
100
AcDbDictionary
280
     1
281
     1
  3
ACAD_XREC_ROUNDTRIP
360
47D
  0
DICTIONARY
  5
470
330
34
100
AcDbDictionary
280
     1
281
     1
  3
ACAD_XREC_ROUNDTRIP
360
471
  0
DICTIONARY
  5
472
330
35
100
AcDbDictionary
280
     1
281
     1
  3
ACAD_XREC_ROUNDTRIP
360
473
  0
DICTIONARY
  5
482
330
3D
100
AcDbDictionary
280
     1
281
     1
  3
ACAD_XREC_ROUNDTRIP
360
483
  0
DICTIONARY
  5
47A
330
39
100
AcDbDictionary
280
     1
281
     1
  3
ACAD_XREC_ROUNDTRIP
360
47B
  0
DICTIONARY
  5
45E
330
2B
100
AcDbDictionary
280
     1
281
     1
  3
ACAD_XREC_ROUNDTRIP
360
45F
  0
DICTIONARY
  5
460
330
2C
100
AcDbDictionary
280
     1
281
     1
  3
ACAD_XREC_ROUNDTRIP
360
461
  0
DICTIONARY
  5
462
330
2D
100
AcDbDictionary
280
     1
281
     1
  3
ACAD_XREC_ROUNDTRIP
360
463
  0
DICTIONARY
  5
464
330
2E
100
AcDbDictionary
280
     1
281
     1
  3
ACAD_XREC_ROUNDTRIP
360
465
  0
DICTIONARY
  5
46A
330
31
100
AcDbDictionary
280
     1
281
     1
  3
ACAD_XREC_ROUNDTRIP
360
46B
  0
DICTIONARY
  5
47E
330
3B
100
AcDbDictionary
280
     1
281
     1
  3
ACAD_XREC_ROUNDTRIP
360
47F
  0
DICTIONARY
  5
478
330
38
100
AcDbDictionary
280
     1
281
     1
  3
ACAD_XREC_ROUNDTRIP
360
479
  0
DICTIONARY
  5
480
330
3C
100
AcDbDictionary
280
     1
281
     1
  3
ACAD_XREC_ROUNDTRIP
360
481
  0
DICTIONARY
  5
46E
330
33
100
AcDbDictionary
280
     1
281
     1
  3
ACAD_XREC_ROUNDTRIP
360
46F
  0
DICTIONARY
  5
48C
330
42
100
AcDbDictionary
280
     1
281
     1
  3
ACAD_XREC_ROUNDTRIP
360
48D
  0
DICTIONARY
  5
48A
330
41
100
AcDbDictionary
280
     1
281
     1
  3
ACAD_XREC_ROUNDTRIP
360
48B
  0
DICTIONARY
  5
484
330
3E
100
AcDbDictionary
280
     1
281
     1
  3
ACAD_XREC_ROUNDTRIP
360
485
  0
DICTIONARY
  5
486
330
3F
100
AcDbDictionary
280
     1
281
     1
  3
ACAD_XREC_ROUNDTRIP
360
487
  0
DICTIONARY
  5
476
330
37
100
AcDbDictionary
280
     1
281
     1
  3
ACAD_XREC_ROUNDTRIP
360
477
  0
DICTIONARY
  5
468
330
30
100
AcDbDictionary
280
     1
281
     1
  3
ACAD_XREC_ROUNDTRIP
360
469
  0
DICTIONARY
  5
488
330
40
100
AcDbDictionary
280
     1
281
     1
  3
ACAD_XREC_ROUNDTRIP
360
489
  0
XRECORD
  5
467
102
{ACAD_REACTORS
330
466
102
}
330
466
100
AcDbXrecord
280
     1
102
RTVSPost2010Prop28
280
     1
102
RTVSPost2010PropOp28
 70
     1
102
RTVSPost2010Prop29
280
     1
102
RTVSPost2010PropOp29
 70
     1
102
RTVSPost2010Prop30
280
     0
102
RTVSPost2010PropOp30
 70
     1
102
RTVSPost2010Prop31
280
     0
102
RTVSPost2010PropOp31
 70
     1
102
RTVSPost2010Prop32
280
     0
102
RTVSPost2010PropOp32
 70
     1
102
RTVSPost2010Prop33
280
     0
102
RTVSPost2010PropOp33
 70
     1
102
RTVSPost2010Prop34
280
     0
102
RTVSPost2010PropOp34
 70
     1
102
RTVSPost2010Prop35
280
     0
102
RTVSPost2010PropOp35
 70
     1
102
RTVSPost2010Prop36
280
     0
102
RTVSPost2010PropOp36
 70
     1
102
RTVSPost2010Prop37
 90
       50
102
RTVSPost2010PropOp37
 70
     1
102
RTVSPost2010Prop38
140
0.0
102
RTVSPost2010PropOp38
 70
     1
102
RTVSPost2010Prop39
140
1.0
102
RTVSPost2010PropOp39
 70
     1
102
RTVSPost2010Prop40
 90
        0
102
RTVSPost2010PropOp40
 70
     1
102
RTVSPost2010Prop41ColorIndex
 90
       18
102
RTVSPost2010Prop41ColorRGB
 90
        0
102
RTVSPost2010PropOp41
 70
     1
102
RTVSPost2010Prop42
 90
       50
102
RTVSPost2010PropOp42
 70
     1
102
RTVSPost2010Prop43
 90
        3
102
RTVSPost2010PropOp43
 70
     1
102
RTVSPost2010Prop44ColorIndex
 90
        5
102
RTVSPost2010Prop44ColorRGB
 90
      255
102
RTVSPost2010PropOp44
 70
     1
102
RTVSPost2010Prop45
280
     0
102
RTVSPost2010PropOp45
 70
     1
102
RTVSPost2010Prop46
 90
       50
102
RTVSPost2010PropOp46
 70
     1
102
RTVSPost2010Prop47
 90
       50
102
RTVSPost2010PropOp47
 70
     1
102
RTVSPost2010Prop48
 90
       50
102
RTVSPost2010PropOp48
 70
     1
102
RTVSPost2010Prop49
280
     0
102
RTVSPost2010PropOp49
 70
     1
102
RTVSPost2010Prop50
 90
       50
102
RTVSPost2010PropOp50
 70
     1
102
RTVSPost2010Prop51ColorIndex
 90
      256
102
RTVSPost2010Prop51ColorRGB
 90
-16777216
102
RTVSPost2010PropOp51
 70
     0
102
RTVSPost2010Prop52
140
1.0
102
RTVSPost2010PropOp52
 70
     0
102
RTVSPost2010Prop53
 90
        2
102
RTVSPost2010PropOp53
 70
     1
102
RTVSPost2010Prop54
  1
strokes_ogs.tif
102
RTVSPost2010PropOp54
 70
     1
102
RTVSPost2010Prop55
280
     0
102
RTVSPost2010PropOp55
 70
     1
102
RTVSPost2010Prop56
140
1.0
102
RTVSPost2010PropOp56
 70
     1
102
RTVSPost2010Prop57
140
1.0
102
RTVSPost2010PropOp57
 70
     1
  0
XRECORD
  5
46D
102
{ACAD_REACTORS
330
46C
102
}
330
46C
100
AcDbXrecord
280
     1
102
RTVSPost2010Prop28
280
     0
102
RTVSPost2010PropOp28
 70
     1
102
RTVSPost2010Prop29
280
     1
102
RTVSPost2010PropOp29
 70
     1
102
RTVSPost2010Prop30
280
     1
102
RTVSPost2010PropOp30
 70
     1
102
RTVSPost2010Prop31
280
     0
102
RTVSPost2010PropOp31
 70
     1
102
RTVSPost2010Prop32
280
     0
102
RTVSPost2010PropOp32
 70
     1
102
RTVSPost2010Prop33
280
     0
102
RTVSPost2010PropOp33
 70
     1
102
RTVSPost2010Prop34
280
     0
102
RTVSPost2010PropOp34
 70
     1
102
RTVSPost2010Prop35
280
     0
102
RTVSPost2010PropOp35
 70
     1
102
RTVSPost2010Prop36
280
     0
102
RTVSPost2010PropOp36
 70
     1
102
RTVSPost2010Prop37
 90
       50
102
RTVSPost2010PropOp37
 70
     1
102
RTVSPost2010Prop38
140
0.0
102
RTVSPost2010PropOp38
 70
     1
102
RTVSPost2010Prop39
140
1.0
102
RTVSPost2010PropOp39
 70
     1
102
RTVSPost2010Prop40
 90
        0
102
RTVSPost2010PropOp40
 70
     1
102
RTVSPost2010Prop41ColorIndex
 90
       18
102
RTVSPost2010Prop41ColorRGB
 90
        0
102
RTVSPost2010PropOp41
 70
     1
102
RTVSPost2010Prop42
 90
       50
102
RTVSPost2010PropOp42
 70
     1
102
RTVSPost2010Prop43
 90
        3
102
RTVSPost2010PropOp43
 70
     1
102
RTVSPost2010Prop44ColorIndex
 90
        5
102
RTVSPost2010Prop44ColorRGB
 90
      255
102
RTVSPost2010PropOp44
 70
     1
102
RTVSPost2010Prop45
280
     0
102
RTVSPost2010PropOp45
 70
     1
102
RTVSPost2010Prop46
 90
       50
102
RTVSPost2010PropOp46
 70
     1
102
RTVSPost2010Prop47
 90
       50
102
RTVSPost2010PropOp47
 70
     1
102
RTVSPost2010Prop48
 90
       50
102
RTVSPost2010PropOp48
 70
     1
102
RTVSPost2010Prop49
280
     0
102
RTVSPost2010PropOp49
 70
     1
102
RTVSPost2010Prop50
 90
       50
102
RTVSPost2010PropOp50
 70
     1
102
RTVSPost2010Prop51ColorIndex
 90
      256
102
RTVSPost2010Prop51ColorRGB
 90
-16777216
102
RTVSPost2010PropOp51
 70
     0
102
RTVSPost2010Prop52
140
1.0
102
RTVSPost2010PropOp52
 70
     0
102
RTVSPost2010Prop53
 90
        2
102
RTVSPost2010PropOp53
 70
     1
102
RTVSPost2010Prop54
  1
strokes_ogs.tif
102
RTVSPost2010PropOp54
 70
     1
102
RTVSPost2010Prop55
280
     0
102
RTVSPost2010PropOp55
 70
     1
102
RTVSPost2010Prop56
140
1.0
102
RTVSPost2010PropOp56
 70
     1
102
RTVSPost2010Prop57
140
1.0
102
RTVSPost2010PropOp57
 70
     1
  0
XRECORD
  5
475
102
{ACAD_REACTORS
330
474
102
}
330
474
100
AcDbXrecord
280
     1
102
RTVSPost2010Prop28
280
     0
102
RTVSPost2010PropOp28
 70
     1
102
RTVSPost2010Prop29
280
     1
102
RTVSPost2010PropOp29
 70
     1
102
RTVSPost2010Prop30
280
     1
102
RTVSPost2010PropOp30
 70
     1
102
RTVSPost2010Prop31
280
     0
102
RTVSPost2010PropOp31
 70
     1
102
RTVSPost2010Prop32
280
     0
102
RTVSPost2010PropOp32
 70
     1
102
RTVSPost2010Prop33
280
     0
102
RTVSPost2010PropOp33
 70
     1
102
RTVSPost2010Prop34
280
     0
102
RTVSPost2010PropOp34
 70
     1
102
RTVSPost2010Prop35
280
     0
102
RTVSPost2010PropOp35
 70
     1
102
RTVSPost2010Prop36
280
     0
102
RTVSPost2010PropOp36
 70
     1
102
RTVSPost2010Prop37
 90
       50
102
RTVSPost2010PropOp37
 70
     1
102
RTVSPost2010Prop38
140
0.0
102
RTVSPost2010PropOp38
 70
     1
102
RTVSPost2010Prop39
140
1.0
102
RTVSPost2010PropOp39
 70
     1
102
RTVSPost2010Prop40
 90
        0
102
RTVSPost2010PropOp40
 70
     1
102
RTVSPost2010Prop41ColorIndex
 90
       18
102
RTVSPost2010Prop41ColorRGB
 90
        0
102
RTVSPost2010PropOp41
 70
     1
102
RTVSPost2010Prop42
 90
       50
102
RTVSPost2010PropOp42
 70
     1
102
RTVSPost2010Prop43
 90
        3
102
RTVSPost2010PropOp43
 70
     1
102
RTVSPost2010Prop44ColorIndex
 90
        5
102
RTVSPost2010Prop44ColorRGB
 90
      255
102
RTVSPost2010PropOp44
 70
     1
102
RTVSPost2010Prop45
280
     0
102
RTVSPost2010PropOp45
 70
     1
102
RTVSPost2010Prop46
 90
       50
102
RTVSPost2010PropOp46
 70
     1
102
RTVSPost2010Prop47
 90
       50
102
RTVSPost2010PropOp47
 70
     1
102
RTVSPost2010Prop48
 90
       50
102
RTVSPost2010PropOp48
 70
     1
102
RTVSPost2010Prop49
280
     0
102
RTVSPost2010PropOp49
 70
     1
102
RTVSPost2010Prop50
 90
       50
102
RTVSPost2010PropOp50
 70
     1
102
RTVSPost2010Prop51ColorIndex
 90
      256
102
RTVSPost2010Prop51ColorRGB
 90
-16777216
102
RTVSPost2010PropOp51
 70
     0
102
RTVSPost2010Prop52
140
1.0
102
RTVSPost2010PropOp52
 70
     0
102
RTVSPost2010Prop53
 90
        2
102
RTVSPost2010PropOp53
 70
     1
102
RTVSPost2010Prop54
  1
strokes_ogs.tif
102
RTVSPost2010PropOp54
 70
     1
102
RTVSPost2010Prop55
280
     0
102
RTVSPost2010PropOp55
 70
     1
102
RTVSPost2010Prop56
140
1.0
102
RTVSPost2010PropOp56
 70
     1
102
RTVSPost2010Prop57
140
1.0
102
RTVSPost2010PropOp57
 70
     1
  0
XRECORD
  5
47D
102
{ACAD_REACTORS
330
47C
102
}
330
47C
100
AcDbXrecord
280
     1
102
RTVSPost2010Prop28
280
     0
102
RTVSPost2010PropOp28
 70
     1
102
RTVSPost2010Prop29
280
     1
102
RTVSPost2010PropOp29
 70
     1
102
RTVSPost2010Prop30
280
     1
102
RTVSPost2010PropOp30
 70
     1
102
RTVSPost2010Prop31
280
     0
102
RTVSPost2010PropOp31
 70
     1
102
RTVSPost2010Prop32
280
     0
102
RTVSPost2010PropOp32
 70
     1
102
RTVSPost2010Prop33
280
     0
102
RTVSPost2010PropOp33
 70
     1
102
RTVSPost2010Prop34
280
     0
102
RTVSPost2010PropOp34
 70
     1
102
RTVSPost2010Prop35
280
     0
102
RTVSPost2010PropOp35
 70
     1
102
RTVSPost2010Prop36
280
     0
102
RTVSPost2010PropOp36
 70
     1
102
RTVSPost2010Prop37
 90
       50
102
RTVSPost2010PropOp37
 70
     1
102
RTVSPost2010Prop38
140
0.0
102
RTVSPost2010PropOp38
 70
     1
102
RTVSPost2010Prop39
140
1.0
102
RTVSPost2010PropOp39
 70
     1
102
RTVSPost2010Prop40
 90
        0
102
RTVSPost2010PropOp40
 70
     1
102
RTVSPost2010Prop41ColorIndex
 90
       18
102
RTVSPost2010Prop41ColorRGB
 90
        0
102
RTVSPost2010PropOp41
 70
     1
102
RTVSPost2010Prop42
 90
       50
102
RTVSPost2010PropOp42
 70
     1
102
RTVSPost2010Prop43
 90
        3
102
RTVSPost2010PropOp43
 70
     1
102
RTVSPost2010Prop44ColorIndex
 90
        5
102
RTVSPost2010Prop44ColorRGB
 90
      255
102
RTVSPost2010PropOp44
 70
     1
102
RTVSPost2010Prop45
280
     0
102
RTVSPost2010PropOp45
 70
     1
102
RTVSPost2010Prop46
 90
       50
102
RTVSPost2010PropOp46
 70
     1
102
RTVSPost2010Prop47
 90
       50
102
RTVSPost2010PropOp47
 70
     1
102
RTVSPost2010Prop48
 90
       50
102
RTVSPost2010PropOp48
 70
     1
102
RTVSPost2010Prop49
280
     0
102
RTVSPost2010PropOp49
 70
     1
102
RTVSPost2010Prop50
 90
       50
102
RTVSPost2010PropOp50
 70
     1
102
RTVSPost2010Prop51ColorIndex
 90
      256
102
RTVSPost2010Prop51ColorRGB
 90
-16777216
102
RTVSPost2010PropOp51
 70
     0
102
RTVSPost2010Prop52
140
1.0
102
RTVSPost2010PropOp52
 70
     0
102
RTVSPost2010Prop53
 90
        2
102
RTVSPost2010PropOp53
 70
     1
102
RTVSPost2010Prop54
  1
strokes_ogs.tif
102
RTVSPost2010PropOp54
 70
     1
102
RTVSPost2010Prop55
280
     0
102
RTVSPost2010PropOp55
 70
     1
102
RTVSPost2010Prop56
140
1.0
102
RTVSPost2010PropOp56
 70
     1
102
RTVSPost2010Prop57
140
1.0
102
RTVSPost2010PropOp57
 70
     1
  0
XRECORD
  5
471
102
{ACAD_REACTORS
330
470
102
}
330
470
100
AcDbXrecord
280
     1
102
RTVSPost2010Prop28
280
     0
102
RTVSPost2010PropOp28
 70
     1
102
RTVSPost2010Prop29
280
     1
102
RTVSPost2010PropOp29
 70
     1
102
RTVSPost2010Prop30
280
     1
102
RTVSPost2010PropOp30
 70
     1
102
RTVSPost2010Prop31
280
     0
102
RTVSPost2010PropOp31
 70
     1
102
RTVSPost2010Prop32
280
     0
102
RTVSPost2010PropOp32
 70
     1
102
RTVSPost2010Prop33
280
     0
102
RTVSPost2010PropOp33
 70
     1
102
RTVSPost2010Prop34
280
     0
102
RTVSPost2010PropOp34
 70
     1
102
RTVSPost2010Prop35
280
     0
102
RTVSPost2010PropOp35
 70
     1
102
RTVSPost2010Prop36
280
     0
102
RTVSPost2010PropOp36
 70
     1
102
RTVSPost2010Prop37
 90
       50
102
RTVSPost2010PropOp37
 70
     1
102
RTVSPost2010Prop38
140
0.0
102
RTVSPost2010PropOp38
 70
     1
102
RTVSPost2010Prop39
140
1.0
102
RTVSPost2010PropOp39
 70
     1
102
RTVSPost2010Prop40
 90
        0
102
RTVSPost2010PropOp40
 70
     1
102
RTVSPost2010Prop41ColorIndex
 90
       18
102
RTVSPost2010Prop41ColorRGB
 90
        0
102
RTVSPost2010PropOp41
 70
     1
102
RTVSPost2010Prop42
 90
       50
102
RTVSPost2010PropOp42
 70
     1
102
RTVSPost2010Prop43
 90
        3
102
RTVSPost2010PropOp43
 70
     1
102
RTVSPost2010Prop44ColorIndex
 90
        5
102
RTVSPost2010Prop44ColorRGB
 90
      255
102
RTVSPost2010PropOp44
 70
     1
102
RTVSPost2010Prop45
280
     0
102
RTVSPost2010PropOp45
 70
     1
102
RTVSPost2010Prop46
 90
       50
102
RTVSPost2010PropOp46
 70
     1
102
RTVSPost2010Prop47
 90
       50
102
RTVSPost2010PropOp47
 70
     1
102
RTVSPost2010Prop48
 90
       50
102
RTVSPost2010PropOp48
 70
     1
102
RTVSPost2010Prop49
280
     0
102
RTVSPost2010PropOp49
 70
     1
102
RTVSPost2010Prop50
 90
       50
102
RTVSPost2010PropOp50
 70
     1
102
RTVSPost2010Prop51ColorIndex
 90
      256
102
RTVSPost2010Prop51ColorRGB
 90
-16777216
102
RTVSPost2010PropOp51
 70
     0
102
RTVSPost2010Prop52
140
1.0
102
RTVSPost2010PropOp52
 70
     0
102
RTVSPost2010Prop53
 90
        2
102
RTVSPost2010PropOp53
 70
     1
102
RTVSPost2010Prop54
  1
strokes_ogs.tif
102
RTVSPost2010PropOp54
 70
     1
102
RTVSPost2010Prop55
280
     0
102
RTVSPost2010PropOp55
 70
     1
102
RTVSPost2010Prop56
140
1.0
102
RTVSPost2010PropOp56
 70
     1
102
RTVSPost2010Prop57
140
1.0
102
RTVSPost2010PropOp57
 70
     1
  0
XRECORD
  5
473
102
{ACAD_REACTORS
330
472
102
}
330
472
100
AcDbXrecord
280
     1
102
RTVSPost2010Prop28
280
     0
102
RTVSPost2010PropOp28
 70
     1
102
RTVSPost2010Prop29
280
     1
102
RTVSPost2010PropOp29
 70
     1
102
RTVSPost2010Prop30
280
     1
102
RTVSPost2010PropOp30
 70
     1
102
RTVSPost2010Prop31
280
     0
102
RTVSPost2010PropOp31
 70
     1
102
RTVSPost2010Prop32
280
     0
102
RTVSPost2010PropOp32
 70
     1
102
RTVSPost2010Prop33
280
     0
102
RTVSPost2010PropOp33
 70
     1
102
RTVSPost2010Prop34
280
     0
102
RTVSPost2010PropOp34
 70
     1
102
RTVSPost2010Prop35
280
     0
102
RTVSPost2010PropOp35
 70
     1
102
RTVSPost2010Prop36
280
     0
102
RTVSPost2010PropOp36
 70
     1
102
RTVSPost2010Prop37
 90
       50
102
RTVSPost2010PropOp37
 70
     1
102
RTVSPost2010Prop38
140
0.0
102
RTVSPost2010PropOp38
 70
     1
102
RTVSPost2010Prop39
140
1.0
102
RTVSPost2010PropOp39
 70
     1
102
RTVSPost2010Prop40
 90
        0
102
RTVSPost2010PropOp40
 70
     1
102
RTVSPost2010Prop41ColorIndex
 90
       18
102
RTVSPost2010Prop41ColorRGB
 90
        0
102
RTVSPost2010PropOp41
 70
     1
102
RTVSPost2010Prop42
 90
       50
102
RTVSPost2010PropOp42
 70
     1
102
RTVSPost2010Prop43
 90
        3
102
RTVSPost2010PropOp43
 70
     1
102
RTVSPost2010Prop44ColorIndex
 90
        5
102
RTVSPost2010Prop44ColorRGB
 90
      255
102
RTVSPost2010PropOp44
 70
     1
102
RTVSPost2010Prop45
280
     0
102
RTVSPost2010PropOp45
 70
     1
102
RTVSPost2010Prop46
 90
       50
102
RTVSPost2010PropOp46
 70
     1
102
RTVSPost2010Prop47
 90
       50
102
RTVSPost2010PropOp47
 70
     1
102
RTVSPost2010Prop48
 90
       50
102
RTVSPost2010PropOp48
 70
     1
102
RTVSPost2010Prop49
280
     0
102
RTVSPost2010PropOp49
 70
     1
102
RTVSPost2010Prop50
 90
       50
102
RTVSPost2010PropOp50
 70
     1
102
RTVSPost2010Prop51ColorIndex
 90
      256
102
RTVSPost2010Prop51ColorRGB
 90
-16777216
102
RTVSPost2010PropOp51
 70
     0
102
RTVSPost2010Prop52
140
1.0
102
RTVSPost2010PropOp52
 70
     0
102
RTVSPost2010Prop53
 90
        2
102
RTVSPost2010PropOp53
 70
     1
102
RTVSPost2010Prop54
  1
strokes_ogs.tif
102
RTVSPost2010PropOp54
 70
     1
102
RTVSPost2010Prop55
280
     0
102
RTVSPost2010PropOp55
 70
     1
102
RTVSPost2010Prop56
140
1.0
102
RTVSPost2010PropOp56
 70
     1
102
RTVSPost2010Prop57
140
1.0
102
RTVSPost2010PropOp57
 70
     1
  0
XRECORD
  5
483
102
{ACAD_REACTORS
330
482
102
}
330
482
100
AcDbXrecord
280
     1
102
RTVSPost2010Prop28
280
     0
102
RTVSPost2010PropOp28
 70
     0
102
RTVSPost2010Prop29
280
     1
102
RTVSPost2010PropOp29
 70
     0
102
RTVSPost2010Prop30
280
     1
102
RTVSPost2010PropOp30
 70
     0
102
RTVSPost2010Prop31
280
     0
102
RTVSPost2010PropOp31
 70
     0
102
RTVSPost2010Prop32
280
     0
102
RTVSPost2010PropOp32
 70
     0
102
RTVSPost2010Prop33
280
     0
102
RTVSPost2010PropOp33
 70
     0
102
RTVSPost2010Prop34
280
     0
102
RTVSPost2010PropOp34
 70
     0
102
RTVSPost2010Prop35
280
     0
102
RTVSPost2010PropOp35
 70
     0
102
RTVSPost2010Prop36
280
     0
102
RTVSPost2010PropOp36
 70
     0
102
RTVSPost2010Prop37
 90
       50
102
RTVSPost2010PropOp37
 70
     0
102
RTVSPost2010Prop38
140
0.0
102
RTVSPost2010PropOp38
 70
     0
102
RTVSPost2010Prop39
140
1.0
102
RTVSPost2010PropOp39
 70
     0
102
RTVSPost2010Prop40
 90
        0
102
RTVSPost2010PropOp40
 70
     0
102
RTVSPost2010Prop41ColorIndex
 90
       18
102
RTVSPost2010Prop41ColorRGB
 90
        0
102
RTVSPost2010PropOp41
 70
     0
102
RTVSPost2010Prop42
 90
       50
102
RTVSPost2010PropOp42
 70
     0
102
RTVSPost2010Prop43
 90
        3
102
RTVSPost2010PropOp43
 70
     0
102
RTVSPost2010Prop44ColorIndex
 90
        5
102
RTVSPost2010Prop44ColorRGB
 90
      255
102
RTVSPost2010PropOp44
 70
     0
102
RTVSPost2010Prop45
280
     0
102
RTVSPost2010PropOp45
 70
     0
102
RTVSPost2010Prop46
 90
       50
102
RTVSPost2010PropOp46
 70
     0
102
RTVSPost2010Prop47
 90
       50
102
RTVSPost2010PropOp47
 70
     0
102
RTVSPost2010Prop48
 90
       50
102
RTVSPost2010PropOp48
 70
     0
102
RTVSPost2010Prop49
280
     0
102
RTVSPost2010PropOp49
 70
     0
102
RTVSPost2010Prop50
 90
       50
102
RTVSPost2010PropOp50
 70
     0
102
RTVSPost2010Prop51ColorIndex
 90
      256
102
RTVSPost2010Prop51ColorRGB
 90
-16777216
102
RTVSPost2010PropOp51
 70
     0
102
RTVSPost2010Prop52
140
1.0
102
RTVSPost2010PropOp52
 70
     0
102
RTVSPost2010Prop53
 90
        2
102
RTVSPost2010PropOp53
 70
     0
102
RTVSPost2010Prop54
  1
strokes_ogs.tif
102
RTVSPost2010PropOp54
 70
     0
102
RTVSPost2010Prop55
280
     0
102
RTVSPost2010PropOp55
 70
     0
102
RTVSPost2010Prop56
140
1.0
102
RTVSPost2010PropOp56
 70
     0
102
RTVSPost2010Prop57
140
1.0
102
RTVSPost2010PropOp57
 70
     0
  0
XRECORD
  5
47B
102
{ACAD_REACTORS
330
47A
102
}
330
47A
100
AcDbXrecord
280
     1
102
RTVSPost2010Prop28
280
     0
102
RTVSPost2010PropOp28
 70
     1
102
RTVSPost2010Prop29
280
     1
102
RTVSPost2010PropOp29
 70
     1
102
RTVSPost2010Prop30
280
     1
102
RTVSPost2010PropOp30
 70
     1
102
RTVSPost2010Prop31
280
     0
102
RTVSPost2010PropOp31
 70
     1
102
RTVSPost2010Prop32
280
     0
102
RTVSPost2010PropOp32
 70
     1
102
RTVSPost2010Prop33
280
     0
102
RTVSPost2010PropOp33
 70
     1
102
RTVSPost2010Prop34
280
     0
102
RTVSPost2010PropOp34
 70
     1
102
RTVSPost2010Prop35
280
     0
102
RTVSPost2010PropOp35
 70
     1
102
RTVSPost2010Prop36
280
     0
102
RTVSPost2010PropOp36
 70
     1
102
RTVSPost2010Prop37
 90
       50
102
RTVSPost2010PropOp37
 70
     1
102
RTVSPost2010Prop38
140
0.0
102
RTVSPost2010PropOp38
 70
     1
102
RTVSPost2010Prop39
140
1.0
102
RTVSPost2010PropOp39
 70
     1
102
RTVSPost2010Prop40
 90
        0
102
RTVSPost2010PropOp40
 70
     1
102
RTVSPost2010Prop41ColorIndex
 90
       18
102
RTVSPost2010Prop41ColorRGB
 90
        0
102
RTVSPost2010PropOp41
 70
     1
102
RTVSPost2010Prop42
 90
       50
102
RTVSPost2010PropOp42
 70
     1
102
RTVSPost2010Prop43
 90
        3
102
RTVSPost2010PropOp43
 70
     1
102
RTVSPost2010Prop44ColorIndex
 90
        5
102
RTVSPost2010Prop44ColorRGB
 90
      255
102
RTVSPost2010PropOp44
 70
     1
102
RTVSPost2010Prop45
280
     0
102
RTVSPost2010PropOp45
 70
     1
102
RTVSPost2010Prop46
 90
       50
102
RTVSPost2010PropOp46
 70
     1
102
RTVSPost2010Prop47
 90
       50
102
RTVSPost2010PropOp47
 70
     1
102
RTVSPost2010Prop48
 90
       50
102
RTVSPost2010PropOp48
 70
     1
102
RTVSPost2010Prop49
280
     0
102
RTVSPost2010PropOp49
 70
     1
102
RTVSPost2010Prop50
 90
       50
102
RTVSPost2010PropOp50
 70
     1
102
RTVSPost2010Prop51ColorIndex
 90
      256
102
RTVSPost2010Prop51ColorRGB
 90
-16777216
102
RTVSPost2010PropOp51
 70
     0
102
RTVSPost2010Prop52
140
1.0
102
RTVSPost2010PropOp52
 70
     0
102
RTVSPost2010Prop53
 90
        2
102
RTVSPost2010PropOp53
 70
     1
102
RTVSPost2010Prop54
  1
strokes_ogs.tif
102
RTVSPost2010PropOp54
 70
     1
102
RTVSPost2010Prop55
280
     0
102
RTVSPost2010PropOp55
 70
     1
102
RTVSPost2010Prop56
140
1.0
102
RTVSPost2010PropOp56
 70
     1
102
RTVSPost2010Prop57
140
1.0
102
RTVSPost2010PropOp57
 70
     1
  0
XRECORD
  5
45F
102
{ACAD_REACTORS
330
45E
102
}
330
45E
100
AcDbXrecord
280
     1
102
RTVSPost2010Prop28
280
     0
102
RTVSPost2010PropOp28
 70
     1
102
RTVSPost2010Prop29
280
     1
102
RTVSPost2010PropOp29
 70
     1
102
RTVSPost2010Prop30
280
     1
102
RTVSPost2010PropOp30
 70
     1
102
RTVSPost2010Prop31
280
     0
102
RTVSPost2010PropOp31
 70
     1
102
RTVSPost2010Prop32
280
     0
102
RTVSPost2010PropOp32
 70
     1
102
RTVSPost2010Prop33
280
     0
102
RTVSPost2010PropOp33
 70
     1
102
RTVSPost2010Prop34
280
     0
102
RTVSPost2010PropOp34
 70
     1
102
RTVSPost2010Prop35
280
     0
102
RTVSPost2010PropOp35
 70
     1
102
RTVSPost2010Prop36
280
     0
102
RTVSPost2010PropOp36
 70
     1
102
RTVSPost2010Prop37
 90
       50
102
RTVSPost2010PropOp37
 70
     1
102
RTVSPost2010Prop38
140
0.0
102
RTVSPost2010PropOp38
 70
     1
102
RTVSPost2010Prop39
140
1.0
102
RTVSPost2010PropOp39
 70
     1
102
RTVSPost2010Prop40
 90
        0
102
RTVSPost2010PropOp40
 70
     1
102
RTVSPost2010Prop41ColorIndex
 90
       18
102
RTVSPost2010Prop41ColorRGB
 90
        0
102
RTVSPost2010PropOp41
 70
     1
102
RTVSPost2010Prop42
 90
       50
102
RTVSPost2010PropOp42
 70
     1
102
RTVSPost2010Prop43
 90
        3
102
RTVSPost2010PropOp43
 70
     1
102
RTVSPost2010Prop44ColorIndex
 90
        5
102
RTVSPost2010Prop44ColorRGB
 90
      255
102
RTVSPost2010PropOp44
 70
     1
102
RTVSPost2010Prop45
280
     0
102
RTVSPost2010PropOp45
 70
     1
102
RTVSPost2010Prop46
 90
       50
102
RTVSPost2010PropOp46
 70
     1
102
RTVSPost2010Prop47
 90
       50
102
RTVSPost2010PropOp47
 70
     1
102
RTVSPost2010Prop48
 90
       50
102
RTVSPost2010PropOp48
 70
     1
102
RTVSPost2010Prop49
280
     0
102
RTVSPost2010PropOp49
 70
     1
102
RTVSPost2010Prop50
 90
       50
102
RTVSPost2010PropOp50
 70
     1
102
RTVSPost2010Prop51ColorIndex
 90
      256
102
RTVSPost2010Prop51ColorRGB
 90
-16777216
102
RTVSPost2010PropOp51
 70
     0
102
RTVSPost2010Prop52
140
1.0
102
RTVSPost2010PropOp52
 70
     0
102
RTVSPost2010Prop53
 90
        2
102
RTVSPost2010PropOp53
 70
     1
102
RTVSPost2010Prop54
  1
strokes_ogs.tif
102
RTVSPost2010PropOp54
 70
     1
102
RTVSPost2010Prop55
280
     0
102
RTVSPost2010PropOp55
 70
     1
102
RTVSPost2010Prop56
140
1.0
102
RTVSPost2010PropOp56
 70
     1
102
RTVSPost2010Prop57
140
1.0
102
RTVSPost2010PropOp57
 70
     1
  0
XRECORD
  5
461
102
{ACAD_REACTORS
330
460
102
}
330
460
100
AcDbXrecord
280
     1
102
RTVSPost2010Prop28
280
     0
102
RTVSPost2010PropOp28
 70
     1
102
RTVSPost2010Prop29
280
     1
102
RTVSPost2010PropOp29
 70
     1
102
RTVSPost2010Prop30
280
     1
102
RTVSPost2010PropOp30
 70
     1
102
RTVSPost2010Prop31
280
     0
102
RTVSPost2010PropOp31
 70
     1
102
RTVSPost2010Prop32
280
     0
102
RTVSPost2010PropOp32
 70
     1
102
RTVSPost2010Prop33
280
     0
102
RTVSPost2010PropOp33
 70
     1
102
RTVSPost2010Prop34
280
     0
102
RTVSPost2010PropOp34
 70
     1
102
RTVSPost2010Prop35
280
     0
102
RTVSPost2010PropOp35
 70
     1
102
RTVSPost2010Prop36
280
     0
102
RTVSPost2010PropOp36
 70
     1
102
RTVSPost2010Prop37
 90
       50
102
RTVSPost2010PropOp37
 70
     1
102
RTVSPost2010Prop38
140
0.0
102
RTVSPost2010PropOp38
 70
     1
102
RTVSPost2010Prop39
140
1.0
102
RTVSPost2010PropOp39
 70
     1
102
RTVSPost2010Prop40
 90
        0
102
RTVSPost2010PropOp40
 70
     1
102
RTVSPost2010Prop41ColorIndex
 90
       18
102
RTVSPost2010Prop41ColorRGB
 90
        0
102
RTVSPost2010PropOp41
 70
     1
102
RTVSPost2010Prop42
 90
       50
102
RTVSPost2010PropOp42
 70
     1
102
RTVSPost2010Prop43
 90
        3
102
RTVSPost2010PropOp43
 70
     1
102
RTVSPost2010Prop44ColorIndex
 90
        5
102
RTVSPost2010Prop44ColorRGB
 90
      255
102
RTVSPost2010PropOp44
 70
     1
102
RTVSPost2010Prop45
280
     0
102
RTVSPost2010PropOp45
 70
     1
102
RTVSPost2010Prop46
 90
       50
102
RTVSPost2010PropOp46
 70
     1
102
RTVSPost2010Prop47
 90
       50
102
RTVSPost2010PropOp47
 70
     1
102
RTVSPost2010Prop48
 90
       50
102
RTVSPost2010PropOp48
 70
     1
102
RTVSPost2010Prop49
280
     0
102
RTVSPost2010PropOp49
 70
     1
102
RTVSPost2010Prop50
 90
       50
102
RTVSPost2010PropOp50
 70
     1
102
RTVSPost2010Prop51ColorIndex
 90
      256
102
RTVSPost2010Prop51ColorRGB
 90
-16777216
102
RTVSPost2010PropOp51
 70
     0
102
RTVSPost2010Prop52
140
1.0
102
RTVSPost2010PropOp52
 70
     0
102
RTVSPost2010Prop53
 90
        2
102
RTVSPost2010PropOp53
 70
     1
102
RTVSPost2010Prop54
  1
strokes_ogs.tif
102
RTVSPost2010PropOp54
 70
     1
102
RTVSPost2010Prop55
280
     0
102
RTVSPost2010PropOp55
 70
     1
102
RTVSPost2010Prop56
140
1.0
102
RTVSPost2010PropOp56
 70
     1
102
RTVSPost2010Prop57
140
1.0
102
RTVSPost2010PropOp57
 70
     1
  0
XRECORD
  5
463
102
{ACAD_REACTORS
330
462
102
}
330
462
100
AcDbXrecord
280
     1
102
RTVSPost2010Prop28
280
     0
102
RTVSPost2010PropOp28
 70
     1
102
RTVSPost2010Prop29
280
     1
102
RTVSPost2010PropOp29
 70
     1
102
RTVSPost2010Prop30
280
     1
102
RTVSPost2010PropOp30
 70
     1
102
RTVSPost2010Prop31
280
     0
102
RTVSPost2010PropOp31
 70
     1
102
RTVSPost2010Prop32
280
     0
102
RTVSPost2010PropOp32
 70
     1
102
RTVSPost2010Prop33
280
     0
102
RTVSPost2010PropOp33
 70
     1
102
RTVSPost2010Prop34
280
     0
102
RTVSPost2010PropOp34
 70
     1
102
RTVSPost2010Prop35
280
     0
102
RTVSPost2010PropOp35
 70
     1
102
RTVSPost2010Prop36
280
     0
102
RTVSPost2010PropOp36
 70
     1
102
RTVSPost2010Prop37
 90
       50
102
RTVSPost2010PropOp37
 70
     1
102
RTVSPost2010Prop38
140
0.0
102
RTVSPost2010PropOp38
 70
     1
102
RTVSPost2010Prop39
140
1.0
102
RTVSPost2010PropOp39
 70
     1
102
RTVSPost2010Prop40
 90
        0
102
RTVSPost2010PropOp40
 70
     1
102
RTVSPost2010Prop41ColorIndex
 90
       18
102
RTVSPost2010Prop41ColorRGB
 90
        0
102
RTVSPost2010PropOp41
 70
     1
102
RTVSPost2010Prop42
 90
       50
102
RTVSPost2010PropOp42
 70
     1
102
RTVSPost2010Prop43
 90
        3
102
RTVSPost2010PropOp43
 70
     1
102
RTVSPost2010Prop44ColorIndex
 90
        5
102
RTVSPost2010Prop44ColorRGB
 90
      255
102
RTVSPost2010PropOp44
 70
     1
102
RTVSPost2010Prop45
280
     0
102
RTVSPost2010PropOp45
 70
     1
102
RTVSPost2010Prop46
 90
       50
102
RTVSPost2010PropOp46
 70
     1
102
RTVSPost2010Prop47
 90
       50
102
RTVSPost2010PropOp47
 70
     1
102
RTVSPost2010Prop48
 90
       50
102
RTVSPost2010PropOp48
 70
     1
102
RTVSPost2010Prop49
280
     0
102
RTVSPost2010PropOp49
 70
     1
102
RTVSPost2010Prop50
 90
       50
102
RTVSPost2010PropOp50
 70
     1
102
RTVSPost2010Prop51ColorIndex
 90
      256
102
RTVSPost2010Prop51ColorRGB
 90
-16777216
102
RTVSPost2010PropOp51
 70
     0
102
RTVSPost2010Prop52
140
1.0
102
RTVSPost2010PropOp52
 70
     0
102
RTVSPost2010Prop53
 90
        2
102
RTVSPost2010PropOp53
 70
     1
102
RTVSPost2010Prop54
  1
strokes_ogs.tif
102
RTVSPost2010PropOp54
 70
     1
102
RTVSPost2010Prop55
280
     0
102
RTVSPost2010PropOp55
 70
     1
102
RTVSPost2010Prop56
140
1.0
102
RTVSPost2010PropOp56
 70
     1
102
RTVSPost2010Prop57
140
1.0
102
RTVSPost2010PropOp57
 70
     1
  0
XRECORD
  5
465
102
{ACAD_REACTORS
330
464
102
}
330
464
100
AcDbXrecord
280
     1
102
RTVSPost2010Prop28
280
     0
102
RTVSPost2010PropOp28
 70
     1
102
RTVSPost2010Prop29
280
     1
102
RTVSPost2010PropOp29
 70
     1
102
RTVSPost2010Prop30
280
     1
102
RTVSPost2010PropOp30
 70
     1
102
RTVSPost2010Prop31
280
     0
102
RTVSPost2010PropOp31
 70
     1
102
RTVSPost2010Prop32
280
     0
102
RTVSPost2010PropOp32
 70
     1
102
RTVSPost2010Prop33
280
     0
102
RTVSPost2010PropOp33
 70
     1
102
RTVSPost2010Prop34
280
     0
102
RTVSPost2010PropOp34
 70
     1
102
RTVSPost2010Prop35
280
     0
102
RTVSPost2010PropOp35
 70
     1
102
RTVSPost2010Prop36
280
     0
102
RTVSPost2010PropOp36
 70
     1
102
RTVSPost2010Prop37
 90
       50
102
RTVSPost2010PropOp37
 70
     1
102
RTVSPost2010Prop38
140
0.0
102
RTVSPost2010PropOp38
 70
     1
102
RTVSPost2010Prop39
140
1.0
102
RTVSPost2010PropOp39
 70
     1
102
RTVSPost2010Prop40
 90
        0
102
RTVSPost2010PropOp40
 70
     1
102
RTVSPost2010Prop41ColorIndex
 90
       18
102
RTVSPost2010Prop41ColorRGB
 90
        0
102
RTVSPost2010PropOp41
 70
     1
102
RTVSPost2010Prop42
 90
       50
102
RTVSPost2010PropOp42
 70
     1
102
RTVSPost2010Prop43
 90
        3
102
RTVSPost2010PropOp43
 70
     1
102
RTVSPost2010Prop44ColorIndex
 90
        5
102
RTVSPost2010Prop44ColorRGB
 90
      255
102
RTVSPost2010PropOp44
 70
     1
102
RTVSPost2010Prop45
280
     0
102
RTVSPost2010PropOp45
 70
     1
102
RTVSPost2010Prop46
 90
       50
102
RTVSPost2010PropOp46
 70
     1
102
RTVSPost2010Prop47
 90
       50
102
RTVSPost2010PropOp47
 70
     1
102
RTVSPost2010Prop48
 90
       50
102
RTVSPost2010PropOp48
 70
     1
102
RTVSPost2010Prop49
280
     0
102
RTVSPost2010PropOp49
 70
     1
102
RTVSPost2010Prop50
 90
       50
102
RTVSPost2010PropOp50
 70
     1
102
RTVSPost2010Prop51ColorIndex
 90
      256
102
RTVSPost2010Prop51ColorRGB
 90
-16777216
102
RTVSPost2010PropOp51
 70
     0
102
RTVSPost2010Prop52
140
1.0
102
RTVSPost2010PropOp52
 70
     0
102
RTVSPost2010Prop53
 90
        2
102
RTVSPost2010PropOp53
 70
     1
102
RTVSPost2010Prop54
  1
strokes_ogs.tif
102
RTVSPost2010PropOp54
 70
     1
102
RTVSPost2010Prop55
280
     0
102
RTVSPost2010PropOp55
 70
     1
102
RTVSPost2010Prop56
140
1.0
102
RTVSPost2010PropOp56
 70
     1
102
RTVSPost2010Prop57
140
1.0
102
RTVSPost2010PropOp57
 70
     1
  0
XRECORD
  5
46B
102
{ACAD_REACTORS
330
46A
102
}
330
46A
100
AcDbXrecord
280
     1
102
RTVSPost2010Prop28
280
     0
102
RTVSPost2010PropOp28
 70
     1
102
RTVSPost2010Prop29
280
     1
102
RTVSPost2010PropOp29
 70
     1
102
RTVSPost2010Prop30
280
     1
102
RTVSPost2010PropOp30
 70
     1
102
RTVSPost2010Prop31
280
     0
102
RTVSPost2010PropOp31
 70
     1
102
RTVSPost2010Prop32
280
     0
102
RTVSPost2010PropOp32
 70
     1
102
RTVSPost2010Prop33
280
     0
102
RTVSPost2010PropOp33
 70
     1
102
RTVSPost2010Prop34
280
     0
102
RTVSPost2010PropOp34
 70
     1
102
RTVSPost2010Prop35
280
     0
102
RTVSPost2010PropOp35
 70
     1
102
RTVSPost2010Prop36
280
     0
102
RTVSPost2010PropOp36
 70
     1
102
RTVSPost2010Prop37
 90
       50
102
RTVSPost2010PropOp37
 70
     1
102
RTVSPost2010Prop38
140
0.0
102
RTVSPost2010PropOp38
 70
     1
102
RTVSPost2010Prop39
140
1.0
102
RTVSPost2010PropOp39
 70
     1
102
RTVSPost2010Prop40
 90
        0
102
RTVSPost2010PropOp40
 70
     1
102
RTVSPost2010Prop41ColorIndex
 90
       18
102
RTVSPost2010Prop41ColorRGB
 90
        0
102
RTVSPost2010PropOp41
 70
     1
102
RTVSPost2010Prop42
 90
       50
102
RTVSPost2010PropOp42
 70
     1
102
RTVSPost2010Prop43
 90
        3
102
RTVSPost2010PropOp43
 70
     1
102
RTVSPost2010Prop44ColorIndex
 90
        5
102
RTVSPost2010Prop44ColorRGB
 90
      255
102
RTVSPost2010PropOp44
 70
     1
102
RTVSPost2010Prop45
280
     0
102
RTVSPost2010PropOp45
 70
     1
102
RTVSPost2010Prop46
 90
       50
102
RTVSPost2010PropOp46
 70
     1
102
RTVSPost2010Prop47
 90
       50
102
RTVSPost2010PropOp47
 70
     1
102
RTVSPost2010Prop48
 90
       50
102
RTVSPost2010PropOp48
 70
     1
102
RTVSPost2010Prop49
280
     0
102
RTVSPost2010PropOp49
 70
     1
102
RTVSPost2010Prop50
 90
       50
102
RTVSPost2010PropOp50
 70
     1
102
RTVSPost2010Prop51ColorIndex
 90
      256
102
RTVSPost2010Prop51ColorRGB
 90
-16777216
102
RTVSPost2010PropOp51
 70
     0
102
RTVSPost2010Prop52
140
1.0
102
RTVSPost2010PropOp52
 70
     0
102
RTVSPost2010Prop53
 90
        2
102
RTVSPost2010PropOp53
 70
     1
102
RTVSPost2010Prop54
  1
strokes_ogs.tif
102
RTVSPost2010PropOp54
 70
     1
102
RTVSPost2010Prop55
280
     0
102
RTVSPost2010PropOp55
 70
     1
102
RTVSPost2010Prop56
140
1.0
102
RTVSPost2010PropOp56
 70
     1
102
RTVSPost2010Prop57
140
1.0
102
RTVSPost2010PropOp57
 70
     1
  0
XRECORD
  5
47F
102
{ACAD_REACTORS
330
47E
102
}
330
47E
100
AcDbXrecord
280
     1
102
RTVSPost2010Prop28
280
     0
102
RTVSPost2010PropOp28
 70
     0
102
RTVSPost2010Prop29
280
     1
102
RTVSPost2010PropOp29
 70
     0
102
RTVSPost2010Prop30
280
     1
102
RTVSPost2010PropOp30
 70
     0
102
RTVSPost2010Prop31
280
     0
102
RTVSPost2010PropOp31
 70
     0
102
RTVSPost2010Prop32
280
     0
102
RTVSPost2010PropOp32
 70
     0
102
RTVSPost2010Prop33
280
     0
102
RTVSPost2010PropOp33
 70
     0
102
RTVSPost2010Prop34
280
     0
102
RTVSPost2010PropOp34
 70
     0
102
RTVSPost2010Prop35
280
     0
102
RTVSPost2010PropOp35
 70
     0
102
RTVSPost2010Prop36
280
     0
102
RTVSPost2010PropOp36
 70
     0
102
RTVSPost2010Prop37
 90
       50
102
RTVSPost2010PropOp37
 70
     0
102
RTVSPost2010Prop38
140
0.0
102
RTVSPost2010PropOp38
 70
     0
102
RTVSPost2010Prop39
140
1.0
102
RTVSPost2010PropOp39
 70
     0
102
RTVSPost2010Prop40
 90
        0
102
RTVSPost2010PropOp40
 70
     0
102
RTVSPost2010Prop41ColorIndex
 90
       18
102
RTVSPost2010Prop41ColorRGB
 90
        0
102
RTVSPost2010PropOp41
 70
     0
102
RTVSPost2010Prop42
 90
       50
102
RTVSPost2010PropOp42
 70
     0
102
RTVSPost2010Prop43
 90
        3
102
RTVSPost2010PropOp43
 70
     0
102
RTVSPost2010Prop44ColorIndex
 90
        5
102
RTVSPost2010Prop44ColorRGB
 90
      255
102
RTVSPost2010PropOp44
 70
     0
102
RTVSPost2010Prop45
280
     0
102
RTVSPost2010PropOp45
 70
     0
102
RTVSPost2010Prop46
 90
       50
102
RTVSPost2010PropOp46
 70
     0
102
RTVSPost2010Prop47
 90
       50
102
RTVSPost2010PropOp47
 70
     0
102
RTVSPost2010Prop48
 90
       50
102
RTVSPost2010PropOp48
 70
     0
102
RTVSPost2010Prop49
280
     0
102
RTVSPost2010PropOp49
 70
     0
102
RTVSPost2010Prop50
 90
       50
102
RTVSPost2010PropOp50
 70
     0
102
RTVSPost2010Prop51ColorIndex
 90
      256
102
RTVSPost2010Prop51ColorRGB
 90
-16777216
102
RTVSPost2010PropOp51
 70
     0
102
RTVSPost2010Prop52
140
1.0
102
RTVSPost2010PropOp52
 70
     0
102
RTVSPost2010Prop53
 90
        2
102
RTVSPost2010PropOp53
 70
     0
102
RTVSPost2010Prop54
  1
strokes_ogs.tif
102
RTVSPost2010PropOp54
 70
     0
102
RTVSPost2010Prop55
280
     0
102
RTVSPost2010PropOp55
 70
     0
102
RTVSPost2010Prop56
140
1.0
102
RTVSPost2010PropOp56
 70
     0
102
RTVSPost2010Prop57
140
1.0
102
RTVSPost2010PropOp57
 70
     0
  0
XRECORD
  5
479
102
{ACAD_REACTORS
330
478
102
}
330
478
100
AcDbXrecord
280
     1
102
RTVSPost2010Prop28
280
     0
102
RTVSPost2010PropOp28
 70
     1
102
RTVSPost2010Prop29
280
     1
102
RTVSPost2010PropOp29
 70
     1
102
RTVSPost2010Prop30
280
     1
102
RTVSPost2010PropOp30
 70
     1
102
RTVSPost2010Prop31
280
     0
102
RTVSPost2010PropOp31
 70
     1
102
RTVSPost2010Prop32
280
     0
102
RTVSPost2010PropOp32
 70
     1
102
RTVSPost2010Prop33
280
     0
102
RTVSPost2010PropOp33
 70
     1
102
RTVSPost2010Prop34
280
     0
102
RTVSPost2010PropOp34
 70
     1
102
RTVSPost2010Prop35
280
     0
102
RTVSPost2010PropOp35
 70
     1
102
RTVSPost2010Prop36
280
     0
102
RTVSPost2010PropOp36
 70
     1
102
RTVSPost2010Prop37
 90
       50
102
RTVSPost2010PropOp37
 70
     1
102
RTVSPost2010Prop38
140
0.0
102
RTVSPost2010PropOp38
 70
     1
102
RTVSPost2010Prop39
140
1.0
102
RTVSPost2010PropOp39
 70
     1
102
RTVSPost2010Prop40
 90
        0
102
RTVSPost2010PropOp40
 70
     1
102
RTVSPost2010Prop41ColorIndex
 90
       18
102
RTVSPost2010Prop41ColorRGB
 90
        0
102
RTVSPost2010PropOp41
 70
     1
102
RTVSPost2010Prop42
 90
       50
102
RTVSPost2010PropOp42
 70
     1
102
RTVSPost2010Prop43
 90
        3
102
RTVSPost2010PropOp43
 70
     1
102
RTVSPost2010Prop44ColorIndex
 90
        5
102
RTVSPost2010Prop44ColorRGB
 90
      255
102
RTVSPost2010PropOp44
 70
     1
102
RTVSPost2010Prop45
280
     0
102
RTVSPost2010PropOp45
 70
     1
102
RTVSPost2010Prop46
 90
       50
102
RTVSPost2010PropOp46
 70
     1
102
RTVSPost2010Prop47
 90
       50
102
RTVSPost2010PropOp47
 70
     1
102
RTVSPost2010Prop48
 90
       50
102
RTVSPost2010PropOp48
 70
     1
102
RTVSPost2010Prop49
280
     0
102
RTVSPost2010PropOp49
 70
     1
102
RTVSPost2010Prop50
 90
       50
102
RTVSPost2010PropOp50
 70
     1
102
RTVSPost2010Prop51ColorIndex
 90
      256
102
RTVSPost2010Prop51ColorRGB
 90
-16777216
102
RTVSPost2010PropOp51
 70
     0
102
RTVSPost2010Prop52
140
1.0
102
RTVSPost2010PropOp52
 70
     0
102
RTVSPost2010Prop53
 90
        2
102
RTVSPost2010PropOp53
 70
     1
102
RTVSPost2010Prop54
  1
strokes_ogs.tif
102
RTVSPost2010PropOp54
 70
     1
102
RTVSPost2010Prop55
280
     0
102
RTVSPost2010PropOp55
 70
     1
102
RTVSPost2010Prop56
140
1.0
102
RTVSPost2010PropOp56
 70
     1
102
RTVSPost2010Prop57
140
1.0
102
RTVSPost2010PropOp57
 70
     1
  0
XRECORD
  5
481
102
{ACAD_REACTORS
330
480
102
}
330
480
100
AcDbXrecord
280
     1
102
RTVSPost2010Prop28
280
     0
102
RTVSPost2010PropOp28
 70
     0
102
RTVSPost2010Prop29
280
     1
102
RTVSPost2010PropOp29
 70
     0
102
RTVSPost2010Prop30
280
     1
102
RTVSPost2010PropOp30
 70
     0
102
RTVSPost2010Prop31
280
     0
102
RTVSPost2010PropOp31
 70
     0
102
RTVSPost2010Prop32
280
     0
102
RTVSPost2010PropOp32
 70
     0
102
RTVSPost2010Prop33
280
     0
102
RTVSPost2010PropOp33
 70
     0
102
RTVSPost2010Prop34
280
     0
102
RTVSPost2010PropOp34
 70
     0
102
RTVSPost2010Prop35
280
     0
102
RTVSPost2010PropOp35
 70
     0
102
RTVSPost2010Prop36
280
     0
102
RTVSPost2010PropOp36
 70
     0
102
RTVSPost2010Prop37
 90
       50
102
RTVSPost2010PropOp37
 70
     0
102
RTVSPost2010Prop38
140
0.0
102
RTVSPost2010PropOp38
 70
     0
102
RTVSPost2010Prop39
140
1.0
102
RTVSPost2010PropOp39
 70
     0
102
RTVSPost2010Prop40
 90
        0
102
RTVSPost2010PropOp40
 70
     0
102
RTVSPost2010Prop41ColorIndex
 90
       18
102
RTVSPost2010Prop41ColorRGB
 90
        0
102
RTVSPost2010PropOp41
 70
     0
102
RTVSPost2010Prop42
 90
       50
102
RTVSPost2010PropOp42
 70
     0
102
RTVSPost2010Prop43
 90
        3
102
RTVSPost2010PropOp43
 70
     0
102
RTVSPost2010Prop44ColorIndex
 90
        5
102
RTVSPost2010Prop44ColorRGB
 90
      255
102
RTVSPost2010PropOp44
 70
     0
102
RTVSPost2010Prop45
280
     0
102
RTVSPost2010PropOp45
 70
     0
102
RTVSPost2010Prop46
 90
       50
102
RTVSPost2010PropOp46
 70
     0
102
RTVSPost2010Prop47
 90
       50
102
RTVSPost2010PropOp47
 70
     0
102
RTVSPost2010Prop48
 90
       50
102
RTVSPost2010PropOp48
 70
     0
102
RTVSPost2010Prop49
280
     0
102
RTVSPost2010PropOp49
 70
     0
102
RTVSPost2010Prop50
 90
       50
102
RTVSPost2010PropOp50
 70
     0
102
RTVSPost2010Prop51ColorIndex
 90
      256
102
RTVSPost2010Prop51ColorRGB
 90
-16777216
102
RTVSPost2010PropOp51
 70
     0
102
RTVSPost2010Prop52
140
1.0
102
RTVSPost2010PropOp52
 70
     0
102
RTVSPost2010Prop53
 90
        2
102
RTVSPost2010PropOp53
 70
     0
102
RTVSPost2010Prop54
  1
strokes_ogs.tif
102
RTVSPost2010PropOp54
 70
     0
102
RTVSPost2010Prop55
280
     0
102
RTVSPost2010PropOp55
 70
     0
102
RTVSPost2010Prop56
140
1.0
102
RTVSPost2010PropOp56
 70
     0
102
RTVSPost2010Prop57
140
1.0
102
RTVSPost2010PropOp57
 70
     0
  0
XRECORD
  5
46F
102
{ACAD_REACTORS
330
46E
102
}
330
46E
100
AcDbXrecord
280
     1
102
RTVSPost2010Prop28
280
     0
102
RTVSPost2010PropOp28
 70
     1
102
RTVSPost2010Prop29
280
     1
102
RTVSPost2010PropOp29
 70
     1
102
RTVSPost2010Prop30
280
     1
102
RTVSPost2010PropOp30
 70
     1
102
RTVSPost2010Prop31
280
     0
102
RTVSPost2010PropOp31
 70
     1
102
RTVSPost2010Prop32
280
     0
102
RTVSPost2010PropOp32
 70
     1
102
RTVSPost2010Prop33
280
     0
102
RTVSPost2010PropOp33
 70
     1
102
RTVSPost2010Prop34
280
     0
102
RTVSPost2010PropOp34
 70
     1
102
RTVSPost2010Prop35
280
     0
102
RTVSPost2010PropOp35
 70
     1
102
RTVSPost2010Prop36
280
     0
102
RTVSPost2010PropOp36
 70
     1
102
RTVSPost2010Prop37
 90
       50
102
RTVSPost2010PropOp37
 70
     1
102
RTVSPost2010Prop38
140
0.0
102
RTVSPost2010PropOp38
 70
     1
102
RTVSPost2010Prop39
140
1.0
102
RTVSPost2010PropOp39
 70
     1
102
RTVSPost2010Prop40
 90
        0
102
RTVSPost2010PropOp40
 70
     1
102
RTVSPost2010Prop41ColorIndex
 90
       18
102
RTVSPost2010Prop41ColorRGB
 90
        0
102
RTVSPost2010PropOp41
 70
     1
102
RTVSPost2010Prop42
 90
       50
102
RTVSPost2010PropOp42
 70
     1
102
RTVSPost2010Prop43
 90
        3
102
RTVSPost2010PropOp43
 70
     1
102
RTVSPost2010Prop44ColorIndex
 90
        5
102
RTVSPost2010Prop44ColorRGB
 90
      255
102
RTVSPost2010PropOp44
 70
     1
102
RTVSPost2010Prop45
280
     0
102
RTVSPost2010PropOp45
 70
     1
102
RTVSPost2010Prop46
 90
       50
102
RTVSPost2010PropOp46
 70
     1
102
RTVSPost2010Prop47
 90
       50
102
RTVSPost2010PropOp47
 70
     1
102
RTVSPost2010Prop48
 90
       50
102
RTVSPost2010PropOp48
 70
     1
102
RTVSPost2010Prop49
280
     0
102
RTVSPost2010PropOp49
 70
     1
102
RTVSPost2010Prop50
 90
       50
102
RTVSPost2010PropOp50
 70
     1
102
RTVSPost2010Prop51ColorIndex
 90
      256
102
RTVSPost2010Prop51ColorRGB
 90
-16777216
102
RTVSPost2010PropOp51
 70
     0
102
RTVSPost2010Prop52
140
1.0
102
RTVSPost2010PropOp52
 70
     0
102
RTVSPost2010Prop53
 90
        2
102
RTVSPost2010PropOp53
 70
     1
102
RTVSPost2010Prop54
  1
strokes_ogs.tif
102
RTVSPost2010PropOp54
 70
     1
102
RTVSPost2010Prop55
280
     0
102
RTVSPost2010PropOp55
 70
     1
102
RTVSPost2010Prop56
140
1.0
102
RTVSPost2010PropOp56
 70
     1
102
RTVSPost2010Prop57
140
1.0
102
RTVSPost2010PropOp57
 70
     1
  0
XRECORD
  5
48D
102
{ACAD_REACTORS
330
48C
102
}
330
48C
100
AcDbXrecord
280
     1
102
RTVSPost2010Prop28
280
     0
102
RTVSPost2010PropOp28
 70
     1
102
RTVSPost2010Prop29
280
     1
102
RTVSPost2010PropOp29
 70
     1
102
RTVSPost2010Prop30
280
     1
102
RTVSPost2010PropOp30
 70
     1
102
RTVSPost2010Prop31
280
     0
102
RTVSPost2010PropOp31
 70
     1
102
RTVSPost2010Prop32
280
     0
102
RTVSPost2010PropOp32
 70
     1
102
RTVSPost2010Prop33
280
     0
102
RTVSPost2010PropOp33
 70
     1
102
RTVSPost2010Prop34
280
     0
102
RTVSPost2010PropOp34
 70
     1
102
RTVSPost2010Prop35
280
     0
102
RTVSPost2010PropOp35
 70
     1
102
RTVSPost2010Prop36
280
     0
102
RTVSPost2010PropOp36
 70
     1
102
RTVSPost2010Prop37
 90
       50
102
RTVSPost2010PropOp37
 70
     1
102
RTVSPost2010Prop38
140
0.0
102
RTVSPost2010PropOp38
 70
     1
102
RTVSPost2010Prop39
140
1.0
102
RTVSPost2010PropOp39
 70
     1
102
RTVSPost2010Prop40
 90
        0
102
RTVSPost2010PropOp40
 70
     1
102
RTVSPost2010Prop41ColorIndex
 90
       18
102
RTVSPost2010Prop41ColorRGB
 90
        0
102
RTVSPost2010PropOp41
 70
     1
102
RTVSPost2010Prop42
 90
       50
102
RTVSPost2010PropOp42
 70
     1
102
RTVSPost2010Prop43
 90
        3
102
RTVSPost2010PropOp43
 70
     1
102
RTVSPost2010Prop44ColorIndex
 90
        5
102
RTVSPost2010Prop44ColorRGB
 90
      255
102
RTVSPost2010PropOp44
 70
     1
102
RTVSPost2010Prop45
280
     0
102
RTVSPost2010PropOp45
 70
     1
102
RTVSPost2010Prop46
 90
       50
102
RTVSPost2010PropOp46
 70
     1
102
RTVSPost2010Prop47
 90
       50
102
RTVSPost2010PropOp47
 70
     1
102
RTVSPost2010Prop48
 90
       50
102
RTVSPost2010PropOp48
 70
     1
102
RTVSPost2010Prop49
280
     0
102
RTVSPost2010PropOp49
 70
     1
102
RTVSPost2010Prop50
 90
       50
102
RTVSPost2010PropOp50
 70
     1
102
RTVSPost2010Prop51ColorIndex
 90
      256
102
RTVSPost2010Prop51ColorRGB
 90
-16777216
102
RTVSPost2010PropOp51
 70
     0
102
RTVSPost2010Prop52
140
1.0
102
RTVSPost2010PropOp52
 70
     0
102
RTVSPost2010Prop53
 90
        2
102
RTVSPost2010PropOp53
 70
     1
102
RTVSPost2010Prop54
  1
strokes_ogs.tif
102
RTVSPost2010PropOp54
 70
     1
102
RTVSPost2010Prop55
280
     0
102
RTVSPost2010PropOp55
 70
     1
102
RTVSPost2010Prop56
140
1.0
102
RTVSPost2010PropOp56
 70
     1
102
RTVSPost2010Prop57
140
1.0
102
RTVSPost2010PropOp57
 70
     1
  0
XRECORD
  5
48B
102
{ACAD_REACTORS
330
48A
102
}
330
48A
100
AcDbXrecord
280
     1
102
RTVSPost2010Prop28
280
     0
102
RTVSPost2010PropOp28
 70
     1
102
RTVSPost2010Prop29
280
     1
102
RTVSPost2010PropOp29
 70
     1
102
RTVSPost2010Prop30
280
     1
102
RTVSPost2010PropOp30
 70
     1
102
RTVSPost2010Prop31
280
     0
102
RTVSPost2010PropOp31
 70
     1
102
RTVSPost2010Prop32
280
     0
102
RTVSPost2010PropOp32
 70
     1
102
RTVSPost2010Prop33
280
     0
102
RTVSPost2010PropOp33
 70
     1
102
RTVSPost2010Prop34
280
     0
102
RTVSPost2010PropOp34
 70
     1
102
RTVSPost2010Prop35
280
     0
102
RTVSPost2010PropOp35
 70
     1
102
RTVSPost2010Prop36
280
     0
102
RTVSPost2010PropOp36
 70
     1
102
RTVSPost2010Prop37
 90
       50
102
RTVSPost2010PropOp37
 70
     1
102
RTVSPost2010Prop38
140
0.0
102
RTVSPost2010PropOp38
 70
     1
102
RTVSPost2010Prop39
140
1.0
102
RTVSPost2010PropOp39
 70
     1
102
RTVSPost2010Prop40
 90
        0
102
RTVSPost2010PropOp40
 70
     1
102
RTVSPost2010Prop41ColorIndex
 90
       18
102
RTVSPost2010Prop41ColorRGB
 90
        0
102
RTVSPost2010PropOp41
 70
     1
102
RTVSPost2010Prop42
 90
       50
102
RTVSPost2010PropOp42
 70
     1
102
RTVSPost2010Prop43
 90
        3
102
RTVSPost2010PropOp43
 70
     1
102
RTVSPost2010Prop44ColorIndex
 90
        5
102
RTVSPost2010Prop44ColorRGB
 90
      255
102
RTVSPost2010PropOp44
 70
     1
102
RTVSPost2010Prop45
280
     0
102
RTVSPost2010PropOp45
 70
     1
102
RTVSPost2010Prop46
 90
       50
102
RTVSPost2010PropOp46
 70
     1
102
RTVSPost2010Prop47
 90
       50
102
RTVSPost2010PropOp47
 70
     1
102
RTVSPost2010Prop48
 90
       50
102
RTVSPost2010PropOp48
 70
     1
102
RTVSPost2010Prop49
280
     0
102
RTVSPost2010PropOp49
 70
     1
102
RTVSPost2010Prop50
 90
       50
102
RTVSPost2010PropOp50
 70
     1
102
RTVSPost2010Prop51ColorIndex
 90
      256
102
RTVSPost2010Prop51ColorRGB
 90
-16777216
102
RTVSPost2010PropOp51
 70
     0
102
RTVSPost2010Prop52
140
1.0
102
RTVSPost2010PropOp52
 70
     0
102
RTVSPost2010Prop53
 90
        2
102
RTVSPost2010PropOp53
 70
     1
102
RTVSPost2010Prop54
  1
strokes_ogs.tif
102
RTVSPost2010PropOp54
 70
     1
102
RTVSPost2010Prop55
280
     0
102
RTVSPost2010PropOp55
 70
     1
102
RTVSPost2010Prop56
140
1.0
102
RTVSPost2010PropOp56
 70
     1
102
RTVSPost2010Prop57
140
1.0
102
RTVSPost2010PropOp57
 70
     1
  0
XRECORD
  5
485
102
{ACAD_REACTORS
330
484
102
}
330
484
100
AcDbXrecord
280
     1
102
RTVSPost2010Prop28
280
     0
102
RTVSPost2010PropOp28
 70
     1
102
RTVSPost2010Prop29
280
     1
102
RTVSPost2010PropOp29
 70
     1
102
RTVSPost2010Prop30
280
     1
102
RTVSPost2010PropOp30
 70
     1
102
RTVSPost2010Prop31
280
     0
102
RTVSPost2010PropOp31
 70
     1
102
RTVSPost2010Prop32
280
     0
102
RTVSPost2010PropOp32
 70
     1
102
RTVSPost2010Prop33
280
     0
102
RTVSPost2010PropOp33
 70
     1
102
RTVSPost2010Prop34
280
     0
102
RTVSPost2010PropOp34
 70
     1
102
RTVSPost2010Prop35
280
     0
102
RTVSPost2010PropOp35
 70
     1
102
RTVSPost2010Prop36
280
     0
102
RTVSPost2010PropOp36
 70
     1
102
RTVSPost2010Prop37
 90
       50
102
RTVSPost2010PropOp37
 70
     1
102
RTVSPost2010Prop38
140
0.0
102
RTVSPost2010PropOp38
 70
     1
102
RTVSPost2010Prop39
140
1.0
102
RTVSPost2010PropOp39
 70
     1
102
RTVSPost2010Prop40
 90
        0
102
RTVSPost2010PropOp40
 70
     1
102
RTVSPost2010Prop41ColorIndex
 90
       18
102
RTVSPost2010Prop41ColorRGB
 90
        0
102
RTVSPost2010PropOp41
 70
     1
102
RTVSPost2010Prop42
 90
       50
102
RTVSPost2010PropOp42
 70
     1
102
RTVSPost2010Prop43
 90
        3
102
RTVSPost2010PropOp43
 70
     1
102
RTVSPost2010Prop44ColorIndex
 90
        5
102
RTVSPost2010Prop44ColorRGB
 90
      255
102
RTVSPost2010PropOp44
 70
     1
102
RTVSPost2010Prop45
280
     0
102
RTVSPost2010PropOp45
 70
     1
102
RTVSPost2010Prop46
 90
       50
102
RTVSPost2010PropOp46
 70
     1
102
RTVSPost2010Prop47
 90
       50
102
RTVSPost2010PropOp47
 70
     1
102
RTVSPost2010Prop48
 90
       50
102
RTVSPost2010PropOp48
 70
     1
102
RTVSPost2010Prop49
280
     0
102
RTVSPost2010PropOp49
 70
     1
102
RTVSPost2010Prop50
 90
       50
102
RTVSPost2010PropOp50
 70
     1
102
RTVSPost2010Prop51ColorIndex
 90
      256
102
RTVSPost2010Prop51ColorRGB
 90
-16777216
102
RTVSPost2010PropOp51
 70
     0
102
RTVSPost2010Prop52
140
1.0
102
RTVSPost2010PropOp52
 70
     0
102
RTVSPost2010Prop53
 90
        2
102
RTVSPost2010PropOp53
 70
     1
102
RTVSPost2010Prop54
  1
strokes_ogs.tif
102
RTVSPost2010PropOp54
 70
     1
102
RTVSPost2010Prop55
280
     0
102
RTVSPost2010PropOp55
 70
     1
102
RTVSPost2010Prop56
140
1.0
102
RTVSPost2010PropOp56
 70
     1
102
RTVSPost2010Prop57
140
1.0
102
RTVSPost2010PropOp57
 70
     1
  0
XRECORD
  5
487
102
{ACAD_REACTORS
330
486
102
}
330
486
100
AcDbXrecord
280
     1
102
RTVSPost2010Prop28
280
     0
102
RTVSPost2010PropOp28
 70
     1
102
RTVSPost2010Prop29
280
     1
102
RTVSPost2010PropOp29
 70
     1
102
RTVSPost2010Prop30
280
     1
102
RTVSPost2010PropOp30
 70
     1
102
RTVSPost2010Prop31
280
     0
102
RTVSPost2010PropOp31
 70
     1
102
RTVSPost2010Prop32
280
     0
102
RTVSPost2010PropOp32
 70
     1
102
RTVSPost2010Prop33
280
     0
102
RTVSPost2010PropOp33
 70
     1
102
RTVSPost2010Prop34
280
     0
102
RTVSPost2010PropOp34
 70
     1
102
RTVSPost2010Prop35
280
     0
102
RTVSPost2010PropOp35
 70
     1
102
RTVSPost2010Prop36
280
     0
102
RTVSPost2010PropOp36
 70
     1
102
RTVSPost2010Prop37
 90
       50
102
RTVSPost2010PropOp37
 70
     1
102
RTVSPost2010Prop38
140
0.0
102
RTVSPost2010PropOp38
 70
     1
102
RTVSPost2010Prop39
140
1.0
102
RTVSPost2010PropOp39
 70
     1
102
RTVSPost2010Prop40
 90
        0
102
RTVSPost2010PropOp40
 70
     1
102
RTVSPost2010Prop41ColorIndex
 90
       18
102
RTVSPost2010Prop41ColorRGB
 90
        0
102
RTVSPost2010PropOp41
 70
     1
102
RTVSPost2010Prop42
 90
       50
102
RTVSPost2010PropOp42
 70
     1
102
RTVSPost2010Prop43
 90
        3
102
RTVSPost2010PropOp43
 70
     1
102
RTVSPost2010Prop44ColorIndex
 90
        5
102
RTVSPost2010Prop44ColorRGB
 90
      255
102
RTVSPost2010PropOp44
 70
     1
102
RTVSPost2010Prop45
280
     0
102
RTVSPost2010PropOp45
 70
     1
102
RTVSPost2010Prop46
 90
       50
102
RTVSPost2010PropOp46
 70
     1
102
RTVSPost2010Prop47
 90
       50
102
RTVSPost2010PropOp47
 70
     1
102
RTVSPost2010Prop48
 90
       50
102
RTVSPost2010PropOp48
 70
     1
102
RTVSPost2010Prop49
280
     0
102
RTVSPost2010PropOp49
 70
     1
102
RTVSPost2010Prop50
 90
       50
102
RTVSPost2010PropOp50
 70
     1
102
RTVSPost2010Prop51ColorIndex
 90
      256
102
RTVSPost2010Prop51ColorRGB
 90
-16777216
102
RTVSPost2010PropOp51
 70
     0
102
RTVSPost2010Prop52
140
1.0
102
RTVSPost2010PropOp52
 70
     0
102
RTVSPost2010Prop53
 90
        2
102
RTVSPost2010PropOp53
 70
     1
102
RTVSPost2010Prop54
  1
strokes_ogs.tif
102
RTVSPost2010PropOp54
 70
     1
102
RTVSPost2010Prop55
280
     0
102
RTVSPost2010PropOp55
 70
     1
102
RTVSPost2010Prop56
140
1.0
102
RTVSPost2010PropOp56
 70
     1
102
RTVSPost2010Prop57
140
1.0
102
RTVSPost2010PropOp57
 70
     1
  0
XRECORD
  5
477
102
{ACAD_REACTORS
330
476
102
}
330
476
100
AcDbXrecord
280
     1
102
RTVSPost2010Prop28
280
     0
102
RTVSPost2010PropOp28
 70
     1
102
RTVSPost2010Prop29
280
     1
102
RTVSPost2010PropOp29
 70
     1
102
RTVSPost2010Prop30
280
     1
102
RTVSPost2010PropOp30
 70
     1
102
RTVSPost2010Prop31
280
     0
102
RTVSPost2010PropOp31
 70
     1
102
RTVSPost2010Prop32
280
     0
102
RTVSPost2010PropOp32
 70
     1
102
RTVSPost2010Prop33
280
     0
102
RTVSPost2010PropOp33
 70
     1
102
RTVSPost2010Prop34
280
     0
102
RTVSPost2010PropOp34
 70
     1
102
RTVSPost2010Prop35
280
     0
102
RTVSPost2010PropOp35
 70
     1
102
RTVSPost2010Prop36
280
     0
102
RTVSPost2010PropOp36
 70
     1
102
RTVSPost2010Prop37
 90
       50
102
RTVSPost2010PropOp37
 70
     1
102
RTVSPost2010Prop38
140
0.0
102
RTVSPost2010PropOp38
 70
     1
102
RTVSPost2010Prop39
140
1.0
102
RTVSPost2010PropOp39
 70
     1
102
RTVSPost2010Prop40
 90
        0
102
RTVSPost2010PropOp40
 70
     1
102
RTVSPost2010Prop41ColorIndex
 90
       18
102
RTVSPost2010Prop41ColorRGB
 90
        0
102
RTVSPost2010PropOp41
 70
     1
102
RTVSPost2010Prop42
 90
       50
102
RTVSPost2010PropOp42
 70
     1
102
RTVSPost2010Prop43
 90
        3
102
RTVSPost2010PropOp43
 70
     1
102
RTVSPost2010Prop44ColorIndex
 90
        5
102
RTVSPost2010Prop44ColorRGB
 90
      255
102
RTVSPost2010PropOp44
 70
     1
102
RTVSPost2010Prop45
280
     0
102
RTVSPost2010PropOp45
 70
     1
102
RTVSPost2010Prop46
 90
       50
102
RTVSPost2010PropOp46
 70
     1
102
RTVSPost2010Prop47
 90
       50
102
RTVSPost2010PropOp47
 70
     1
102
RTVSPost2010Prop48
 90
       50
102
RTVSPost2010PropOp48
 70
     1
102
RTVSPost2010Prop49
280
     0
102
RTVSPost2010PropOp49
 70
     1
102
RTVSPost2010Prop50
 90
       50
102
RTVSPost2010PropOp50
 70
     1
102
RTVSPost2010Prop51ColorIndex
 90
      256
102
RTVSPost2010Prop51ColorRGB
 90
-16777216
102
RTVSPost2010PropOp51
 70
     0
102
RTVSPost2010Prop52
140
1.0
102
RTVSPost2010PropOp52
 70
     0
102
RTVSPost2010Prop53
 90
        2
102
RTVSPost2010PropOp53
 70
     1
102
RTVSPost2010Prop54
  1
strokes_ogs.tif
102
RTVSPost2010PropOp54
 70
     1
102
RTVSPost2010Prop55
280
     0
102
RTVSPost2010PropOp55
 70
     1
102
RTVSPost2010Prop56
140
1.0
102
RTVSPost2010PropOp56
 70
     1
102
RTVSPost2010Prop57
140
1.0
102
RTVSPost2010PropOp57
 70
     1
  0
XRECORD
  5
469
102
{ACAD_REACTORS
330
468
102
}
330
468
100
AcDbXrecord
280
     1
102
RTVSPost2010Prop28
280
     0
102
RTVSPost2010PropOp28
 70
     1
102
RTVSPost2010Prop29
280
     1
102
RTVSPost2010PropOp29
 70
     1
102
RTVSPost2010Prop30
280
     1
102
RTVSPost2010PropOp30
 70
     1
102
RTVSPost2010Prop31
280
     0
102
RTVSPost2010PropOp31
 70
     1
102
RTVSPost2010Prop32
280
     0
102
RTVSPost2010PropOp32
 70
     1
102
RTVSPost2010Prop33
280
     0
102
RTVSPost2010PropOp33
 70
     1
102
RTVSPost2010Prop34
280
     0
102
RTVSPost2010PropOp34
 70
     1
102
RTVSPost2010Prop35
280
     0
102
RTVSPost2010PropOp35
 70
     1
102
RTVSPost2010Prop36
280
     0
102
RTVSPost2010PropOp36
 70
     1
102
RTVSPost2010Prop37
 90
       50
102
RTVSPost2010PropOp37
 70
     1
102
RTVSPost2010Prop38
140
0.0
102
RTVSPost2010PropOp38
 70
     1
102
RTVSPost2010Prop39
140
1.0
102
RTVSPost2010PropOp39
 70
     1
102
RTVSPost2010Prop40
 90
        0
102
RTVSPost2010PropOp40
 70
     1
102
RTVSPost2010Prop41ColorIndex
 90
       18
102
RTVSPost2010Prop41ColorRGB
 90
        0
102
RTVSPost2010PropOp41
 70
     1
102
RTVSPost2010Prop42
 90
       50
102
RTVSPost2010PropOp42
 70
     1
102
RTVSPost2010Prop43
 90
        3
102
RTVSPost2010PropOp43
 70
     1
102
RTVSPost2010Prop44ColorIndex
 90
        5
102
RTVSPost2010Prop44ColorRGB
 90
      255
102
RTVSPost2010PropOp44
 70
     1
102
RTVSPost2010Prop45
280
     0
102
RTVSPost2010PropOp45
 70
     1
102
RTVSPost2010Prop46
 90
       50
102
RTVSPost2010PropOp46
 70
     1
102
RTVSPost2010Prop47
 90
       50
102
RTVSPost2010PropOp47
 70
     1
102
RTVSPost2010Prop48
 90
       50
102
RTVSPost2010PropOp48
 70
     1
102
RTVSPost2010Prop49
280
     0
102
RTVSPost2010PropOp49
 70
     1
102
RTVSPost2010Prop50
 90
       50
102
RTVSPost2010PropOp50
 70
     1
102
RTVSPost2010Prop51ColorIndex
 90
      256
102
RTVSPost2010Prop51ColorRGB
 90
-16777216
102
RTVSPost2010PropOp51
 70
     0
102
RTVSPost2010Prop52
140
1.0
102
RTVSPost2010PropOp52
 70
     0
102
RTVSPost2010Prop53
 90
        2
102
RTVSPost2010PropOp53
 70
     1
102
RTVSPost2010Prop54
  1
strokes_ogs.tif
102
RTVSPost2010PropOp54
 70
     1
102
RTVSPost2010Prop55
280
     0
102
RTVSPost2010PropOp55
 70
     1
102
RTVSPost2010Prop56
140
1.0
102
RTVSPost2010PropOp56
 70
     1
102
RTVSPost2010Prop57
140
1.0
102
RTVSPost2010PropOp57
 70
     1
  0
XRECORD
  5
489
102
{ACAD_REACTORS
330
488
102
}
330
488
100
AcDbXrecord
280
     1
102
RTVSPost2010Prop28
280
     0
102
RTVSPost2010PropOp28
 70
     1
102
RTVSPost2010Prop29
280
     1
102
RTVSPost2010PropOp29
 70
     1
102
RTVSPost2010Prop30
280
     1
102
RTVSPost2010PropOp30
 70
     1
102
RTVSPost2010Prop31
280
     0
102
RTVSPost2010PropOp31
 70
     1
102
RTVSPost2010Prop32
280
     0
102
RTVSPost2010PropOp32
 70
     1
102
RTVSPost2010Prop33
280
     0
102
RTVSPost2010PropOp33
 70
     1
102
RTVSPost2010Prop34
280
     0
102
RTVSPost2010PropOp34
 70
     1
102
RTVSPost2010Prop35
280
     0
102
RTVSPost2010PropOp35
 70
     1
102
RTVSPost2010Prop36
280
     0
102
RTVSPost2010PropOp36
 70
     1
102
RTVSPost2010Prop37
 90
       50
102
RTVSPost2010PropOp37
 70
     1
102
RTVSPost2010Prop38
140
0.0
102
RTVSPost2010PropOp38
 70
     1
102
RTVSPost2010Prop39
140
1.0
102
RTVSPost2010PropOp39
 70
     1
102
RTVSPost2010Prop40
 90
        0
102
RTVSPost2010PropOp40
 70
     1
102
RTVSPost2010Prop41ColorIndex
 90
       18
102
RTVSPost2010Prop41ColorRGB
 90
        0
102
RTVSPost2010PropOp41
 70
     1
102
RTVSPost2010Prop42
 90
       50
102
RTVSPost2010PropOp42
 70
     1
102
RTVSPost2010Prop43
 90
        3
102
RTVSPost2010PropOp43
 70
     1
102
RTVSPost2010Prop44ColorIndex
 90
        5
102
RTVSPost2010Prop44ColorRGB
 90
      255
102
RTVSPost2010PropOp44
 70
     1
102
RTVSPost2010Prop45
280
     0
102
RTVSPost2010PropOp45
 70
     1
102
RTVSPost2010Prop46
 90
       50
102
RTVSPost2010PropOp46
 70
     1
102
RTVSPost2010Prop47
 90
       50
102
RTVSPost2010PropOp47
 70
     1
102
RTVSPost2010Prop48
 90
       50
102
RTVSPost2010PropOp48
 70
     1
102
RTVSPost2010Prop49
280
     0
102
RTVSPost2010PropOp49
 70
     1
102
RTVSPost2010Prop50
 90
       50
102
RTVSPost2010PropOp50
 70
     1
102
RTVSPost2010Prop51ColorIndex
 90
      256
102
RTVSPost2010Prop51ColorRGB
 90
-16777216
102
RTVSPost2010PropOp51
 70
     0
102
RTVSPost2010Prop52
140
1.0
102
RTVSPost2010PropOp52
 70
     0
102
RTVSPost2010Prop53
 90
        2
102
RTVSPost2010PropOp53
 70
     1
102
RTVSPost2010Prop54
  1
strokes_ogs.tif
102
RTVSPost2010PropOp54
 70
     1
102
RTVSPost2010Prop55
280
     0
102
RTVSPost2010PropOp55
 70
     1
102
RTVSPost2010Prop56
140
1.0
102
RTVSPost2010PropOp56
 70
     1
102
RTVSPost2010Prop57
140
1.0
102
RTVSPost2010PropOp57
 70
     1
  0
ENDSEC
  0
EOF
