  0
SECTION
  2
HEADER
  9
$ACADVER
  1
AC1021
  9
$ACADMAINTVER
 70
     1
  9
$DWGCODEPAGE
  3
ANSI_1252
  9
$INSBASE
 10
0.0
 20
0.0
 30
0.0
  9
$EXTMIN
 10
-98.93606297498508
 20
-133.7571033549152
 30
0.0
  9
$EXTMAX
 10
100.0839462901311
 20
144.302347929844
 30
0.0
  9
$LIMMIN
 10
0.0
 20
0.0
  9
$LIMMAX
 10
420.0
 20
297.0
  9
$ORTHOMODE
 70
     0
  9
$REGENMODE
 70
     1
  9
$FILLMODE
 70
     1
  9
$QTEXTMODE
 70
     0
  9
$MIRRTEXT
 70
     1
  9
$LTSCALE
 40
1.0
  9
$ATTMODE
 70
     1
  9
$TEXTSIZE
 40
1.0
  9
$TRACEWID
 40
1.0
  9
$TEXTSTYLE
  7
Standard
  9
$CLAYER
  8
0
  9
$CELTYPE
  6
ByLayer
  9
$CECOLOR
 62
   256
  9
$CELTSCALE
 40
1.0
  9
$DISPSILH
 70
     0
  9
$DIMSCALE
 40
1.0
  9
$DIMASZ
 40
2.5
  9
$DIMEXO
 40
0.625
  9
$DIMDLI
 40
3.75
  9
$DIMRND
 40
0.0
  9
$DIMDLE
 40
0.0
  9
$DIMEXE
 40
1.25
  9
$DIMTP
 40
0.0
  9
$DIMTM
 40
0.0
  9
$DIMTXT
 40
2.5
  9
$DIMCEN
 40
2.5
  9
$DIMTSZ
 40
0.0
  9
$DIMTOL
 70
     0
  9
$DIMLIM
 70
     0
  9
$DIMTIH
 70
     0
  9
$DIMTOH
 70
     0
  9
$DIMSE1
 70
     0
  9
$DIMSE2
 70
     0
  9
$DIMTAD
 70
     1
  9
$DIMZIN
 70
     8
  9
$DIMBLK
  1

  9
$DIMASO
 70
     1
  9
$DIMSHO
 70
     1
  9
$DIMPOST
  1

  9
$DIMAPOST
  1

  9
$DIMALT
 70
     0
  9
$DIMALTD
 70
     3
  9
$DIMALTF
 40
0.03937007874016
  9
$DIMLFAC
 40
1.0
  9
$DIMTOFL
 70
     1
  9
$DIMTVP
 40
0.0
  9
$DIMTIX
 70
     0
  9
$DIMSOXD
 70
     0
  9
$DIMSAH
 70
     0
  9
$DIMBLK1
  1

  9
$DIMBLK2
  1

  9
$DIMSTYLE
  2
ISO-25
  9
$DIMCLRD
 70
     0
  9
$DIMCLRE
 70
     0
  9
$DIMCLRT
 70
     0
  9
$DIMTFAC
 40
1.0
  9
$DIMGAP
 40
0.625
  9
$DIMJUST
 70
     0
  9
$DIMSD1
 70
     0
  9
$DIMSD2
 70
     0
  9
$DIMTOLJ
 70
     0
  9
$DIMTZIN
 70
     8
  9
$DIMALTZ
 70
     0
  9
$DIMALTTZ
 70
     0
  9
$DIMUPT
 70
     0
  9
$DIMDEC
 70
     2
  9
$DIMTDEC
 70
     2
  9
$DIMALTU
 70
     2
  9
$DIMALTTD
 70
     3
  9
$DIMTXSTY
  7
Standard
  9
$DIMAUNIT
 70
     0
  9
$DIMADEC
 70
     0
  9
$DIMALTRND
 40
0.0
  9
$DIMAZIN
 70
     0
  9
$DIMDSEP
 70
    44
  9
$DIMATFIT
 70
     3
  9
$DIMFRAC
 70
     0
  9
$DIMLDRBLK
  1

  9
$DIMLUNIT
 70
     2
  9
$DIMLWD
 70
    -2
  9
$DIMLWE
 70
    -2
  9
$DIMTMOVE
 70
     0
  9
$DIMFXL
 40
1.0
  9
$DIMFXLON
 70
     0
  9
$DIMJOGANG
 40
0.7853981633974483
  9
$DIMTFILL
 70
     0
  9
$DIMTFILLCLR
 70
     0
  9
$DIMARCSYM
 70
     0
  9
$DIMLTYPE
  6

  9
$DIMLTEX1
  6

  9
$DIMLTEX2
  6

  9
$LUNITS
 70
     2
  9
$LUPREC
 70
     4
  9
$SKETCHINC
 40
1.0
  9
$FILLETRAD
 40
10.0
  9
$AUNITS
 70
     0
  9
$AUPREC
 70
     0
  9
$MENU
  1
.
  9
$ELEVATION
 40
0.0
  9
$PELEVATION
 40
0.0
  9
$THICKNESS
 40
0.0
  9
$LIMCHECK
 70
     0
  9
$CHAMFERA
 40
10.0
  9
$CHAMFERB
 40
10.0
  9
$CHAMFERC
 40
20.0
  9
$CHAMFERD
 40
0.0
  9
$SKPOLY
 70
     0
  9
$TDCREATE
 40
2455614.642191933
  9
$TDUCREATE
 40
2455614.642191933
  9
$TDUPDATE
 40
2455614.642191945
  9
$TDUUPDATE
 40
2455614.642191945
  9
$TDINDWG
 40
0.0000000116
  9
$TDUSRTIMER
 40
0.0000000116
  9
$USRTIMER
 70
     1
  9
$ANGBASE
 50
0.0
  9
$ANGDIR
 70
     0
  9
$PDMODE
 70
     0
  9
$PDSIZE
 40
0.0
  9
$PLINEWID
 40
0.0
  9
$SPLFRAME
 70
     0
  9
$SPLINETYPE
 70
     6
  9
$SPLINESEGS
 70
     8
  9
$HANDSEED
  5
6EF
  9
$SURFTAB1
 70
     6
  9
$SURFTAB2
 70
     6
  9
$SURFTYPE
 70
     6
  9
$SURFU
 70
     6
  9
$SURFV
 70
     6
  9
$UCSBASE
  2

  9
$UCSNAME
  2

  9
$UCSORG
 10
0.0
 20
0.0
 30
0.0
  9
$UCSXDIR
 10
1.0
 20
0.0
 30
0.0
  9
$UCSYDIR
 10
0.0
 20
1.0
 30
0.0
  9
$UCSORTHOREF
  2

  9
$UCSORTHOVIEW
 70
     0
  9
$UCSORGTOP
 10
0.0
 20
0.0
 30
0.0
  9
$UCSORGBOTTOM
 10
0.0
 20
0.0
 30
0.0
  9
$UCSORGLEFT
 10
0.0
 20
0.0
 30
0.0
  9
$UCSORGRIGHT
 10
0.0
 20
0.0
 30
0.0
  9
$UCSORGFRONT
 10
0.0
 20
0.0
 30
0.0
  9
$UCSORGBACK
 10
0.0
 20
0.0
 30
0.0
  9
$PUCSBASE
  2

  9
$PUCSNAME
  2

  9
$PUCSORG
 10
0.0
 20
0.0
 30
0.0
  9
$PUCSXDIR
 10
1.0
 20
0.0
 30
0.0
  9
$PUCSYDIR
 10
0.0
 20
1.0
 30
0.0
  9
$PUCSORTHOREF
  2

  9
$PUCSORTHOVIEW
 70
     0
  9
$PUCSORGTOP
 10
0.0
 20
0.0
 30
0.0
  9
$PUCSORGBOTTOM
 10
0.0
 20
0.0
 30
0.0
  9
$PUCSORGLEFT
 10
0.0
 20
0.0
 30
0.0
  9
$PUCSORGRIGHT
 10
0.0
 20
0.0
 30
0.0
  9
$PUCSORGFRONT
 10
0.0
 20
0.0
 30
0.0
  9
$PUCSORGBACK
 10
0.0
 20
0.0
 30
0.0
  9
$USERI1
 70
     0
  9
$USERI2
 70
     0
  9
$USERI3
 70
     0
  9
$USERI4
 70
     0
  9
$USERI5
 70
     0
  9
$USERR1
 40
0.0
  9
$USERR2
 40
0.0
  9
$USERR3
 40
0.0
  9
$USERR4
 40
0.0
  9
$USERR5
 40
0.0
  9
$WORLDVIEW
 70
     1
  9
$SHADEDGE
 70
     3
  9
$SHADEDIF
 70
    70
  9
$TILEMODE
 70
     1
  9
$MAXACTVP
 70
    64
  9
$PINSBASE
 10
0.0
 20
0.0
 30
0.0
  9
$PLIMCHECK
 70
     0
  9
$PEXTMIN
 10
1.000000000000000E+20
 20
1.000000000000000E+20
 30
1.000000000000000E+20
  9
$PEXTMAX
 10
-1.000000000000000E+20
 20
-1.000000000000000E+20
 30
-1.000000000000000E+20
  9
$PLIMMIN
 10
0.0
 20
0.0
  9
$PLIMMAX
 10
420.0
 20
297.0
  9
$UNITMODE
 70
     0
  9
$VISRETAIN
 70
     1
  9
$PLINEGEN
 70
     0
  9
$PSLTSCALE
 70
     1
  9
$TREEDEPTH
 70
  3020
  9
$CMLSTYLE
  2
Standard
  9
$CMLJUST
 70
     0
  9
$CMLSCALE
 40
20.0
  9
$PROXYGRAPHICS
 70
     1
  9
$MEASUREMENT
 70
     1
  9
$CELWEIGHT
370
    -1
  9
$ENDCAPS
280
     0
  9
$JOINSTYLE
280
     0
  9
$LWDISPLAY
290
     0
  9
$INSUNITS
 70
     4
  9
$HYPERLINKBASE
  1

  9
$STYLESHEET
  1

  9
$XEDIT
290
     1
  9
$CEPSNTYPE
380
     0
  9
$PSTYLEMODE
290
     1
  9
$FINGERPRINTGUID
  2
{27652E77-A387-4811-8449-1A9BF8D745EE}
  9
$VERSIONGUID
  2
{FAEB1C32-E019-11D5-929B-00C0DF256EC4}
  9
$EXTNAMES
290
     1
  9
$PSVPSCALE
 40
0.0
  9
$OLESTARTUP
290
     0
  9
$SORTENTS
280
   127
  9
$INDEXCTL
280
     0
  9
$HIDETEXT
280
     1
  9
$XCLIPFRAME
290
     0
  9
$HALOGAP
280
     0
  9
$OBSCOLOR
 70
   257
  9
$OBSLTYPE
280
     0
  9
$INTERSECTIONDISPLAY
280
     0
  9
$INTERSECTIONCOLOR
 70
   257
  9
$DIMASSOC
280
     2
  9
$PROJECTNAME
  1

  9
$CAMERADISPLAY
290
     0
  9
$LENSLENGTH
 40
50.0
  9
$CAMERAHEIGHT
 40
0.0
  9
$STEPSPERSEC
 40
2.0
  9
$STEPSIZE
 40
6.0
  9
$3DDWFPREC
 40
2.0
  9
$PSOLWIDTH
 40
5.0
  9
$PSOLHEIGHT
 40
80.0
  9
$LOFTANG1
 40
1.570796326794897
  9
$LOFTANG2
 40
1.570796326794897
  9
$LOFTMAG1
 40
0.0
  9
$LOFTMAG2
 40
0.0
  9
$LOFTPARAM
 70
     7
  9
$LOFTNORMALS
280
     1
  9
$LATITUDE
 40
37.795
  9
$LONGITUDE
 40
-122.394
  9
$NORTHDIRECTION
 40
0.0
  9
$TIMEZONE
 70
 -8000
  9
$LIGHTGLYPHDISPLAY
280
     1
  9
$TILEMODELIGHTSYNCH
280
     1
  9
$SOLIDHIST
280
     1
  9
$SHOWHIST
280
     1
  9
$DWFFRAME
280
     2
  9
$DGNFRAME
280
     2
  9
$REALWORLDSCALE
290
     1
  9
$INTERFERECOLOR
 62
   256
  9
$CSHADOW
280
     0
  9
$SHADOWPLANELOCATION
 40
0.0
  0
ENDSEC
  0
SECTION
  2
CLASSES
  0
CLASS
  1
ACDBDICTIONARYWDFLT
  2
AcDbDictionaryWithDefault
  3
ObjectDBX Classes
 90
        0
 91
        3
280
     0
281
     0
  0
CLASS
  1
VISUALSTYLE
  2
AcDbVisualStyle
  3
ObjectDBX Classes
 90
     4095
 91
        3
280
     0
281
     0
  0
ENDSEC
  0
SECTION
  2
TABLES
  0
TABLE
  2
VPORT
  5
8
330
0
100
AcDbSymbolTable
 70
     1
  0
VPORT
  5
29
330
8
100
AcDbSymbolTableRecord
100
AcDbViewportTableRecord
  2
*Active
 70
     0
 10
0.0
 20
0.0
 11
1.0
 21
1.0
 12
344.1869158878504
 22
148.5
 13
0.0
 23
0.0
 14
10.0
 24
10.0
 15
10.0
 25
10.0
 16
0.0
 26
0.0
 36
1.0
 17
0.0
 27
0.0
 37
0.0
 40
297.0
 41
1.972972972850329
 42
50.0
 43
0.0
 44
0.0
 50
0.0
 51
0.0
 71
     0
 72
   100
 73
     1
 74
     3
 75
     0
 76
     0
 77
     0
 78
     0
281
     0
 65
     1
110
0.0
120
0.0
130
0.0
111
1.0
121
0.0
131
0.0
112
0.0
122
1.0
132
0.0
 79
     0
146
0.0
 60
     3
 61
     5
292
     1
282
     1
141
0.0
142
0.0
 63
   256
  0
ENDTAB
  0
TABLE
  2
LTYPE
  5
5
330
0
100
AcDbSymbolTable
 70
     9
  0
LTYPE
  5
14
330
5
100
AcDbSymbolTableRecord
100
AcDbLinetypeTableRecord
  2
ByBlock
 70
     0
  3

 72
    65
 73
     0
 40
0.0
  0
LTYPE
  5
15
330
5
100
AcDbSymbolTableRecord
100
AcDbLinetypeTableRecord
  2
ByLayer
 70
     0
  3

 72
    65
 73
     0
 40
0.0
  0
LTYPE
  5
16
330
5
100
AcDbSymbolTableRecord
100
AcDbLinetypeTableRecord
  2
Continuous
 70
     0
  3
Solid line
 72
    65
 73
     0
 40
0.0
  0
LTYPE
  5
3B
330
5
100
AcDbSymbolTableRecord
100
AcDbLinetypeTableRecord
  2
DOT
 70
     0
  3
____    ____    
 72
    65
 73
     4
 40
16.0
 49
4.0
 74
     0
 49
-4.0
 74
     0
 49
4.0
 74
     0
 49
-4.0
 74
     0
  0
LTYPE
  5
3C
330
5
100
AcDbSymbolTableRecord
100
AcDbLinetypeTableRecord
  2
HIDDEN
 70
     0
  3
__  __  __  __  
 72
    65
 73
     8
 40
16.0
 49
2.0
 74
     0
 49
-2.0
 74
     0
 49
2.0
 74
     0
 49
-2.0
 74
     0
 49
2.0
 74
     0
 49
-2.0
 74
     0
 49
2.0
 74
     0
 49
-2.0
 74
     0
  0
LTYPE
  5
3D
330
5
100
AcDbSymbolTableRecord
100
AcDbLinetypeTableRecord
  2
DASHED
 70
     0
  3
________        
 72
    65
 73
     2
 40
16.0
 49
8.0
 74
     0
 49
-8.0
 74
     0
  0
LTYPE
  5
3E
330
5
100
AcDbSymbolTableRecord
100
AcDbLinetypeTableRecord
  2
DASHDOT
 70
     0
  3
____________    
 72
    65
 73
     2
 40
16.0
 49
12.0
 74
     0
 49
-4.0
 74
     0
  0
LTYPE
  5
3F
330
5
100
AcDbSymbolTableRecord
100
AcDbLinetypeTableRecord
  2
BORDER
 70
     0
  3
_____________ _ 
 72
    65
 73
     4
 40
16.0
 49
13.0
 74
     0
 49
-1.0
 74
     0
 49
1.0
 74
     0
 49
-1.0
 74
     0
  0
LTYPE
  5
40
330
5
100
AcDbSymbolTableRecord
100
AcDbLinetypeTableRecord
  2
CENTER
 70
     0
  3
_________  ___  
 72
    65
 73
     4
 40
16.0
 49
9.0
 74
     0
 49
-2.0
 74
     0
 49
3.0
 74
     0
 49
-2.0
 74
     0
  0
LTYPE
  5
41
330
5
100
AcDbSymbolTableRecord
100
AcDbLinetypeTableRecord
  2
PHANTOM
 70
     0
  3
_______   ___   
 72
    65
 73
     4
 40
16.0
 49
7.0
 74
     0
 49
-3.0
 74
     0
 49
3.0
 74
     0
 49
-3.0
 74
     0
  0
LTYPE
  5
42
330
5
100
AcDbSymbolTableRecord
100
AcDbLinetypeTableRecord
  2
DIVIDE
 70
     0
  3
_______  __ __  
 72
    65
 73
     6
 40
16.0
 49
7.0
 74
     0
 49
-2.0
 74
     0
 49
2.0
 74
     0
 49
-1.0
 74
     0
 49
2.0
 74
     0
 49
-2.0
 74
     0
  0
ENDTAB
  0
TABLE
  2
LAYER
  5
2
330
0
100
AcDbSymbolTable
 70
     4
  0
LAYER
  5
10
330
2
100
AcDbSymbolTableRecord
100
AcDbLayerTableRecord
  2
0
 70
     0
 62
     7
  6
Continuous
370
    -3
390
F
347
0
  0
LAYER
  5
258
330
2
100
AcDbSymbolTableRecord
100
AcDbLayerTableRecord
  2
1
 70
     0
 62
     7
420
 16777215
  6
Continuous
370
    -3
390
F
347
0
  0
LAYER
  5
37C
330
2
100
AcDbSymbolTableRecord
100
AcDbLayerTableRecord
  2
GEN_LAYER
 70
     0
 62
     7
420
 16777215
  6
Continuous
370
    -3
390
F
347
0
  0
LAYER
  5
3B8
330
2
100
AcDbSymbolTableRecord
100
AcDbLayerTableRecord
  2
FIXING
 70
     0
 62
     7
420
 16777215
  6
Continuous
370
    -3
390
F
347
0
  0
ENDTAB
  0
TABLE
  2
STYLE
  5
3
330
0
100
AcDbSymbolTable
 70
     3
  0
STYLE
  5
11
330
3
100
AcDbSymbolTableRecord
100
AcDbTextStyleTableRecord
  2
Standard
 70
     0
 40
0.0
 41
1.0
 50
0.0
 71
     0
 42
2.5
  3
txt
  4

  0
STYLE
  5
43
330
3
100
AcDbSymbolTableRecord
100
AcDbTextStyleTableRecord
  2
ARIAL
 70
     0
 40
0.2
 41
1.0
 50
0.0
 71
     0
 42
0.2
  3
ARIAL.TTF
  4

  0
STYLE
  5
44
330
3
100
AcDbSymbolTableRecord
100
AcDbTextStyleTableRecord
  2
CALISTB
 70
     0
 40
0.2
 41
1.0
 50
0.0
 71
     0
 42
0.2
  3
CALISTB.TTF
  4

  0
ENDTAB
  0
TABLE
  2
VIEW
  5
6
330
0
100
AcDbSymbolTable
 70
     0
  0
ENDTAB
  0
TABLE
  2
UCS
  5
7
330
0
100
AcDbSymbolTable
 70
     0
  0
ENDTAB
  0
TABLE
  2
APPID
  5
9
330
0
100
AcDbSymbolTable
 70
     1
  0
APPID
  5
12
330
9
100
AcDbSymbolTableRecord
100
AcDbRegAppTableRecord
  2
ACAD
 70
     0
  0
ENDTAB
  0
TABLE
  2
DIMSTYLE
  5
A
330
0
100
AcDbSymbolTable
 70
     1
100
AcDbDimStyleTable
  0
DIMSTYLE
105
27
330
A
100
AcDbSymbolTableRecord
100
AcDbDimStyleTableRecord
  2
ISO-25
 70
     0
 41
2.5
 42
0.625
 43
3.75
 44
1.25
 73
     0
 74
     0
 77
     1
 78
     8
140
2.5
141
2.5
143
0.03937007874016
147
0.625
171
     3
172
     1
271
     2
272
     2
274
     3
278
    44
283
     0
284
     8
340
11
  0
ENDTAB
  0
TABLE
  2
BLOCK_RECORD
  5
1
330
0
100
AcDbSymbolTable
 70
    21
  0
BLOCK_RECORD
  5
1F
330
1
100
AcDbSymbolTableRecord
100
AcDbBlockTableRecord
  2
*Model_Space
340
22
 70
     0
280
     1
281
     0
  0
BLOCK_RECORD
  5
1B
330
1
100
AcDbSymbolTableRecord
100
AcDbBlockTableRecord
  2
*Paper_Space
340
1E
 70
     0
280
     1
281
     0
  0
BLOCK_RECORD
  5
23
330
1
100
AcDbSymbolTableRecord
100
AcDbBlockTableRecord
  2
*Paper_Space0
340
26
 70
     0
280
     1
281
     0
  0
BLOCK_RECORD
  5
45
330
1
100
AcDbSymbolTableRecord
100
AcDbBlockTableRecord
  2
GEN_BLOCK
340
0
102
{BLKREFS
331
48
102
}
 70
     0
280
     1
281
     0
  0
BLOCK_RECORD
  5
231
330
1
100
AcDbSymbolTableRecord
100
AcDbBlockTableRecord
  2
PROTO
340
0
102
{BLKREFS
331
234
102
}
 70
     0
280
     1
281
     0
  0
BLOCK_RECORD
  5
249
330
1
100
AcDbSymbolTableRecord
100
AcDbBlockTableRecord
  2
GEN_BLOCK00000
340
0
102
{BLKREFS
331
24C
102
}
 70
     0
280
     1
281
     0
  0
BLOCK_RECORD
  5
259
330
1
100
AcDbSymbolTableRecord
100
AcDbBlockTableRecord
  2
GEN_BLOCK00001
340
0
102
{BLKREFS
331
25C
102
}
 70
     0
280
     1
281
     0
  0
BLOCK_RECORD
  5
25E
330
1
100
AcDbSymbolTableRecord
100
AcDbBlockTableRecord
  2
GEN_BLOCK00002
340
0
102
{BLKREFS
331
261
102
}
 70
     0
280
     1
281
     0
  0
BLOCK_RECORD
  5
2CD
330
1
100
AcDbSymbolTableRecord
100
AcDbBlockTableRecord
  2
GEN_BLOCK00003
340
0
102
{BLKREFS
331
2D0
102
}
 70
     0
280
     1
281
     0
  0
BLOCK_RECORD
  5
2D2
330
1
100
AcDbSymbolTableRecord
100
AcDbBlockTableRecord
  2
GEN_BLOCK00004
340
0
102
{BLKREFS
331
2D5
102
}
 70
     0
280
     1
281
     0
  0
BLOCK_RECORD
  5
341
330
1
100
AcDbSymbolTableRecord
100
AcDbBlockTableRecord
  2
GEN_BLOCK00005
340
0
102
{BLKREFS
331
344
102
}
 70
     0
280
     1
281
     0
  0
BLOCK_RECORD
  5
36C
330
1
100
AcDbSymbolTableRecord
100
AcDbBlockTableRecord
  2
GEN_BLOCK00006
340
0
102
{BLKREFS
331
36F
102
}
 70
     0
280
     1
281
     0
  0
BLOCK_RECORD
  5
37D
330
1
100
AcDbSymbolTableRecord
100
AcDbBlockTableRecord
  2
GEN_BLOCK00007
340
0
102
{BLKREFS
331
380
102
}
 70
     0
280
     1
281
     0
  0
BLOCK_RECORD
  5
383
330
1
100
AcDbSymbolTableRecord
100
AcDbBlockTableRecord
  2
GEN_BLOCK00008
340
0
102
{BLKREFS
331
386
102
}
 70
     0
280
     1
281
     0
  0
BLOCK_RECORD
  5
393
330
1
100
AcDbSymbolTableRecord
100
AcDbBlockTableRecord
  2
GEN_BLOCK00009
340
0
102
{BLKREFS
331
396
102
}
 70
     0
280
     1
281
     0
  0
BLOCK_RECORD
  5
3A0
330
1
100
AcDbSymbolTableRecord
100
AcDbBlockTableRecord
  2
GEN_BLOCK00010
340
0
102
{BLKREFS
331
3A3
102
}
 70
     0
280
     1
281
     0
  0
BLOCK_RECORD
  5
3B9
330
1
100
AcDbSymbolTableRecord
100
AcDbBlockTableRecord
  2
8569S
340
0
102
{BLKREFS
331
3BC
102
}
 70
     0
280
     1
281
     0
  0
BLOCK_RECORD
  5
507
330
1
100
AcDbSymbolTableRecord
100
AcDbBlockTableRecord
  2
8569S00011
340
0
102
{BLKREFS
331
50A
102
}
 70
     0
280
     1
281
     0
  0
BLOCK_RECORD
  5
5A3
330
1
100
AcDbSymbolTableRecord
100
AcDbBlockTableRecord
  2
GEN_BLOCK00012
340
0
102
{BLKREFS
331
5A6
102
}
 70
     0
280
     1
281
     0
  0
BLOCK_RECORD
  5
5BC
330
1
100
AcDbSymbolTableRecord
100
AcDbBlockTableRecord
  2
GEN_BLOCK00013
340
0
102
{BLKREFS
331
5BF
102
}
 70
     0
280
     1
281
     0
  0
BLOCK_RECORD
  5
5C9
330
1
100
AcDbSymbolTableRecord
100
AcDbBlockTableRecord
  2
GEN_BLOCK00014
340
0
102
{BLKREFS
331
5CC
102
}
 70
     0
280
     1
281
     0
  0
BLOCK_RECORD
  5
63F
330
1
100
AcDbSymbolTableRecord
100
AcDbBlockTableRecord
  2
GEN_BLOCK00015
340
0
102
{BLKREFS
331
642
102
}
 70
     0
280
     1
281
     0
  0
BLOCK_RECORD
  5
6B5
330
1
100
AcDbSymbolTableRecord
100
AcDbBlockTableRecord
  2
GEN_BLOCK00016
340
0
102
{BLKREFS
331
6B8
102
}
 70
     0
280
     1
281
     0
  0
ENDTAB
  0
ENDSEC
  0
SECTION
  2
BLOCKS
  0
BLOCK
  5
20
330
1F
100
AcDbEntity
  8
0
100
AcDbBlockBegin
  2
*Model_Space
 70
     0
 71
     0
 10
0.0
 20
0.0
 30
0.0
  3
*Model_Space
  1

  0
ENDBLK
  5
21
330
1F
100
AcDbEntity
  8
0
100
AcDbBlockEnd
  0
BLOCK
  5
1C
330
1B
100
AcDbEntity
 67
     1
  8
0
100
AcDbBlockBegin
  2
*Paper_Space
 70
     0
 71
     0
 10
0.0
 20
0.0
 30
0.0
  3
*Paper_Space
  1

  0
ENDBLK
  5
1D
330
1B
100
AcDbEntity
 67
     1
  8
0
100
AcDbBlockEnd
  0
BLOCK
  5
24
330
23
100
AcDbEntity
  8
0
100
AcDbBlockBegin
  2
*Paper_Space0
 70
     0
 71
     0
 10
0.0
 20
0.0
 30
0.0
  3
*Paper_Space0
  1

  0
ENDBLK
  5
25
330
23
100
AcDbEntity
  8
0
100
AcDbBlockEnd
  0
BLOCK
  5
46
330
45
100
AcDbEntity
  8
0
100
AcDbBlockBegin
  2
GEN_BLOCK
 70
     0
 71
     0
 10
0.0
 20
0.0
 30
0.0
  3
GEN_BLOCK
  1

  0
LINE
  5
49
330
45
100
AcDbEntity
  8
0
  6
Continuous
 62
    15
100
AcDbLine
 10
0.5007727650647951
 20
10.72231454833349
 30
0.0
 11
0.5224080893856637
 21
10.33289468775541
 31
0.0
  0
LINE
  5
4A
330
45
100
AcDbEntity
  8
0
  6
Continuous
 62
    15
100
AcDbLine
 10
0.5224080893856637
 20
10.33289468775541
 30
0.0
 11
0.5872547614283405
 21
9.94454219994708
 31
0.0
  0
LINE
  5
4B
330
45
100
AcDbEntity
  8
0
  6
Continuous
 62
    15
100
AcDbLine
 10
0.5872547614283405
 20
9.94454219994708
 30
0.0
 11
0.6951350409720192
 21
9.55832153208297
 31
0.0
  0
LINE
  5
4C
330
45
100
AcDbEntity
  8
0
  6
Continuous
 62
    15
100
AcDbLine
 10
0.6951350409720192
 20
9.55832153208297
 30
0.0
 11
0.8457532356694912
 21
9.175291288168808
 31
0.0
  0
LINE
  5
4D
330
45
100
AcDbEntity
  8
0
  6
Continuous
 62
    15
100
AcDbLine
 10
0.8457532356694912
 20
9.175291288168808
 30
0.0
 11
1.038696511518339
 21
8.796501327478325
 31
0.0
  0
LINE
  5
4E
330
45
100
AcDbEntity
  8
0
  6
Continuous
 62
    15
100
AcDbLine
 10
1.038696511518339
 20
8.796501327478325
 30
0.0
 11
1.273436024410131
 21
8.42298988696433
 31
0.0
  0
LINE
  5
4F
330
45
100
AcDbEntity
  8
0
  6
Continuous
 62
    15
100
AcDbLine
 10
1.273436024410131
 20
8.42298988696433
 30
0.0
 11
1.549328369657616
 21
8.055780735523456
 31
0.0
  0
LINE
  5
50
330
45
100
AcDbEntity
  8
0
  6
Continuous
 62
    15
100
AcDbLine
 10
1.549328369657616
 20
8.055780735523456
 30
0.0
 11
1.865617345518586
 21
7.695880367914867
 31
0.0
  0
LINE
  5
51
330
45
100
AcDbEntity
  8
0
  6
Continuous
 62
    15
100
AcDbLine
 10
1.865617345518586
 20
7.695880367914867
 30
0.0
 11
2.221436025896111
 21
7.344275246029554
 31
0.0
  0
LINE
  5
52
330
45
100
AcDbEntity
  8
0
  6
Continuous
 62
    15
100
AcDbLine
 10
2.221436025896111
 20
7.344275246029554
 30
0.0
 11
2.615809136518948
 21
7.001929095067624
 31
0.0
  0
LINE
  5
53
330
45
100
AcDbEntity
  8
0
  6
Continuous
 62
    15
100
AcDbLine
 10
2.615809136518948
 20
7.001929095067624
 30
0.0
 11
3.04765572810382
 21
6.669780262032361
 31
0.0
  0
LINE
  5
54
330
45
100
AcDbEntity
  8
0
  6
Continuous
 62
    15
100
AcDbLine
 10
3.04765572810382
 20
6.669780262032361
 30
0.0
 11
3.515792139160823
 21
6.348739143787441
 31
0.0
  0
LINE
  5
55
330
45
100
AcDbEntity
  8
0
  6
Continuous
 62
    15
100
AcDbLine
 10
3.515792139160823
 20
6.348739143787441
 30
0.0
 11
4.018935240326556
 21
6.039685691722696
 31
0.0
  0
LINE
  5
56
330
45
100
AcDbEntity
  8
0
  6
Continuous
 62
    15
100
AcDbLine
 10
4.018935240326556
 20
6.039685691722696
 30
0.0
 11
4.555705951334204
 21
5.743466999868758
 31
0.0
  0
LINE
  5
57
330
45
100
AcDbEntity
  8
0
  6
Continuous
 62
    15
100
AcDbLine
 10
4.555705951334204
 20
5.743466999868758
 30
0.0
 11
5.124633020974471
 21
5.460894983069409
 31
0.0
  0
LINE
  5
58
330
45
100
AcDbEntity
  8
0
  6
Continuous
 62
    15
100
AcDbLine
 10
5.124633020974471
 20
5.460894983069409
 30
0.0
 11
5.72415705969641
 21
5.192744151581735
 31
0.0
  0
LINE
  5
59
330
45
100
AcDbEntity
  8
0
  6
Continuous
 62
    15
100
AcDbLine
 10
5.72415705969641
 20
5.192744151581735
 30
0.0
 11
6.352634813781407
 21
4.939749488195901
 31
0.0
  0
LINE
  5
5A
330
45
100
AcDbEntity
  8
0
  6
Continuous
 62
    15
100
AcDbLine
 10
6.352634813781407
 20
4.939749488195901
 30
0.0
 11
7.008343669390598
 21
4.702604433698923
 31
0.0
  0
LINE
  5
5B
330
45
100
AcDbEntity
  8
0
  6
Continuous
 62
    15
100
AcDbLine
 10
7.008343669390598
 20
4.702604433698923
 30
0.0
 11
7.689486374128848
 21
4.481958986200823
 31
0.0
  0
LINE
  5
5C
330
45
100
AcDbEntity
  8
0
  6
Continuous
 62
    15
100
AcDbLine
 10
7.689486374128848
 20
4.481958986200823
 30
0.0
 11
8.394195963187741
 21
4.278417919536821
 31
0.0
  0
LINE
  5
5D
330
45
100
AcDbEntity
  8
0
  6
Continuous
 62
    15
100
AcDbLine
 10
8.394195963187741
 20
4.278417919536821
 30
0.0
 11
9.120540876567503
 21
4.09253912562275
 31
0.0
  0
LINE
  5
5E
330
45
100
AcDbEntity
  8
0
  6
Continuous
 62
    15
100
AcDbLine
 10
9.120540876567503
 20
4.09253912562275
 30
0.0
 11
9.866530253347975
 21
3.924832085312516
 31
0.0
  0
LINE
  5
5F
330
45
100
AcDbEntity
  8
0
  6
Continuous
 62
    15
100
AcDbLine
 10
9.866530253347975
 20
3.924832085312516
 30
0.0
 11
10.6301193885013
 21
3.77575647194584
 31
0.0
  0
LINE
  5
60
330
45
100
AcDbEntity
  8
0
  6
Continuous
 62
    15
100
AcDbLine
 10
10.6301193885013
 20
3.77575647194584
 30
0.0
 11
11.40921533728331
 21
3.645720891417056
 31
0.0
  0
LINE
  5
61
330
45
100
AcDbEntity
  8
0
  6
Continuous
 62
    15
100
AcDbLine
 10
11.40921533728331
 20
3.645720891417056
 30
0.0
 11
12.20168265185364
 21
3.535081762214247
 31
0.0
  0
LINE
  5
62
330
45
100
AcDbEntity
  8
0
  6
Continuous
 62
    15
100
AcDbLine
 10
12.20168265185364
 20
3.535081762214247
 30
0.0
 11
13.00534923438661
 21
3.444142338499603
 31
0.0
  0
LINE
  5
63
330
45
100
AcDbEntity
  8
0
  6
Continuous
 62
    15
100
AcDbLine
 10
13.00534923438661
 20
3.444142338499603
 30
0.0
 11
13.81801229064129
 21
3.373151878912665
 31
0.0
  0
LINE
  5
64
330
45
100
AcDbEntity
  8
0
  6
Continuous
 62
    15
100
AcDbLine
 10
13.81801229064129
 20
3.373151878912665
 30
0.0
 11
14.63744436766845
 21
3.322304963368822
 31
0.0
  0
LINE
  5
65
330
45
100
AcDbEntity
  8
0
  6
Continuous
 62
    15
100
AcDbLine
 10
14.63744436766845
 20
3.322304963368822
 30
0.0
 11
15.46139945910207
 21
3.291740959728429
 31
0.0
  0
LINE
  5
66
330
45
100
AcDbEntity
  8
0
  6
Continuous
 62
    15
100
AcDbLine
 10
15.46139945910207
 20
3.291740959728429
 30
0.0
 11
16.28761916131023
 21
3.281543641801761
 31
0.0
  0
LINE
  5
67
330
45
100
AcDbEntity
  8
0
  6
Continuous
 62
    15
100
AcDbLine
 10
16.28761916131023
 20
3.281543641801761
 30
0.0
 11
17.1138388635184
 21
3.291740959728429
 31
0.0
  0
LINE
  5
68
330
45
100
AcDbEntity
  8
0
  6
Continuous
 62
    15
100
AcDbLine
 10
17.1138388635184
 20
3.291740959728429
 30
0.0
 11
17.93779395495247
 21
3.322304963368822
 31
0.0
  0
LINE
  5
69
330
45
100
AcDbEntity
  8
0
  6
Continuous
 62
    15
100
AcDbLine
 10
17.93779395495247
 20
3.322304963368822
 30
0.0
 11
18.75722603197917
 21
3.373151878912665
 31
0.0
  0
LINE
  5
6A
330
45
100
AcDbEntity
  8
0
  6
Continuous
 62
    15
100
AcDbLine
 10
18.75722603197917
 20
3.373151878912665
 30
0.0
 11
19.56988908823385
 21
3.444142338499603
 31
0.0
  0
LINE
  5
6B
330
45
100
AcDbEntity
  8
0
  6
Continuous
 62
    15
100
AcDbLine
 10
19.56988908823385
 20
3.444142338499603
 30
0.0
 11
20.37355567076682
 21
3.535081762214247
 31
0.0
  0
LINE
  5
6C
330
45
100
AcDbEntity
  8
0
  6
Continuous
 62
    15
100
AcDbLine
 10
20.37355567076682
 20
3.535081762214247
 30
0.0
 11
21.16602298533715
 21
3.645720891417056
 31
0.0
  0
LINE
  5
6D
330
45
100
AcDbEntity
  8
0
  6
Continuous
 62
    15
100
AcDbLine
 10
21.16602298533715
 20
3.645720891417056
 30
0.0
 11
21.94511893411917
 21
3.77575647194584
 31
0.0
  0
LINE
  5
6E
330
45
100
AcDbEntity
  8
0
  6
Continuous
 62
    15
100
AcDbLine
 10
21.94511893411917
 20
3.77575647194584
 30
0.0
 11
22.70870806927249
 21
3.924832085312516
 31
0.0
  0
LINE
  5
6F
330
45
100
AcDbEntity
  8
0
  6
Continuous
 62
    15
100
AcDbLine
 10
22.70870806927249
 20
3.924832085312516
 30
0.0
 11
23.45469744605342
 21
4.09253912562275
 31
0.0
  0
LINE
  5
70
330
45
100
AcDbEntity
  8
0
  6
Continuous
 62
    15
100
AcDbLine
 10
23.45469744605342
 20
4.09253912562275
 30
0.0
 11
24.18104235943318
 21
4.278417919536821
 31
0.0
  0
LINE
  5
71
330
45
100
AcDbEntity
  8
0
  6
Continuous
 62
    15
100
AcDbLine
 10
24.18104235943318
 20
4.278417919536821
 30
0.0
 11
24.88575194849207
 21
4.481958986200823
 31
0.0
  0
LINE
  5
72
330
45
100
AcDbEntity
  8
0
  6
Continuous
 62
    15
100
AcDbLine
 10
24.88575194849207
 20
4.481958986200823
 30
0.0
 11
25.56689465322987
 21
4.702604433698923
 31
0.0
  0
LINE
  5
73
330
45
100
AcDbEntity
  8
0
  6
Continuous
 62
    15
100
AcDbLine
 10
25.56689465322987
 20
4.702604433698923
 30
0.0
 11
26.22260350883906
 21
4.939749488195901
 31
0.0
  0
LINE
  5
74
330
45
100
AcDbEntity
  8
0
  6
Continuous
 62
    15
100
AcDbLine
 10
26.22260350883906
 20
4.939749488195901
 30
0.0
 11
26.85108126292405
 21
5.192744151581735
 31
0.0
  0
LINE
  5
75
330
45
100
AcDbEntity
  8
0
  6
Continuous
 62
    15
100
AcDbLine
 10
26.85108126292405
 20
5.192744151581735
 30
0.0
 11
27.45060530164599
 21
5.460894983069409
 31
0.0
  0
LINE
  5
76
330
45
100
AcDbEntity
  8
0
  6
Continuous
 62
    15
100
AcDbLine
 10
27.45060530164599
 20
5.460894983069409
 30
0.0
 11
28.01953237128672
 21
5.743466999868758
 31
0.0
  0
LINE
  5
77
330
45
100
AcDbEntity
  8
0
  6
Continuous
 62
    15
100
AcDbLine
 10
28.01953237128672
 20
5.743466999868758
 30
0.0
 11
28.55630308229391
 21
6.039685691722696
 31
0.0
  0
LINE
  5
78
330
45
100
AcDbEntity
  8
0
  6
Continuous
 62
    15
100
AcDbLine
 10
28.55630308229391
 20
6.039685691722696
 30
0.0
 11
29.05944618345964
 21
6.348739143787441
 31
0.0
  0
LINE
  5
79
330
45
100
AcDbEntity
  8
0
  6
Continuous
 62
    15
100
AcDbLine
 10
29.05944618345964
 20
6.348739143787441
 30
0.0
 11
29.52758259451664
 21
6.669780262032361
 31
0.0
  0
LINE
  5
7A
330
45
100
AcDbEntity
  8
0
  6
Continuous
 62
    15
100
AcDbLine
 10
29.52758259451664
 20
6.669780262032361
 30
0.0
 11
29.95942918610152
 21
7.001929095067624
 31
0.0
  0
LINE
  5
7B
330
45
100
AcDbEntity
  8
0
  6
Continuous
 62
    15
100
AcDbLine
 10
29.95942918610152
 20
7.001929095067624
 30
0.0
 11
30.35380229672481
 21
7.344275246029554
 31
0.0
  0
LINE
  5
7C
330
45
100
AcDbEntity
  8
0
  6
Continuous
 62
    15
100
AcDbLine
 10
30.35380229672481
 20
7.344275246029554
 30
0.0
 11
30.70962097710188
 21
7.695880367914867
 31
0.0
  0
LINE
  5
7D
330
45
100
AcDbEntity
  8
0
  6
Continuous
 62
    15
100
AcDbLine
 10
30.70962097710188
 20
7.695880367914867
 30
0.0
 11
31.02590995296285
 21
8.055780735523456
 31
0.0
  0
LINE
  5
7E
330
45
100
AcDbEntity
  8
0
  6
Continuous
 62
    15
100
AcDbLine
 10
31.02590995296285
 20
8.055780735523456
 30
0.0
 11
31.30180229821033
 21
8.42298988696433
 31
0.0
  0
LINE
  5
7F
330
45
100
AcDbEntity
  8
0
  6
Continuous
 62
    15
100
AcDbLine
 10
31.30180229821033
 20
8.42298988696433
 30
0.0
 11
31.53654181110213
 21
8.796501327478325
 31
0.0
  0
LINE
  5
80
330
45
100
AcDbEntity
  8
0
  6
Continuous
 62
    15
100
AcDbLine
 10
31.53654181110213
 20
8.796501327478325
 30
0.0
 11
31.72948508695097
 21
9.175291288168808
 31
0.0
  0
LINE
  5
81
330
45
100
AcDbEntity
  8
0
  6
Continuous
 62
    15
100
AcDbLine
 10
31.72948508695097
 20
9.175291288168808
 30
0.0
 11
31.88010328164845
 21
9.55832153208297
 31
0.0
  0
LINE
  5
82
330
45
100
AcDbEntity
  8
0
  6
Continuous
 62
    15
100
AcDbLine
 10
31.88010328164845
 20
9.55832153208297
 30
0.0
 11
31.98798356119212
 21
9.94454219994708
 31
0.0
  0
LINE
  5
83
330
45
100
AcDbEntity
  8
0
  6
Continuous
 62
    15
100
AcDbLine
 10
31.98798356119212
 20
9.94454219994708
 30
0.0
 11
32.0528302332348
 21
10.33289468775541
 31
0.0
  0
LINE
  5
84
330
45
100
AcDbEntity
  8
0
  6
Continuous
 62
    15
100
AcDbLine
 10
32.0528302332348
 20
10.33289468775541
 30
0.0
 11
32.07446555755567
 21
10.72231454833349
 31
0.0
  0
LINE
  5
85
330
45
100
AcDbEntity
  8
0
  6
Continuous
 62
    15
100
AcDbLine
 10
32.07446555755567
 20
10.72231454833349
 30
0.0
 11
32.0528302332348
 21
11.1117344089111
 31
0.0
  0
LINE
  5
86
330
45
100
AcDbEntity
  8
0
  6
Continuous
 62
    15
100
AcDbLine
 10
32.0528302332348
 20
11.1117344089111
 30
0.0
 11
31.98798356119212
 21
11.50008689671989
 31
0.0
  0
LINE
  5
87
330
45
100
AcDbEntity
  8
0
  6
Continuous
 62
    15
100
AcDbLine
 10
31.98798356119212
 20
11.50008689671989
 30
0.0
 11
31.88010328164845
 21
11.88630756458355
 31
0.0
  0
LINE
  5
88
330
45
100
AcDbEntity
  8
0
  6
Continuous
 62
    15
100
AcDbLine
 10
31.88010328164845
 20
11.88630756458355
 30
0.0
 11
31.72948508695097
 21
12.26933780849771
 31
0.0
  0
LINE
  5
89
330
45
100
AcDbEntity
  8
0
  6
Continuous
 62
    15
100
AcDbLine
 10
31.72948508695097
 20
12.26933780849771
 30
0.0
 11
31.53654181110213
 21
12.64812776918819
 31
0.0
  0
LINE
  5
8A
330
45
100
AcDbEntity
  8
0
  6
Continuous
 62
    15
100
AcDbLine
 10
31.53654181110213
 20
12.64812776918819
 30
0.0
 11
31.30180229821033
 21
13.02163920970219
 31
0.0
  0
LINE
  5
8B
330
45
100
AcDbEntity
  8
0
  6
Continuous
 62
    15
100
AcDbLine
 10
31.30180229821033
 20
13.02163920970219
 30
0.0
 11
31.02590995296285
 21
13.38884836114352
 31
0.0
  0
LINE
  5
8C
330
45
100
AcDbEntity
  8
0
  6
Continuous
 62
    15
100
AcDbLine
 10
31.02590995296285
 20
13.38884836114352
 30
0.0
 11
30.70962097710188
 21
13.7487487287521
 31
0.0
  0
LINE
  5
8D
330
45
100
AcDbEntity
  8
0
  6
Continuous
 62
    15
100
AcDbLine
 10
30.70962097710188
 20
13.7487487287521
 30
0.0
 11
30.35380229672481
 21
14.10035385063696
 31
0.0
  0
LINE
  5
8E
330
45
100
AcDbEntity
  8
0
  6
Continuous
 62
    15
100
AcDbLine
 10
30.35380229672481
 20
14.10035385063696
 30
0.0
 11
29.95942918610152
 21
14.44270000159889
 31
0.0
  0
LINE
  5
8F
330
45
100
AcDbEntity
  8
0
  6
Continuous
 62
    15
100
AcDbLine
 10
29.95942918610152
 20
14.44270000159889
 30
0.0
 11
29.52758259451664
 21
14.77484883463461
 31
0.0
  0
LINE
  5
90
330
45
100
AcDbEntity
  8
0
  6
Continuous
 62
    15
100
AcDbLine
 10
29.52758259451664
 20
14.77484883463461
 30
0.0
 11
29.05944618345964
 21
15.09588995287953
 31
0.0
  0
LINE
  5
91
330
45
100
AcDbEntity
  8
0
  6
Continuous
 62
    15
100
AcDbLine
 10
29.05944618345964
 20
15.09588995287953
 30
0.0
 11
28.55630308229391
 21
15.40494340494382
 31
0.0
  0
LINE
  5
92
330
45
100
AcDbEntity
  8
0
  6
Continuous
 62
    15
100
AcDbLine
 10
28.55630308229391
 20
15.40494340494382
 30
0.0
 11
28.01953237128672
 21
15.70116209679821
 31
0.0
  0
LINE
  5
93
330
45
100
AcDbEntity
  8
0
  6
Continuous
 62
    15
100
AcDbLine
 10
28.01953237128672
 20
15.70116209679821
 30
0.0
 11
27.45060530164599
 21
15.98373411359711
 31
0.0
  0
LINE
  5
94
330
45
100
AcDbEntity
  8
0
  6
Continuous
 62
    15
100
AcDbLine
 10
27.45060530164599
 20
15.98373411359711
 30
0.0
 11
26.85108126292405
 21
16.25188494508478
 31
0.0
  0
LINE
  5
95
330
45
100
AcDbEntity
  8
0
  6
Continuous
 62
    15
100
AcDbLine
 10
26.85108126292405
 20
16.25188494508478
 30
0.0
 11
26.22260350883906
 21
16.50487960847062
 31
0.0
  0
LINE
  5
96
330
45
100
AcDbEntity
  8
0
  6
Continuous
 62
    15
100
AcDbLine
 10
26.22260350883906
 20
16.50487960847062
 30
0.0
 11
25.56689465322987
 21
16.74202466296805
 31
0.0
  0
LINE
  5
97
330
45
100
AcDbEntity
  8
0
  6
Continuous
 62
    15
100
AcDbLine
 10
25.56689465322987
 20
16.74202466296805
 30
0.0
 11
24.88575194849207
 21
16.96267011046569
 31
0.0
  0
LINE
  5
98
330
45
100
AcDbEntity
  8
0
  6
Continuous
 62
    15
100
AcDbLine
 10
24.88575194849207
 20
16.96267011046569
 30
0.0
 11
24.18104235943318
 21
17.1662111771297
 31
0.0
  0
LINE
  5
99
330
45
100
AcDbEntity
  8
0
  6
Continuous
 62
    15
100
AcDbLine
 10
24.18104235943318
 20
17.1662111771297
 30
0.0
 11
23.45469744605342
 21
17.35208997104377
 31
0.0
  0
LINE
  5
9A
330
45
100
AcDbEntity
  8
0
  6
Continuous
 62
    15
100
AcDbLine
 10
23.45469744605342
 20
17.35208997104377
 30
0.0
 11
22.70870806927249
 21
17.51979701135446
 31
0.0
  0
LINE
  5
9B
330
45
100
AcDbEntity
  8
0
  6
Continuous
 62
    15
100
AcDbLine
 10
22.70870806927249
 20
17.51979701135446
 30
0.0
 11
21.94511893411962
 21
17.66887262472113
 31
0.0
  0
LINE
  5
9C
330
45
100
AcDbEntity
  8
0
  6
Continuous
 62
    15
100
AcDbLine
 10
21.94511893411962
 20
17.66887262472113
 30
0.0
 11
21.16602298533715
 21
17.79890820524946
 31
0.0
  0
LINE
  5
9D
330
45
100
AcDbEntity
  8
0
  6
Continuous
 62
    15
100
AcDbLine
 10
21.16602298533715
 20
17.79890820524946
 30
0.0
 11
20.37355567076682
 21
17.90954733445227
 31
0.0
  0
LINE
  5
9E
330
45
100
AcDbEntity
  8
0
  6
Continuous
 62
    15
100
AcDbLine
 10
20.37355567076682
 20
17.90954733445227
 30
0.0
 11
19.56988908823385
 21
18.00048675816691
 31
0.0
  0
LINE
  5
9F
330
45
100
AcDbEntity
  8
0
  6
Continuous
 62
    15
100
AcDbLine
 10
19.56988908823385
 20
18.00048675816691
 30
0.0
 11
18.75722603197917
 21
18.07147721775385
 31
0.0
  0
LINE
  5
A0
330
45
100
AcDbEntity
  8
0
  6
Continuous
 62
    15
100
AcDbLine
 10
18.75722603197917
 20
18.07147721775385
 30
0.0
 11
17.93779395495247
 21
18.12232413329815
 31
0.0
  0
LINE
  5
A1
330
45
100
AcDbEntity
  8
0
  6
Continuous
 62
    15
100
AcDbLine
 10
17.93779395495247
 20
18.12232413329815
 30
0.0
 11
17.1138388635184
 21
18.15288813693809
 31
0.0
  0
LINE
  5
A2
330
45
100
AcDbEntity
  8
0
  6
Continuous
 62
    15
100
AcDbLine
 10
17.1138388635184
 20
18.15288813693809
 30
0.0
 11
16.28761916131023
 21
18.16308545486476
 31
0.0
  0
LINE
  5
A3
330
45
100
AcDbEntity
  8
0
  6
Continuous
 62
    15
100
AcDbLine
 10
16.28761916131023
 20
18.16308545486476
 30
0.0
 11
15.46139945910207
 21
18.15288813693809
 31
0.0
  0
LINE
  5
A4
330
45
100
AcDbEntity
  8
0
  6
Continuous
 62
    15
100
AcDbLine
 10
15.46139945910207
 20
18.15288813693809
 30
0.0
 11
14.63744436766845
 21
18.12232413329815
 31
0.0
  0
LINE
  5
A5
330
45
100
AcDbEntity
  8
0
  6
Continuous
 62
    15
100
AcDbLine
 10
14.63744436766845
 20
18.12232413329815
 30
0.0
 11
13.81801229064129
 21
18.07147721775385
 31
0.0
  0
LINE
  5
A6
330
45
100
AcDbEntity
  8
0
  6
Continuous
 62
    15
100
AcDbLine
 10
13.81801229064129
 20
18.07147721775385
 30
0.0
 11
13.00534923438661
 21
18.00048675816691
 31
0.0
  0
LINE
  5
A7
330
45
100
AcDbEntity
  8
0
  6
Continuous
 62
    15
100
AcDbLine
 10
13.00534923438661
 20
18.00048675816691
 30
0.0
 11
12.20168265185364
 21
17.90954733445227
 31
0.0
  0
LINE
  5
A8
330
45
100
AcDbEntity
  8
0
  6
Continuous
 62
    15
100
AcDbLine
 10
12.20168265185364
 20
17.90954733445227
 30
0.0
 11
11.40921533728331
 21
17.79890820524946
 31
0.0
  0
LINE
  5
A9
330
45
100
AcDbEntity
  8
0
  6
Continuous
 62
    15
100
AcDbLine
 10
11.40921533728331
 20
17.79890820524946
 30
0.0
 11
10.6301193885013
 21
17.66887262472113
 31
0.0
  0
LINE
  5
AA
330
45
100
AcDbEntity
  8
0
  6
Continuous
 62
    15
100
AcDbLine
 10
10.6301193885013
 20
17.66887262472113
 30
0.0
 11
9.866530253347975
 21
17.51979701135446
 31
0.0
  0
LINE
  5
AB
330
45
100
AcDbEntity
  8
0
  6
Continuous
 62
    15
100
AcDbLine
 10
9.866530253347975
 20
17.51979701135446
 30
0.0
 11
9.120540876567503
 21
17.35208997104377
 31
0.0
  0
LINE
  5
AC
330
45
100
AcDbEntity
  8
0
  6
Continuous
 62
    15
100
AcDbLine
 10
9.120540876567503
 20
17.35208997104377
 30
0.0
 11
8.394195963187286
 21
17.1662111771297
 31
0.0
  0
LINE
  5
AD
330
45
100
AcDbEntity
  8
0
  6
Continuous
 62
    15
100
AcDbLine
 10
8.394195963187286
 20
17.1662111771297
 30
0.0
 11
7.689486374128848
 21
16.96267011046569
 31
0.0
  0
LINE
  5
AE
330
45
100
AcDbEntity
  8
0
  6
Continuous
 62
    15
100
AcDbLine
 10
7.689486374128848
 20
16.96267011046569
 30
0.0
 11
7.008343669390598
 21
16.74202466296805
 31
0.0
  0
LINE
  5
AF
330
45
100
AcDbEntity
  8
0
  6
Continuous
 62
    15
100
AcDbLine
 10
7.008343669390598
 20
16.74202466296805
 30
0.0
 11
6.352634813781407
 21
16.50487960847062
 31
0.0
  0
LINE
  5
B0
330
45
100
AcDbEntity
  8
0
  6
Continuous
 62
    15
100
AcDbLine
 10
6.352634813781407
 20
16.50487960847062
 30
0.0
 11
5.72415705969641
 21
16.25188494508478
 31
0.0
  0
LINE
  5
B1
330
45
100
AcDbEntity
  8
0
  6
Continuous
 62
    15
100
AcDbLine
 10
5.72415705969641
 20
16.25188494508478
 30
0.0
 11
5.124633020974471
 21
15.98373411359711
 31
0.0
  0
LINE
  5
B2
330
45
100
AcDbEntity
  8
0
  6
Continuous
 62
    15
100
AcDbLine
 10
5.124633020974471
 20
15.98373411359711
 30
0.0
 11
4.555705951333749
 21
15.70116209679821
 31
0.0
  0
LINE
  5
B3
330
45
100
AcDbEntity
  8
0
  6
Continuous
 62
    15
100
AcDbLine
 10
4.555705951333749
 20
15.70116209679821
 30
0.0
 11
4.018935240326556
 21
15.40494340494382
 31
0.0
  0
LINE
  5
B4
330
45
100
AcDbEntity
  8
0
  6
Continuous
 62
    15
100
AcDbLine
 10
4.018935240326556
 20
15.40494340494382
 30
0.0
 11
3.515792139160823
 21
15.09588995287953
 31
0.0
  0
LINE
  5
B5
330
45
100
AcDbEntity
  8
0
  6
Continuous
 62
    15
100
AcDbLine
 10
3.515792139160823
 20
15.09588995287953
 30
0.0
 11
3.04765572810382
 21
14.77484883463461
 31
0.0
  0
LINE
  5
B6
330
45
100
AcDbEntity
  8
0
  6
Continuous
 62
    15
100
AcDbLine
 10
3.04765572810382
 20
14.77484883463461
 30
0.0
 11
2.615809136518948
 21
14.44270000159889
 31
0.0
  0
LINE
  5
B7
330
45
100
AcDbEntity
  8
0
  6
Continuous
 62
    15
100
AcDbLine
 10
2.615809136518948
 20
14.44270000159889
 30
0.0
 11
2.221436025895656
 21
14.10035385063696
 31
0.0
  0
LINE
  5
B8
330
45
100
AcDbEntity
  8
0
  6
Continuous
 62
    15
100
AcDbLine
 10
2.221436025895656
 20
14.10035385063696
 30
0.0
 11
1.865617345518586
 21
13.7487487287521
 31
0.0
  0
LINE
  5
B9
330
45
100
AcDbEntity
  8
0
  6
Continuous
 62
    15
100
AcDbLine
 10
1.865617345518586
 20
13.7487487287521
 30
0.0
 11
1.549328369657616
 21
13.38884836114352
 31
0.0
  0
LINE
  5
BA
330
45
100
AcDbEntity
  8
0
  6
Continuous
 62
    15
100
AcDbLine
 10
1.549328369657616
 20
13.38884836114352
 30
0.0
 11
1.273436024410131
 21
13.02163920970219
 31
0.0
  0
LINE
  5
BB
330
45
100
AcDbEntity
  8
0
  6
Continuous
 62
    15
100
AcDbLine
 10
1.273436024410131
 20
13.02163920970219
 30
0.0
 11
1.038696511518339
 21
12.64812776918819
 31
0.0
  0
LINE
  5
BC
330
45
100
AcDbEntity
  8
0
  6
Continuous
 62
    15
100
AcDbLine
 10
1.038696511518339
 20
12.64812776918819
 30
0.0
 11
0.8457532356694912
 21
12.26933780849771
 31
0.0
  0
LINE
  5
BD
330
45
100
AcDbEntity
  8
0
  6
Continuous
 62
    15
100
AcDbLine
 10
0.8457532356694912
 20
12.26933780849771
 30
0.0
 11
0.6951350409720192
 21
11.88630756458355
 31
0.0
  0
LINE
  5
BE
330
45
100
AcDbEntity
  8
0
  6
Continuous
 62
    15
100
AcDbLine
 10
0.6951350409720192
 20
11.88630756458355
 30
0.0
 11
0.5872547614283405
 21
11.50008689671989
 31
0.0
  0
LINE
  5
BF
330
45
100
AcDbEntity
  8
0
  6
Continuous
 62
    15
100
AcDbLine
 10
0.5872547614283405
 20
11.50008689671989
 30
0.0
 11
0.5224080893856637
 21
11.1117344089111
 31
0.0
  0
LINE
  5
C0
330
45
100
AcDbEntity
  8
0
  6
Continuous
 62
    15
100
AcDbLine
 10
0.5224080893856637
 20
11.1117344089111
 30
0.0
 11
0.5007727650647951
 21
10.72231454833349
 31
0.0
  0
ARC
  5
C1
330
45
100
AcDbEntity
  8
0
  6
Continuous
 62
    16
100
AcDbCircle
 10
25.16036435551567
 20
6.426179863451978
 30
0.0
 40
0.6005912475397421
100
AcDbArc
 50
61.06943034573163
 51
142.6647004994766
  0
ARC
  5
C2
330
45
100
AcDbEntity
  8
0
  6
Continuous
 62
    16
100
AcDbCircle
 10
25.16036435551567
 20
6.426179863451978
 30
0.0
 40
0.9662162475397422
100
AcDbArc
 50
64.49037964304127
 51
142.9738579058682
  0
LINE
  5
C3
330
45
100
AcDbEntity
  8
0
  6
Continuous
 62
    16
100
AcDbLine
 10
8.344629827972568
 20
6.951821258001416
 30
0.0
 11
8.219052249101225
 21
7.298202573987908
 31
0.0
  0
LINE
  5
C4
330
45
100
AcDbEntity
  8
0
  6
Continuous
 62
    16
100
AcDbLine
 10
10.72868907098362
 20
6.354394027778142
 30
0.0
 11
10.60367194117524
 21
6.699229454079557
 31
0.0
  0
ARC
  5
C5
330
45
100
AcDbEntity
  8
0
  6
Continuous
 62
    16
100
AcDbCircle
 10
10.19059121086664
 20
7.572692760268126
 30
0.0
 40
1.331841247539742
100
AcDbArc
 50
215.9697303766588
 51
293.8300759689964
  0
ARC
  5
C6
330
45
100
AcDbEntity
  8
0
  6
Continuous
 62
    16
100
AcDbCircle
 10
8.635165490082528
 20
6.426179863451978
 30
0.0
 40
0.6005912475397421
100
AcDbArc
 50
37.3352995005234
 51
118.9305696542684
  0
ARC
  5
C7
330
45
100
AcDbEntity
  8
0
  6
Continuous
 62
    16
100
AcDbCircle
 10
10.19059121086664
 20
7.572692760268126
 30
0.0
 40
0.9662162475397422
100
AcDbArc
 50
215.7621230696957
 51
295.3105355331508
  0
ARC
  5
C8
330
45
100
AcDbEntity
  8
0
  6
Continuous
 62
    16
100
AcDbCircle
 10
8.635165490082528
 20
6.426179863451978
 30
0.0
 40
0.9662162475397422
100
AcDbArc
 50
37.02614209413181
 51
115.5096203569587
  0
LINE
  5
C9
330
45
100
AcDbEntity
  8
0
  6
Continuous
 62
    16
100
AcDbLine
 10
23.06684077461458
 20
6.354394027778142
 30
0.0
 11
23.19185790442296
 21
6.699229454079557
 31
0.0
  0
ARC
  5
CA
330
45
100
AcDbEntity
  8
0
  6
Continuous
 62
    16
100
AcDbCircle
 10
23.60493863473155
 20
7.572692760268126
 30
0.0
 40
0.9662162475397422
100
AcDbArc
 50
244.6894644668492
 51
324.2378769303043
  0
ARC
  5
CB
330
45
100
AcDbEntity
  8
0
  6
Continuous
 62
    16
100
AcDbCircle
 10
23.60493863473155
 20
7.572692760268126
 30
0.0
 40
1.331841247539742
100
AcDbArc
 50
246.1699240310035
 51
324.0302696233412
  0
LINE
  5
CC
330
45
100
AcDbEntity
  8
0
  6
Continuous
 62
    16
100
AcDbLine
 10
25.45090001762608
 20
6.951821258001416
 30
0.0
 11
25.57647759649697
 21
7.298202573987908
 31
0.0
  0
ARC
  5
CD
330
45
100
AcDbEntity
  8
0
  6
Continuous
 62
    16
100
AcDbCircle
 10
23.90989063755958
 20
11.01183880385128
 30
0.0
 40
2.4375
100
AcDbArc
 50
289.0460469748608
 51
308.233797137863
  0
LINE
  5
CE
330
45
100
AcDbEntity
  8
0
  6
Continuous
 62
    16
100
AcDbLine
 10
24.74508619722045
 20
11.88319764078727
 30
0.0
 11
26.93883619722035
 21
11.88319764078727
 31
0.0
  0
LINE
  5
CF
330
45
100
AcDbEntity
  8
0
  6
Continuous
 62
    16
100
AcDbLine
 10
24.74508619722045
 20
8.470697640787364
 30
0.0
 11
26.20758619722054
 21
8.470697640787364
 31
0.0
  0
LINE
  5
D0
330
45
100
AcDbEntity
  8
0
  6
Continuous
 62
    16
100
AcDbLine
 10
26.60582654746875
 20
10.0327566472219
 30
0.0
 11
25.12480269384858
 21
11.41504557726779
 31
0.0
  0
LINE
  5
D1
330
45
100
AcDbEntity
  8
0
  6
Continuous
 62
    16
100
AcDbLine
 10
11.16336698075409
 20
10.0327566472219
 30
0.0
 11
9.682343127133919
 21
11.41504557726779
 31
0.0
  0
LINE
  5
D2
330
45
100
AcDbEntity
  8
0
  6
Continuous
 62
    16
100
AcDbLine
 10
11.89947883930543
 20
10.61272298221996
 30
0.0
 11
11.06804199692832
 21
11.38873070177209
 31
0.0
  0
LINE
  5
D3
330
45
100
AcDbEntity
  8
0
  6
Continuous
 62
    16
100
AcDbLine
 10
11.16336698075409
 20
10.0327566472219
 30
0.0
 11
9.975931186200143
 21
9.097202114562094
 31
0.0
  0
LINE
  5
D4
330
45
100
AcDbEntity
  8
0
  6
Continuous
 62
    16
100
AcDbLine
 10
11.39774238196313
 20
9.81400627276065
 30
0.0
 11
10.3252275318462
 21
8.968995423353533
 31
0.0
  0
ARC
  5
D5
330
45
100
AcDbEntity
  8
0
  6
Continuous
 62
    16
100
AcDbCircle
 10
11.15119953369074
 20
11.47782806258959
 30
0.0
 40
0.121875
100
AcDbArc
 50
96.32369450860737
 51
226.974934010882
  0
LINE
  5
D6
330
45
100
AcDbEntity
  8
0
  6
Continuous
 62
    16
100
AcDbLine
 10
9.302626630505785
 20
11.88319764078727
 30
0.0
 11
11.49637663050569
 21
11.88319764078727
 31
0.0
  0
ARC
  5
D7
330
45
100
AcDbEntity
  8
0
  6
Continuous
 62
    16
100
AcDbCircle
 10
10.40065253761375
 20
8.873263588889074
 30
0.0
 40
0.121875
100
AcDbArc
 50
128.2337971378629
 51
264.3948769589975
  0
LINE
  5
D8
330
45
100
AcDbEntity
  8
0
  6
Continuous
 62
    16
100
AcDbLine
 10
10.77703039168117
 20
8.713864916282489
 30
0.0
 11
10.38874877643892
 21
8.751971313393767
 31
0.0
  0
ARC
  5
D9
330
45
100
AcDbEntity
  8
0
  6
Continuous
 62
    16
100
AcDbCircle
 10
10.76512663050588
 20
8.592572640787182
 30
0.0
 40
0.121875
100
AcDbArc
 50
270.0
 51
84.3948769589973
  0
ARC
  5
DA
330
45
100
AcDbEntity
  8
0
  6
Continuous
 62
    16
100
AcDbCircle
 10
8.46743107084447
 20
11.01183880385128
 30
0.0
 40
2.4375
100
AcDbArc
 50
289.0460469748608
 51
308.233797137863
  0
ARC
  5
DB
330
45
100
AcDbEntity
  8
0
  6
Continuous
 62
    16
100
AcDbCircle
 10
9.302626630505785
 20
8.592572640787182
 30
0.0
 40
0.121875
100
AcDbArc
 50
109.0460469748607
 51
270.0
  0
ARC
  5
DC
330
45
100
AcDbEntity
  8
0
  6
Continuous
 62
    16
100
AcDbCircle
 10
9.017082833032674
 20
10.70226669073094
 30
0.0
 40
0.9750000000000001
100
AcDbArc
 50
46.97493401088205
 51
74.91066274878528
  0
ARC
  5
DD
330
45
100
AcDbEntity
  8
0
  6
Continuous
 62
    16
100
AcDbCircle
 10
9.302626630505785
 20
11.761322640787
 30
0.0
 40
0.121875
100
AcDbArc
 50
90.0
 51
254.9106627487849
  0
LINE
  5
DE
330
45
100
AcDbEntity
  8
0
  6
Continuous
 62
    16
100
AcDbLine
 10
9.302626630505785
 20
8.470697640787364
 30
0.0
 11
10.76512663050588
 21
8.470697640787364
 31
0.0
  0
ARC
  5
DF
330
45
100
AcDbEntity
  8
0
  6
Continuous
 62
    16
100
AcDbCircle
 10
7.415168179766425
 20
10.542572640787
 30
0.0
 40
1.70625
100
AcDbArc
 50
270.0
 51
332.181860715346
  0
ARC
  5
E0
330
45
100
AcDbEntity
  8
0
  6
Continuous
 62
    16
100
AcDbCircle
 10
9.032022765064795
 20
9.689447640787364
 30
0.0
 40
0.121875
100
AcDbArc
 50
0.0
 51
152.1818607153462
  0
ARC
  5
E1
330
45
100
AcDbEntity
  8
0
  6
Continuous
 62
    16
100
AcDbCircle
 10
7.935147765064613
 20
9.689447640787364
 30
0.0
 40
1.21875
100
AcDbArc
 50
270.0
 51
0.0
  0
ARC
  5
E2
330
45
100
AcDbEntity
  8
0
  6
Continuous
 62
    16
100
AcDbCircle
 10
6.107022765064613
 20
9.080072640787364
 30
0.0
 40
0.24375
100
AcDbArc
 50
180.0
 51
270.0
  0
ARC
  5
E3
330
45
100
AcDbEntity
  8
0
  6
Continuous
 62
    16
100
AcDbCircle
 10
7.088970078795484
 20
10.23429550323857
 30
0.0
 40
0.7714321343087712
100
AcDbArc
 50
1.983446432504158
 51
90.50527446566518
  0
ARC
  5
E4
330
45
100
AcDbEntity
  8
0
  6
Continuous
 62
    16
100
AcDbCircle
 10
7.981794399208667
 20
10.25875330547382
 30
0.0
 40
0.121875
100
AcDbArc
 50
178.945910736507
 51
0.0
  0
ARC
  5
E5
330
45
100
AcDbEntity
  8
0
  6
Continuous
 62
    16
100
AcDbCircle
 10
7.099259390339995
 20
12.12694764078736
 30
0.0
 40
0.7312500000000002
100
AcDbArc
 50
270.0
 51
348.4630409671844
  0
ARC
  5
E6
330
45
100
AcDbEntity
  8
0
  6
Continuous
 62
    16
100
AcDbCircle
 10
7.935147765064613
 20
11.95632264078716
 30
0.0
 40
0.121875
100
AcDbArc
 50
0.0
 51
168.4630409671844
  0
LINE
  5
E7
330
45
100
AcDbEntity
  8
0
  6
Continuous
 62
    16
100
AcDbLine
 10
8.057022765064886
 20
11.95632264078716
 30
0.0
 11
8.103669399208485
 21
10.25875330547382
 31
0.0
  0
ARC
  5
E8
330
45
100
AcDbEntity
  8
0
  6
Continuous
 62
    16
100
AcDbCircle
 10
5.985147765064795
 20
10.88382264078695
 30
0.0
 40
0.121875
100
AcDbArc
 50
90.00000000000001
 51
180.0
  0
LINE
  5
E9
330
45
100
AcDbEntity
  8
0
  6
Continuous
 62
    16
100
AcDbLine
 10
5.863272765064977
 20
10.88382264078695
 30
0.0
 11
5.863272765064977
 21
9.080072640787364
 31
0.0
  0
ARC
  5
EA
330
45
100
AcDbEntity
  8
0
  6
Continuous
 62
    16
100
AcDbCircle
 10
5.985147765064795
 20
11.51757264078736
 30
0.0
 40
0.121875
100
AcDbArc
 50
180.0
 51
270.0
  0
LINE
  5
EB
330
45
100
AcDbEntity
  8
0
  6
Continuous
 62
    16
100
AcDbLine
 10
5.985147765064795
 20
11.00569764078722
 30
0.0
 11
7.082167136056142
 21
11.00569764078722
 31
0.0
  0
LINE
  5
EC
330
45
100
AcDbEntity
  8
0
  6
Continuous
 62
    16
100
AcDbLine
 10
5.985147765064795
 20
11.39569764078709
 30
0.0
 11
7.099259390339995
 21
11.39569764078709
 31
0.0
  0
ARC
  5
ED
330
45
100
AcDbEntity
  8
0
  6
Continuous
 62
    16
100
AcDbCircle
 10
6.009522765064759
 20
13.2227698058345
 30
0.0
 40
0.14625
100
AcDbArc
 50
100.0375301237075
 51
180.0
  0
ARC
  5
EE
330
45
100
AcDbEntity
  8
0
  6
Continuous
 62
    16
100
AcDbCircle
 10
8.184135999532174
 20
13.13396554780542
 30
0.0
 40
0.24375
100
AcDbArc
 50
11.91554144336952
 51
80.34504162044189
  0
ARC
  5
EF
330
45
100
AcDbEntity
  8
0
  6
Continuous
 62
    16
100
AcDbCircle
 10
7.126077885226351
 20
6.914636051910691
 30
0.0
 40
6.55243816409218
100
AcDbArc
 50
80.34504162044209
 51
100.0375301237077
  0
LINE
  5
F0
330
45
100
AcDbEntity
  8
0
  6
Continuous
 62
    16
100
AcDbLine
 10
8.607369430908676
 20
12.57410501163434
 30
0.0
 11
8.422633922268489
 21
13.18429251225501
 31
0.0
  0
ARC
  5
F1
330
45
100
AcDbEntity
  8
0
  6
Continuous
 62
    16
100
AcDbCircle
 10
8.722373726037205
 20
12.61444764078709
 30
0.0
 40
0.121875
100
AcDbArc
 50
184.5006017563728
 51
0.0
  0
ARC
  5
F2
330
45
100
AcDbEntity
  8
0
  6
Continuous
 62
    16
100
AcDbCircle
 10
8.666397765064886
 20
13.71132264078727
 30
0.0
 40
0.121875
100
AcDbArc
 50
0.0
 51
90.0
  0
LINE
  5
F3
330
45
100
AcDbEntity
  8
0
  6
Continuous
 62
    16
100
AcDbLine
 10
8.788272765064704
 20
13.71132264078727
 30
0.0
 11
8.844248726037478
 21
12.61444764078709
 31
0.0
  0
ARC
  5
F4
330
45
100
AcDbEntity
  8
0
  6
Continuous
 62
    16
100
AcDbCircle
 10
4.157022765064795
 20
13.0441705585244
 30
0.0
 40
0.4875
100
AcDbArc
 50
0.0
 51
81.94974620412304
  0
ARC
  5
F5
330
45
100
AcDbEntity
  8
0
  6
Continuous
 62
    16
100
AcDbCircle
 10
4.157022765064795
 20
9.259724723050056
 30
0.0
 40
0.4875
100
AcDbArc
 50
278.0502537958771
 51
0.0
  0
LINE
  5
F6
330
45
100
AcDbEntity
  8
0
  6
Continuous
 62
    16
100
AcDbLine
 10
4.225293047841461
 20
8.777028733332315
 30
0.0
 11
3.774330194370378
 21
8.71324663821673
 31
0.0
  0
LINE
  5
F7
330
45
100
AcDbEntity
  8
0
  6
Continuous
 62
    16
100
AcDbLine
 10
4.225293047841461
 20
13.52686654824214
 30
0.0
 11
3.774330194370378
 21
13.59064864335772
 31
0.0
  0
ARC
  5
F8
330
45
100
AcDbEntity
  8
0
  6
Continuous
 62
    16
100
AcDbCircle
 10
3.791397765064886
 20
8.592572640787182
 30
0.0
 40
0.121875
100
AcDbArc
 50
98.0502537958774
 51
270.0
  0
ARC
  5
F9
330
45
100
AcDbEntity
  8
0
  6
Continuous
 62
    16
100
AcDbCircle
 10
3.791397765064886
 20
13.71132264078727
 30
0.0
 40
0.121875
100
AcDbArc
 50
90.0
 51
261.9497462041234
  0
LINE
  5
FA
330
45
100
AcDbEntity
  8
0
  6
Continuous
 62
    16
100
AcDbLine
 10
6.107022765064613
 20
8.836322640787273
 30
0.0
 11
7.415168179766425
 21
8.836322640787273
 31
0.0
  0
LINE
  5
FB
330
45
100
AcDbEntity
  8
0
  6
Continuous
 62
    16
100
AcDbLine
 10
5.863272765064977
 20
13.2227698058345
 30
0.0
 11
5.863272765064977
 21
11.51757264078736
 31
0.0
  0
LINE
  5
FC
330
45
100
AcDbEntity
  8
0
  6
Continuous
 62
    16
100
AcDbLine
 10
3.791397765064886
 20
13.83319764078709
 30
0.0
 11
8.666397765064886
 21
13.83319764078709
 31
0.0
  0
LINE
  5
FD
330
45
100
AcDbEntity
  8
0
  6
Continuous
 62
    16
100
AcDbLine
 10
3.791397765064886
 20
8.470697640787364
 30
0.0
 11
7.935147765064613
 21
8.470697640787364
 31
0.0
  0
LINE
  5
FE
330
45
100
AcDbEntity
  8
0
  6
Continuous
 62
    16
100
AcDbLine
 10
4.644522765064977
 20
13.0441705585244
 30
0.0
 11
4.644522765064977
 21
9.259724723050056
 31
0.0
  0
ARC
  5
FF
330
45
100
AcDbEntity
  8
0
  6
Continuous
 62
    16
100
AcDbCircle
 10
21.55461477931547
 20
10.66896896143993
 30
0.0
 40
0.121875
100
AcDbArc
 50
184.9902678055532
 51
270.0
  0
ARC
  5
100
330
45
100
AcDbEntity
  8
0
  6
Continuous
 62
    16
100
AcDbCircle
 10
23.07270073149337
 20
10.66896896143993
 30
0.0
 40
0.121875
100
AcDbArc
 50
270.0
 51
355.0097321944468
  0
ARC
  5
101
330
45
100
AcDbEntity
  8
0
  6
Continuous
 62
    16
100
AcDbCircle
 10
22.31365775540442
 20
10.73524670188311
 30
0.0
 40
0.8838060850910612
100
AcDbArc
 50
355.0097321944468
 51
184.9902678055533
  0
ARC
  5
102
330
45
100
AcDbEntity
  8
0
  6
Continuous
 62
    16
100
AcDbCircle
 10
24.74508619722045
 20
11.761322640787
 30
0.0
 40
0.121875
100
AcDbArc
 50
90.0
 51
254.9106627487849
  0
ARC
  5
103
330
45
100
AcDbEntity
  8
0
  6
Continuous
 62
    16
100
AcDbCircle
 10
24.45954239974733
 20
10.70226669073094
 30
0.0
 40
0.9750000000000001
100
AcDbArc
 50
46.97493401088205
 51
74.91066274878528
  0
ARC
  5
104
330
45
100
AcDbEntity
  8
0
  6
Continuous
 62
    16
100
AcDbCircle
 10
24.74508619722045
 20
8.592572640787182
 30
0.0
 40
0.121875
100
AcDbArc
 50
109.0460469748607
 51
270.0
  0
LINE
  5
105
330
45
100
AcDbEntity
  8
0
  6
Continuous
 62
    16
100
AcDbLine
 10
14.84074997534324
 20
8.470697640787364
 30
0.0
 11
17.02494125319006
 21
8.470697640787364
 31
0.0
  0
LINE
  5
106
330
45
100
AcDbEntity
  8
0
  6
Continuous
 62
    16
100
AcDbLine
 10
22.59763057695753
 20
8.470697640787364
 30
0.0
 11
22.41115775540428
 21
8.47243786311077
 31
0.0
  0
ARC
  5
107
330
45
100
AcDbEntity
  8
0
  6
Continuous
 62
    16
100
AcDbCircle
 10
24.22861154039109
 20
10.34757264078729
 30
0.0
 40
0.121875
100
AcDbArc
 50
270.000000000013
 51
7.150315949103082
  0
ARC
  5
108
330
45
100
AcDbEntity
  8
0
  6
Continuous
 62
    16
100
AcDbCircle
 10
21.55335381605872
 20
10.1038226407872
 30
0.0
 40
0.121875
100
AcDbArc
 50
90.0
 51
181.8543561911767
  0
ARC
  5
109
330
45
100
AcDbEntity
  8
0
  6
Continuous
 62
    16
100
AcDbCircle
 10
22.54222743913104
 20
12.94679563860558
 30
0.0
 40
3.923361595779913
100
AcDbArc
 50
270.017156252833
 51
294.6841464046809
  0
ARC
  5
10A
330
45
100
AcDbEntity
  8
0
  6
Continuous
 62
    16
100
AcDbCircle
 10
22.54340222343561
 20
10.13587637484665
 30
0.0
 40
1.112442156136357
100
AcDbArc
 50
181.8543561911769
 51
270.4458215539496
  0
ARC
  5
10B
330
45
100
AcDbEntity
  8
0
  6
Continuous
 62
    16
100
AcDbCircle
 10
22.59763057695753
 20
10.90819764078736
 30
0.0
 40
2.4375
100
AcDbArc
 50
270.0
 51
315.1491919008036
  0
ARC
  5
10C
330
45
100
AcDbEntity
  8
0
  6
Continuous
 62
    16
100
AcDbCircle
 10
24.23928275540428
 20
9.275072640787073
 30
0.0
 40
0.121875
100
AcDbArc
 50
315.1491919008037
 51
118.7379385920353
  0
LINE
  5
10D
330
45
100
AcDbEntity
  8
0
  6
Continuous
 62
    16
100
AcDbLine
 10
21.55461477931547
 20
10.54709396143966
 30
0.0
 11
23.07270073149337
 21
10.54709396143966
 31
0.0
  0
LINE
  5
10E
330
45
100
AcDbEntity
  8
0
  6
Continuous
 62
    16
100
AcDbLine
 10
21.55335381605872
 20
10.22569764078702
 30
0.0
 11
24.22861154039109
 21
10.22569764078702
 31
0.0
  0
LINE
  5
10F
330
45
100
AcDbEntity
  8
0
  6
Continuous
 62
    16
100
AcDbLine
 10
24.34953871986116
 20
10.36274277230763
 30
0.0
 11
24.33575801512305
 21
10.45116375668425
 31
0.0
  0
LINE
  5
110
330
45
100
AcDbEntity
  8
0
  6
Continuous
 62
    16
100
AcDbLine
 10
24.33575801512305
 20
10.45116375668425
 30
0.0
 11
24.31670211485041
 21
10.53883313374757
 31
0.0
  0
LINE
  5
111
330
45
100
AcDbEntity
  8
0
  6
Continuous
 62
    16
100
AcDbLine
 10
24.31670211485041
 20
10.53883313374757
 30
0.0
 11
24.29242324994155
 21
10.6255106078292
 31
0.0
  0
LINE
  5
112
330
45
100
AcDbEntity
  8
0
  6
Continuous
 62
    16
100
AcDbLine
 10
24.29242324994155
 20
10.6255106078292
 30
0.0
 11
24.26298796707695
 21
10.71095860199733
 31
0.0
  0
LINE
  5
113
330
45
100
AcDbEntity
  8
0
  6
Continuous
 62
    16
100
AcDbLine
 10
24.26298796707695
 20
10.71095860199733
 30
0.0
 11
24.22847694632108
 21
10.79494290923952
 31
0.0
  0
LINE
  5
114
330
45
100
AcDbEntity
  8
0
  6
Continuous
 62
    16
100
AcDbLine
 10
24.22847694632108
 20
10.79494290923952
 30
0.0
 11
24.18898477998371
 21
10.87723333440675
 31
0.0
  0
LINE
  5
115
330
45
100
AcDbEntity
  8
0
  6
Continuous
 62
    16
100
AcDbLine
 10
24.18898477998371
 20
10.87723333440675
 30
0.0
 11
24.14461971334711
 21
10.95760432516448
 31
0.0
  0
LINE
  5
116
330
45
100
AcDbEntity
  8
0
  6
Continuous
 62
    16
100
AcDbLine
 10
24.14461971334711
 20
10.95760432516448
 30
0.0
 11
24.09550334797521
 21
11.03583559021303
 31
0.0
  0
LINE
  5
117
330
45
100
AcDbEntity
  8
0
  6
Continuous
 62
    16
100
AcDbLine
 10
24.09550334797521
 20
11.03583559021303
 30
0.0
 11
24.04177030841154
 21
11.11171270309291
 31
0.0
  0
LINE
  5
118
330
45
100
AcDbEntity
  8
0
  6
Continuous
 62
    16
100
AcDbLine
 10
24.04177030841154
 20
11.11171270309291
 30
0.0
 11
23.98356787318224
 21
11.18502768991169
 31
0.0
  0
LINE
  5
119
330
45
100
AcDbEntity
  8
0
  6
Continuous
 62
    16
100
AcDbLine
 10
23.98356787318224
 20
11.18502768991169
 30
0.0
 11
23.92105557111725
 21
11.25557959938618
 31
0.0
  0
LINE
  5
11A
330
45
100
AcDbEntity
  8
0
  6
Continuous
 62
    16
100
AcDbLine
 10
23.92105557111725
 20
11.25557959938618
 30
0.0
 11
23.85440474409123
 21
11.32317505363739
 31
0.0
  0
LINE
  5
11B
330
45
100
AcDbEntity
  8
0
  6
Continuous
 62
    16
100
AcDbLine
 10
23.85440474409123
 20
11.32317505363739
 30
0.0
 11
23.78379807738773
 21
11.38762877822313
 31
0.0
  0
LINE
  5
11C
330
45
100
AcDbEntity
  8
0
  6
Continuous
 62
    16
100
AcDbLine
 10
23.78379807738773
 20
11.38762877822313
 30
0.0
 11
23.70942909897283
 21
11.44876410996443
 31
0.0
  0
LINE
  5
11D
330
45
100
AcDbEntity
  8
0
  6
Continuous
 62
    16
100
AcDbLine
 10
23.70942909897283
 20
11.44876410996443
 30
0.0
 11
23.63150164904735
 21
11.50641348116682
 31
0.0
  0
LINE
  5
11E
330
45
100
AcDbEntity
  8
0
  6
Continuous
 62
    16
100
AcDbLine
 10
23.63150164904735
 20
11.50641348116682
 30
0.0
 11
23.55022932133423
 21
11.56041887891064
 31
0.0
  0
LINE
  5
11F
330
45
100
AcDbEntity
  8
0
  6
Continuous
 62
    16
100
AcDbLine
 10
23.55022932133423
 20
11.56041887891064
 30
0.0
 11
23.46583487763453
 21
11.6106322781547
 31
0.0
  0
LINE
  5
120
330
45
100
AcDbEntity
  8
0
  6
Continuous
 62
    16
100
AcDbLine
 10
23.46583487763453
 20
11.6106322781547
 30
0.0
 11
23.37854963725275
 21
11.65691604746183
 31
0.0
  0
LINE
  5
121
330
45
100
AcDbEntity
  8
0
  6
Continuous
 62
    16
100
AcDbLine
 10
23.37854963725275
 20
11.65691604746183
 30
0.0
 11
23.28861284296525
 21
11.69914332623779
 31
0.0
  0
LINE
  5
122
330
45
100
AcDbEntity
  8
0
  6
Continuous
 62
    16
100
AcDbLine
 10
23.28861284296525
 20
11.69914332623779
 30
0.0
 11
23.19627100527421
 21
11.73719837244647
 31
0.0
  0
LINE
  5
123
330
45
100
AcDbEntity
  8
0
  6
Continuous
 62
    16
100
AcDbLine
 10
23.19627100527421
 20
11.73719837244647
 30
0.0
 11
23.1017772267376
 21
11.77097687985128
 31
0.0
  0
LINE
  5
124
330
45
100
AcDbEntity
  8
0
  6
Continuous
 62
    16
100
AcDbLine
 10
23.1017772267376
 20
11.77097687985128
 30
0.0
 11
23.00539050823434
 21
11.80038626391155
 31
0.0
  0
LINE
  5
125
330
45
100
AcDbEntity
  8
0
  6
Continuous
 62
    16
100
AcDbLine
 10
23.00539050823434
 20
11.80038626391155
 30
0.0
 11
22.90737503906055
 21
11.82534591554935
 31
0.0
  0
LINE
  5
126
330
45
100
AcDbEntity
  8
0
  6
Continuous
 62
    16
100
AcDbLine
 10
22.90737503906055
 20
11.82534591554935
 30
0.0
 11
22.80799947280346
 21
11.84578742209482
 31
0.0
  0
LINE
  5
127
330
45
100
AcDbEntity
  8
0
  6
Continuous
 62
    16
100
AcDbLine
 10
22.80799947280346
 20
11.84578742209482
 30
0.0
 11
22.70753619098312
 21
11.86165475479987
 31
0.0
  0
LINE
  5
128
330
45
100
AcDbEntity
  8
0
  6
Continuous
 62
    16
100
AcDbLine
 10
22.70753619098312
 20
11.86165475479987
 30
0.0
 11
22.60626055647234
 21
11.87290442240732
 31
0.0
  0
LINE
  5
129
330
45
100
AcDbEntity
  8
0
  6
Continuous
 62
    16
100
AcDbLine
 10
22.60626055647234
 20
11.87290442240732
 30
0.0
 11
22.50445015874473
 21
11.87950559036148
 31
0.0
  0
LINE
  5
12A
330
45
100
AcDbEntity
  8
0
  6
Continuous
 62
    16
100
AcDbLine
 10
22.50445015874473
 20
11.87950559036148
 30
0.0
 11
22.40238405302469
 21
11.88144016531891
 31
0.0
  0
LINE
  5
12B
330
45
100
AcDbEntity
  8
0
  6
Continuous
 62
    16
100
AcDbLine
 10
22.40238405302469
 20
11.88144016531891
 30
0.0
 11
22.30034199541277
 21
11.87870284474405
 31
0.0
  0
LINE
  5
12C
330
45
100
AcDbEntity
  8
0
  6
Continuous
 62
    16
100
AcDbLine
 10
22.30034199541277
 20
11.87870284474405
 30
0.0
 11
22.19860367609616
 21
11.87130113144298
 31
0.0
  0
LINE
  5
12D
330
45
100
AcDbEntity
  8
0
  6
Continuous
 62
    16
100
AcDbLine
 10
22.19860367609616
 20
11.87130113144298
 30
0.0
 11
22.09744795273699
 21
11.85925531299739
 31
0.0
  0
LINE
  5
12E
330
45
100
AcDbEntity
  8
0
  6
Continuous
 62
    16
100
AcDbLine
 10
22.09744795273699
 20
11.85925531299739
 30
0.0
 11
21.99715208614069
 21
11.84259840615772
 31
0.0
  0
LINE
  5
12F
330
45
100
AcDbEntity
  8
0
  6
Continuous
 62
    16
100
AcDbLine
 10
21.99715208614069
 20
11.84259840615772
 30
0.0
 11
21.89799098030679
 21
11.82137606634836
 31
0.0
  0
LINE
  5
130
330
45
100
AcDbEntity
  8
0
  6
Continuous
 62
    16
100
AcDbLine
 10
21.89799098030679
 20
11.82137606634836
 30
0.0
 11
21.80023642893391
 21
11.79564646252715
 31
0.0
  0
LINE
  5
131
330
45
100
AcDbEntity
  8
0
  6
Continuous
 62
    16
100
AcDbLine
 10
21.80023642893391
 20
11.79564646252715
 30
0.0
 11
21.70415637045178
 21
11.76548011774997
 31
0.0
  0
LINE
  5
132
330
45
100
AcDbEntity
  8
0
  6
Continuous
 62
    16
100
AcDbLine
 10
21.70415637045178
 20
11.76548011774997
 30
0.0
 11
21.61001415362333
 21
11.73095971587094
 31
0.0
  0
LINE
  5
133
330
45
100
AcDbEntity
  8
0
  6
Continuous
 62
    16
100
AcDbLine
 10
21.61001415362333
 20
11.73095971587094
 30
0.0
 11
21.51806781572012
 21
11.69217987491214
 31
0.0
  0
LINE
  5
134
330
45
100
AcDbEntity
  8
0
  6
Continuous
 62
    16
100
AcDbLine
 10
21.51806781572012
 20
11.69217987491214
 30
0.0
 11
21.42856937526383
 21
11.6492468877222
 31
0.0
  0
LINE
  5
135
330
45
100
AcDbEntity
  8
0
  6
Continuous
 62
    16
100
AcDbLine
 10
21.42856937526383
 20
11.6492468877222
 30
0.0
 11
21.34176414125866
 21
11.60227843063461
 31
0.0
  0
LINE
  5
136
330
45
100
AcDbEntity
  8
0
  6
Continuous
 62
    16
100
AcDbLine
 10
21.34176414125866
 20
11.60227843063461
 30
0.0
 11
21.25789004081687
 21
11.55140324092594
 31
0.0
  0
LINE
  5
137
330
45
100
AcDbEntity
  8
0
  6
Continuous
 62
    16
100
AcDbLine
 10
21.25789004081687
 20
11.55140324092594
 30
0.0
 11
21.17717696701837
 21
11.49676076395411
 31
0.0
  0
LINE
  5
138
330
45
100
AcDbEntity
  8
0
  6
Continuous
 62
    16
100
AcDbLine
 10
21.17717696701837
 20
11.49676076395411
 30
0.0
 11
21.0998461487882
 21
11.43850077095107
 31
0.0
  0
LINE
  5
139
330
45
100
AcDbEntity
  8
0
  6
Continuous
 62
    16
100
AcDbLine
 10
21.0998461487882
 20
11.43850077095107
 30
0.0
 11
21.02610954452328
 21
11.37678294850724
 31
0.0
  0
LINE
  5
13A
330
45
100
AcDbEntity
  8
0
  6
Continuous
 62
    16
100
AcDbLine
 10
21.02610954452328
 20
11.37678294850724
 30
0.0
 11
20.95616926113078
 21
11.31177646088503
 31
0.0
  0
LINE
  5
13B
330
45
100
AcDbEntity
  8
0
  6
Continuous
 62
    16
100
AcDbLine
 10
20.95616926113078
 20
11.31177646088503
 30
0.0
 11
20.89021700006631
 21
11.24365948634744
 31
0.0
  0
LINE
  5
13C
330
45
100
AcDbEntity
  8
0
  6
Continuous
 62
    16
100
AcDbLine
 10
20.89021700006631
 20
11.24365948634744
 30
0.0
 11
20.8284335318929
 21
11.17261872878765
 31
0.0
  0
LINE
  5
13D
330
45
100
AcDbEntity
  8
0
  6
Continuous
 62
    16
100
AcDbLine
 10
20.8284335318929
 20
11.17261872878765
 30
0.0
 11
20.7709882008019
 21
11.09884890598408
 31
0.0
  0
LINE
  5
13E
330
45
100
AcDbEntity
  8
0
  6
Continuous
 62
    16
100
AcDbLine
 10
20.7709882008019
 20
11.09884890598408
 30
0.0
 11
20.71803846045376
 21
11.02255221589297
 31
0.0
  0
LINE
  5
13F
330
45
100
AcDbEntity
  8
0
  6
Continuous
 62
    16
100
AcDbLine
 10
20.71803846045376
 20
11.02255221589297
 30
0.0
 11
20.6697294424055
 21
10.9439377824387
 31
0.0
  0
LINE
  5
140
330
45
100
AcDbEntity
  8
0
  6
Continuous
 62
    16
100
AcDbLine
 10
20.6697294424055
 20
10.9439377824387
 30
0.0
 11
20.62619355831819
 21
10.86322108231883
 31
0.0
  0
LINE
  5
141
330
45
100
AcDbEntity
  8
0
  6
Continuous
 62
    16
100
AcDbLine
 10
20.62619355831819
 20
10.86322108231883
 30
0.0
 11
20.58755013702356
 21
10.7806233543983
 31
0.0
  0
LINE
  5
142
330
45
100
AcDbEntity
  8
0
  6
Continuous
 62
    16
100
AcDbLine
 10
20.58755013702356
 20
10.7806233543983
 30
0.0
 11
20.55390509745374
 21
10.69637099330743
 31
0.0
  0
LINE
  5
143
330
45
100
AcDbEntity
  8
0
  6
Continuous
 62
    16
100
AcDbLine
 10
20.55390509745374
 20
10.69637099330743
 30
0.0
 11
20.52535065832333
 21
10.61069492891232
 31
0.0
  0
LINE
  5
144
330
45
100
AcDbEntity
  8
0
  6
Continuous
 62
    16
100
AcDbLine
 10
20.52535065832333
 20
10.61069492891232
 30
0.0
 11
20.5019650853649
 21
10.52382999334981
 31
0.0
  0
LINE
  5
145
330
45
100
AcDbEntity
  8
0
  6
Continuous
 62
    16
100
AcDbLine
 10
20.5019650853649
 20
10.52382999334981
 30
0.0
 11
20.48381247680871
 21
10.43601427737025
 31
0.0
  0
LINE
  5
146
330
45
100
AcDbEntity
  8
0
  6
Continuous
 62
    16
100
AcDbLine
 10
20.48381247680871
 20
10.43601427737025
 30
0.0
 11
20.47094258769337
 21
10.34748847774739
 31
0.0
  0
LINE
  5
147
330
45
100
AcDbEntity
  8
0
  6
Continuous
 62
    16
100
AcDbLine
 10
20.47094258769337
 20
10.34748847774739
 30
0.0
 11
20.46339069348986
 21
10.25849523754499
 31
0.0
  0
LINE
  5
148
330
45
100
AcDbEntity
  8
0
  6
Continuous
 62
    16
100
AcDbLine
 10
20.46339069348986
 20
10.25849523754499
 30
0.0
 11
20.46117749341536
 21
10.16927848104746
 31
0.0
  0
LINE
  5
149
330
45
100
AcDbEntity
  8
0
  6
Continuous
 62
    16
100
AcDbLine
 10
20.46117749341536
 20
10.16927848104746
 30
0.0
 11
20.46430905369724
 21
10.08008274518437
 31
0.0
  0
LINE
  5
14A
330
45
100
AcDbEntity
  8
0
  6
Continuous
 62
    16
100
AcDbLine
 10
20.46430905369724
 20
10.08008274518437
 30
0.0
 11
20.47277679094694
 21
9.991152509266556
 31
0.0
  0
LINE
  5
14B
330
45
100
AcDbEntity
  8
0
  6
Continuous
 62
    16
100
AcDbLine
 10
20.47277679094694
 20
9.991152509266556
 30
0.0
 11
20.48655749568505
 21
9.90273152488993
 31
0.0
  0
LINE
  5
14C
330
45
100
AcDbEntity
  8
0
  6
Continuous
 62
    16
100
AcDbLine
 10
20.48655749568505
 20
9.90273152488993
 30
0.0
 11
20.50561339595768
 21
9.815062147826609
 31
0.0
  0
LINE
  5
14D
330
45
100
AcDbEntity
  8
0
  6
Continuous
 62
    16
100
AcDbLine
 10
20.50561339595768
 20
9.815062147826609
 30
0.0
 11
20.529892260867
 21
9.728384673744984
 31
0.0
  0
LINE
  5
14E
330
45
100
AcDbEntity
  8
0
  6
Continuous
 62
    16
100
AcDbLine
 10
20.529892260867
 20
9.728384673744984
 30
0.0
 11
20.5593275437316
 21
9.642936679576849
 31
0.0
  0
LINE
  5
14F
330
45
100
AcDbEntity
  8
0
  6
Continuous
 62
    16
100
AcDbLine
 10
20.5593275437316
 20
9.642936679576849
 30
0.0
 11
20.59383856448702
 21
9.558952372335114
 31
0.0
  0
LINE
  5
150
330
45
100
AcDbEntity
  8
0
  6
Continuous
 62
    16
100
AcDbLine
 10
20.59383856448702
 20
9.558952372335114
 30
0.0
 11
20.63333073082438
 21
9.476661947167429
 31
0.0
  0
LINE
  5
151
330
45
100
AcDbEntity
  8
0
  6
Continuous
 62
    16
100
AcDbLine
 10
20.63333073082438
 20
9.476661947167429
 30
0.0
 11
20.67769579746144
 21
9.3962909564097
 31
0.0
  0
LINE
  5
152
330
45
100
AcDbEntity
  8
0
  6
Continuous
 62
    16
100
AcDbLine
 10
20.67769579746144
 20
9.3962909564097
 30
0.0
 11
20.72681216283334
 21
9.318059691361157
 31
0.0
  0
LINE
  5
153
330
45
100
AcDbEntity
  8
0
  6
Continuous
 62
    16
100
AcDbLine
 10
20.72681216283334
 20
9.318059691361157
 30
0.0
 11
20.78054520239701
 21
9.242182578481732
 31
0.0
  0
LINE
  5
154
330
45
100
AcDbEntity
  8
0
  6
Continuous
 62
    16
100
AcDbLine
 10
20.78054520239701
 20
9.242182578481732
 30
0.0
 11
20.83874763762586
 21
9.168867591662945
 31
0.0
  0
LINE
  5
155
330
45
100
AcDbEntity
  8
0
  6
Continuous
 62
    16
100
AcDbLine
 10
20.83874763762586
 20
9.168867591662945
 30
0.0
 11
20.90125993969085
 21
9.098315682188002
 31
0.0
  0
LINE
  5
156
330
45
100
AcDbEntity
  8
0
  6
Continuous
 62
    16
100
AcDbLine
 10
20.90125993969085
 20
9.098315682188002
 30
0.0
 11
20.96791076671732
 21
9.030720227937252
 31
0.0
  0
LINE
  5
157
330
45
100
AcDbEntity
  8
0
  6
Continuous
 62
    16
100
AcDbLine
 10
20.96791076671732
 20
9.030720227937252
 30
0.0
 11
21.03851743342037
 21
8.966266503351505
 31
0.0
  0
LINE
  5
158
330
45
100
AcDbEntity
  8
0
  6
Continuous
 62
    16
100
AcDbLine
 10
21.03851743342037
 20
8.966266503351505
 30
0.0
 11
21.11288641183526
 21
8.905131171609753
 31
0.0
  0
LINE
  5
159
330
45
100
AcDbEntity
  8
0
  6
Continuous
 62
    16
100
AcDbLine
 10
21.11288641183526
 20
8.905131171609753
 30
0.0
 11
21.1908138617612
 21
8.84748180040782
 31
0.0
  0
LINE
  5
15A
330
45
100
AcDbEntity
  8
0
  6
Continuous
 62
    16
100
AcDbLine
 10
21.1908138617612
 20
8.84748180040782
 30
0.0
 11
21.27208618947432
 21
8.793476402663543
 31
0.0
  0
LINE
  5
15B
330
45
100
AcDbEntity
  8
0
  6
Continuous
 62
    16
100
AcDbLine
 10
21.27208618947432
 20
8.793476402663543
 30
0.0
 11
21.35648063317356
 21
8.743263003419486
 31
0.0
  0
LINE
  5
15C
330
45
100
AcDbEntity
  8
0
  6
Continuous
 62
    16
100
AcDbLine
 10
21.35648063317356
 20
8.743263003419486
 30
0.0
 11
21.44376587355535
 21
8.696979234112348
 31
0.0
  0
LINE
  5
15D
330
45
100
AcDbEntity
  8
0
  6
Continuous
 62
    16
100
AcDbLine
 10
21.44376587355535
 20
8.696979234112348
 30
0.0
 11
21.53370266784285
 21
8.654751955336394
 31
0.0
  0
LINE
  5
15E
330
45
100
AcDbEntity
  8
0
  6
Continuous
 62
    16
100
AcDbLine
 10
21.53370266784285
 20
8.654751955336394
 30
0.0
 11
21.62604450553434
 21
8.616696909128166
 31
0.0
  0
LINE
  5
15F
330
45
100
AcDbEntity
  8
0
  6
Continuous
 62
    16
100
AcDbLine
 10
21.62604450553434
 20
8.616696909128166
 30
0.0
 11
21.7205382840705
 21
8.582918401723362
 31
0.0
  0
LINE
  5
160
330
45
100
AcDbEntity
  8
0
  6
Continuous
 62
    16
100
AcDbLine
 10
21.7205382840705
 20
8.582918401723362
 30
0.0
 11
21.81692500257375
 21
8.553509017663089
 31
0.0
  0
LINE
  5
161
330
45
100
AcDbEntity
  8
0
  6
Continuous
 62
    16
100
AcDbLine
 10
21.81692500257375
 20
8.553509017663089
 30
0.0
 11
21.914940471748
 21
8.528549366024833
 31
0.0
  0
LINE
  5
162
330
45
100
AcDbEntity
  8
0
  6
Continuous
 62
    16
100
AcDbLine
 10
21.914940471748
 20
8.528549366024833
 30
0.0
 11
22.01431603800464
 21
8.508107859479367
 31
0.0
  0
LINE
  5
163
330
45
100
AcDbEntity
  8
0
  6
Continuous
 62
    16
100
AcDbLine
 10
22.01431603800464
 20
8.508107859479367
 30
0.0
 11
22.11477931982498
 21
8.492240526774765
 31
0.0
  0
LINE
  5
164
330
45
100
AcDbEntity
  8
0
  6
Continuous
 62
    16
100
AcDbLine
 10
22.11477931982498
 20
8.492240526774765
 30
0.0
 11
22.21605495433622
 21
8.480990859166866
 31
0.0
  0
LINE
  5
165
330
45
100
AcDbEntity
  8
0
  6
Continuous
 62
    16
100
AcDbLine
 10
22.21605495433622
 20
8.480990859166866
 30
0.0
 11
22.31786535206336
 21
8.474389691213162
 31
0.0
  0
LINE
  5
166
330
45
100
AcDbEntity
  8
0
  6
Continuous
 62
    16
100
AcDbLine
 10
22.31786535206336
 20
8.474389691213162
 30
0.0
 11
22.41115775540428
 21
8.47243786311077
 31
0.0
  0
ARC
  5
167
330
45
100
AcDbEntity
  8
0
  6
Continuous
 62
    16
100
AcDbCircle
 10
18.70007487521823
 20
11.39630511368426
 30
0.0
 40
2.925000000000001
100
AcDbArc
 50
262.9150790809728
 51
301.013264262784
  0
ARC
  5
168
330
45
100
AcDbEntity
  8
0
  6
Continuous
 62
    16
100
AcDbCircle
 10
19.41357091801663
 20
13.8421587900911
 30
0.0
 40
4.875
100
AcDbArc
 50
266.343705491231
 51
278.787123097336
  0
ARC
  5
169
330
45
100
AcDbEntity
  8
0
  6
Continuous
 62
    16
100
AcDbCircle
 10
19.12133996772243
 20
9.268986223732952
 30
0.0
 40
0.2925
100
AcDbArc
 50
180.0000000000001
 51
266.3437054912312
  0
ARC
  5
16A
330
45
100
AcDbEntity
  8
0
  6
Continuous
 62
    16
100
AcDbCircle
 10
18.41446496772258
 20
9.098361223732752
 30
0.0
 40
0.609375
100
AcDbArc
 50
180.0
 51
262.9150790809728
  0
ARC
  5
16B
330
45
100
AcDbEntity
  8
0
  6
Continuous
 62
    16
100
AcDbCircle
 10
20.16946496772269
 20
8.95211122373297
 30
0.0
 40
0.073125
100
AcDbArc
 50
293.3272787520449
 51
98.78712309733687
  0
LINE
  5
16C
330
45
100
AcDbEntity
  8
0
  6
Continuous
 62
    16
100
AcDbLine
 10
19.96672599704951
 20
12.1002582070841
 30
0.0
 11
19.78829593899152
 21
11.88319764078727
 31
0.0
  0
LINE
  5
16D
330
45
100
AcDbEntity
  8
0
  6
Continuous
 62
    16
100
AcDbLine
 10
19.82821496772274
 20
11.39569764078709
 30
0.0
 11
20.09071496772211
 21
12.0256976407872
 31
0.0
  0
ARC
  5
16E
330
45
100
AcDbEntity
  8
0
  6
Continuous
 62
    16
100
AcDbCircle
 10
20.02321496772245
 20
12.05382264078702
 30
0.0
 40
0.073125
100
AcDbArc
 50
337.3801350519598
 51
140.5788072314997
  0
LINE
  5
16F
330
45
100
AcDbEntity
  8
0
  6
Continuous
 62
    16
100
AcDbLine
 10
18.82883996772242
 20
11.88319764078727
 30
0.0
 11
18.82883996772242
 21
12.73632264078736
 31
0.0
  0
LINE
  5
170
330
45
100
AcDbEntity
  8
0
  6
Continuous
 62
    16
100
AcDbLine
 10
18.82883996772242
 20
11.39569764078709
 30
0.0
 11
19.82821496772274
 21
11.39569764078709
 31
0.0
  0
ARC
  5
171
330
45
100
AcDbEntity
  8
0
  6
Continuous
 62
    16
100
AcDbCircle
 10
11.36954890479572
 20
19.34058198874794
 30
0.0
 40
9.75
100
AcDbArc
 50
307.5845394141336
 51
318.0102642623348
  0
ARC
  5
172
330
45
100
AcDbEntity
  8
0
  6
Continuous
 62
    16
100
AcDbCircle
 10
18.7069649677226
 20
12.73632264078736
 30
0.0
 40
0.121875
100
AcDbArc
 50
0.0
 51
138.0102642623347
  0
ARC
  5
173
330
45
100
AcDbEntity
  8
0
  6
Continuous
 62
    16
100
AcDbCircle
 10
17.39071496772274
 20
11.51757264078736
 30
0.0
 40
0.121875
100
AcDbArc
 50
127.5845394141342
 51
270.0
  0
LINE
  5
174
330
45
100
AcDbEntity
  8
0
  6
Continuous
 62
    16
100
AcDbLine
 10
17.39071496772274
 20
11.39569764078709
 30
0.0
 11
17.80508996772258
 21
11.39569764078709
 31
0.0
  0
LINE
  5
175
330
45
100
AcDbEntity
  8
0
  6
Continuous
 62
    16
100
AcDbLine
 10
18.82883996772242
 20
9.268986223732952
 30
0.0
 11
18.82883996772242
 21
11.39569764078709
 31
0.0
  0
LINE
  5
176
330
45
100
AcDbEntity
  8
0
  6
Continuous
 62
    16
100
AcDbLine
 10
17.80508996772258
 20
9.098361223732752
 30
0.0
 11
17.80508996772258
 21
11.39569764078709
 31
0.0
  0
LINE
  5
177
330
45
100
AcDbEntity
  8
0
  6
Continuous
 62
    16
100
AcDbLine
 10
18.82883996772242
 20
11.88319764078727
 30
0.0
 11
19.78829593899152
 21
11.88319764078727
 31
0.0
  0
ARC
  5
178
330
45
100
AcDbEntity
  8
0
  6
Continuous
 62
    16
100
AcDbCircle
 10
14.86129645783765
 20
14.2617456274524
 30
0.0
 40
1.962906515032175
100
AcDbArc
 50
304.4189155261381
 51
325.764303502095
  0
ARC
  5
179
330
45
100
AcDbEntity
  8
0
  6
Continuous
 62
    16
100
AcDbCircle
 10
14.86129645783765
 20
12.17923342580883
 30
0.0
 40
1.962906515032175
100
AcDbArc
 50
34.23569649790501
 51
55.58108447386191
  0
ARC
  5
17A
330
45
100
AcDbEntity
  8
0
  6
Continuous
 62
    16
100
AcDbCircle
 10
16.94021759495925
 20
12.17923342580883
 30
0.0
 40
1.962906515032175
100
AcDbArc
 50
124.4189155261381
 51
145.764303502095
  0
ARC
  5
17B
330
45
100
AcDbEntity
  8
0
  6
Continuous
 62
    16
100
AcDbCircle
 10
16.94021759495925
 20
14.2617456274524
 30
0.0
 40
1.962906515032175
100
AcDbArc
 50
214.235696497905
 51
235.5810844738619
  0
ARC
  5
17C
330
45
100
AcDbEntity
  8
0
  6
Continuous
 62
    16
100
AcDbCircle
 10
15.90075702639822
 20
12.7268957766309
 30
0.0
 40
0.1096875
100
AcDbArc
 50
230.309072059704
 51
309.690927940296
  0
ARC
  5
17D
330
45
100
AcDbEntity
  8
0
  6
Continuous
 62
    16
100
AcDbCircle
 10
15.40716327639828
 20
13.22048952663084
 30
0.0
 40
0.1096875
100
AcDbArc
 50
144.8991158941796
 51
215.1008841058204
  0
ARC
  5
17E
330
45
100
AcDbEntity
  8
0
  6
Continuous
 62
    16
100
AcDbCircle
 10
15.90075702639822
 20
13.71408327663079
 30
0.0
 40
0.1096875
100
AcDbArc
 50
50.30907205969739
 51
129.6909279403026
  0
ARC
  5
17F
330
45
100
AcDbEntity
  8
0
  6
Continuous
 62
    16
100
AcDbCircle
 10
16.39435077639862
 20
13.22048952663084
 30
0.0
 40
0.1096875
100
AcDbArc
 50
324.8991158943591
 51
35.10088410564087
  0
ARC
  5
180
330
45
100
AcDbEntity
  8
0
  6
Continuous
 62
    16
100
AcDbCircle
 10
16.54699997534297
 20
8.894246613852772
 30
0.0
 40
0.121875
100
AcDbArc
 50
180.0
 51
263.2885414092329
  0
LINE
  5
181
330
45
100
AcDbEntity
  8
0
  6
Continuous
 62
    16
100
AcDbLine
 10
17.03918470633042
 20
8.713612467570272
 30
0.0
 11
16.53275652220262
 21
8.773206787069682
 31
0.0
  0
ARC
  5
182
330
45
100
AcDbEntity
  8
0
  6
Continuous
 62
    16
100
AcDbCircle
 10
17.02494125319006
 20
8.592572640787182
 30
0.0
 40
0.121875
100
AcDbArc
 50
270.0
 51
83.28854140923303
  0
ARC
  5
183
330
45
100
AcDbEntity
  8
0
  6
Continuous
 62
    16
100
AcDbCircle
 10
15.27949997534304
 20
8.88963475059785
 30
0.0
 40
0.121875
100
AcDbArc
 50
276.7114585907671
 51
0.0
  0
LINE
  5
184
330
45
100
AcDbEntity
  8
0
  6
Continuous
 62
    16
100
AcDbLine
 10
14.82650652220289
 20
8.713612467570272
 30
0.0
 11
15.29374342848294
 21
8.76859492381476
 31
0.0
  0
ARC
  5
185
330
45
100
AcDbEntity
  8
0
  6
Continuous
 62
    16
100
AcDbCircle
 10
14.84074997534324
 20
8.592572640787182
 30
0.0
 40
0.121875
100
AcDbArc
 50
96.71145859076694
 51
270.0
  0
LINE
  5
186
330
45
100
AcDbEntity
  8
0
  6
Continuous
 62
    16
100
AcDbLine
 10
15.27949997534304
 20
11.22308890377184
 30
0.0
 11
14.83350100315354
 21
11.24966341167914
 31
0.0
  0
ARC
  5
187
330
45
100
AcDbEntity
  8
0
  6
Continuous
 62
    16
100
AcDbCircle
 10
15.27949997534304
 20
11.10121390377157
 30
0.0
 40
0.121875
100
AcDbArc
 50
0.0
 51
90.0
  0
ARC
  5
188
330
45
100
AcDbEntity
  8
0
  6
Continuous
 62
    16
100
AcDbCircle
 10
13.03587211421134
 20
21.076802120031
 30
0.0
 40
9.75
100
AcDbArc
 50
280.5346603333461
 51
289.3281740229292
  0
ARC
  5
189
330
45
100
AcDbEntity
  8
0
  6
Continuous
 62
    16
100
AcDbCircle
 10
16.30324997534288
 20
11.761322640787
 30
0.0
 40
0.121875
100
AcDbArc
 50
0.0
 51
109.3281740229283
  0
ARC
  5
18A
330
45
100
AcDbEntity
  8
0
  6
Continuous
 62
    16
100
AcDbCircle
 10
14.84074997534324
 20
11.37132264078713
 30
0.0
 40
0.121875
100
AcDbArc
 50
100.534660333345
 51
266.5901063125458
  0
LINE
  5
18B
330
45
100
AcDbEntity
  8
0
  6
Continuous
 62
    16
100
AcDbLine
 10
16.42512497534315
 20
8.894246613852772
 30
0.0
 11
16.42512497534315
 21
11.761322640787
 31
0.0
  0
LINE
  5
18C
330
45
100
AcDbEntity
  8
0
  6
Continuous
 62
    16
100
AcDbLine
 10
15.40137497534286
 20
8.88963475059785
 30
0.0
 11
15.40137497534286
 21
11.10121390377157
 31
0.0
  0
LINE
  5
18D
330
45
100
AcDbEntity
  8
0
  6
Continuous
 62
    16
100
AcDbLine
 10
11.87888099084128
 20
8.470697640787364
 30
0.0
 11
14.07263099084119
 21
8.470697640787364
 31
0.0
  0
LINE
  5
18E
330
45
100
AcDbEntity
  8
0
  6
Continuous
 62
    16
100
AcDbLine
 10
12.6101309908411
 20
11.88319764078727
 30
0.0
 11
14.07263099084119
 21
11.88319764078727
 31
0.0
  0
ARC
  5
18F
330
45
100
AcDbEntity
  8
0
  6
Continuous
 62
    16
100
AcDbCircle
 10
12.83216940332139
 20
11.50272689024126
 30
0.0
 40
0.121875
100
AcDbArc
 50
308.233797137863
 51
86.30526971831486
  0
LINE
  5
190
330
45
100
AcDbEntity
  8
0
  6
Continuous
 62
    16
100
AcDbLine
 10
12.60227730176464
 20
11.63970095196095
 30
0.0
 11
12.84002309239739
 21
11.62434857906732
 31
0.0
  0
ARC
  5
191
330
45
100
AcDbEntity
  8
0
  6
Continuous
 62
    16
100
AcDbCircle
 10
12.6101309908411
 20
11.761322640787
 30
0.0
 40
0.121875
100
AcDbArc
 50
90.0
 51
266.3052697183143
  0
ARC
  5
192
330
45
100
AcDbEntity
  8
0
  6
Continuous
 62
    16
100
AcDbCircle
 10
12.22732675387513
 20
8.87301646384634
 30
0.0
 40
0.121875
100
AcDbArc
 50
275.8069532297311
 51
46.974934010882
  0
LINE
  5
193
330
45
100
AcDbEntity
  8
0
  6
Continuous
 62
    16
100
AcDbLine
 10
11.8665500400746
 20
8.713822231624306
 30
0.0
 11
12.23965770464181
 21
8.751766873009217
 31
0.0
  0
ARC
  5
194
330
45
100
AcDbEntity
  8
0
  6
Continuous
 62
    16
100
AcDbCircle
 10
11.87888099084128
 20
8.592572640787182
 30
0.0
 40
0.121875
100
AcDbArc
 50
95.80695322973123
 51
270.0
  0
LINE
  5
195
330
45
100
AcDbEntity
  8
0
  6
Continuous
 62
    16
100
AcDbLine
 10
11.50980059521433
 20
11.64018919042559
 30
0.0
 11
11.13777556898211
 21
11.59896151295101
 31
0.0
  0
ARC
  5
196
330
45
100
AcDbEntity
  8
0
  6
Continuous
 62
    16
100
AcDbCircle
 10
11.49637663050569
 20
11.761322640787
 30
0.0
 40
0.121875
100
AcDbArc
 50
276.3236945086078
 51
90.0
  0
ARC
  5
197
330
45
100
AcDbEntity
  8
0
  6
Continuous
 62
    16
100
AcDbCircle
 10
14.64047966075648
 20
9.26573688215234
 30
0.0
 40
2.4375
100
AcDbArc
 50
102.8188940537166
 51
128.2337971378629
  0
ARC
  5
198
330
45
100
AcDbEntity
  8
0
  6
Continuous
 62
    16
100
AcDbCircle
 10
14.07263099084119
 20
11.761322640787
 30
0.0
 40
0.121875
100
AcDbArc
 50
282.8188940537166
 51
90.0
  0
LINE
  5
199
330
45
100
AcDbEntity
  8
0
  6
Continuous
 62
    16
100
AcDbLine
 10
13.13197954540126
 20
11.18037357144152
 30
0.0
 11
12.13385424051447
 21
10.39397260775826
 31
0.0
  0
LINE
  5
19A
330
45
100
AcDbEntity
  8
0
  6
Continuous
 62
    16
100
AcDbLine
 10
12.90759440908894
 20
11.4069950557768
 30
0.0
 11
11.89947883930543
 21
10.61272298221996
 31
0.0
  0
ARC
  5
19B
330
45
100
AcDbEntity
  8
0
  6
Continuous
 62
    16
100
AcDbCircle
 10
14.35817478831385
 20
9.6516285908437
 30
0.0
 40
0.9750000000000001
100
AcDbArc
 50
226.9749340108821
 51
254.9106627487853
  0
ARC
  5
19C
330
45
100
AcDbEntity
  8
0
  6
Continuous
 62
    16
100
AcDbCircle
 10
14.07263099084119
 20
8.592572640787182
 30
0.0
 40
0.121875
100
AcDbArc
 50
270.0
 51
74.91066274878406
  0
LINE
  5
19D
330
45
100
AcDbEntity
  8
0
  6
Continuous
 62
    16
100
AcDbLine
 10
13.69291449421306
 20
8.938849704306847
 30
0.0
 11
12.13385424051447
 21
10.39397260775826
 31
0.0
  0
LINE
  5
19E
330
45
100
AcDbEntity
  8
0
  6
Continuous
 62
    16
100
AcDbLine
 10
12.31048429063802
 20
8.962113824663845
 30
0.0
 11
11.39774238196313
 21
9.81400627276065
 31
0.0
  0
ARC
  5
19F
330
45
100
AcDbEntity
  8
0
  6
Continuous
 62
    16
100
AcDbCircle
 10
29.51509055755585
 20
11.761322640787
 30
0.0
 40
0.121875
100
AcDbArc
 50
282.8188940537166
 51
90.0
  0
LINE
  5
1A0
330
45
100
AcDbEntity
  8
0
  6
Continuous
 62
    16
100
AcDbLine
 10
28.0447368684793
 20
11.63970095196095
 30
0.0
 11
28.2824826591125
 21
11.62434857906732
 31
0.0
  0
ARC
  5
1A1
330
45
100
AcDbEntity
  8
0
  6
Continuous
 62
    16
100
AcDbCircle
 10
28.27462897003605
 20
11.50272689024126
 30
0.0
 40
0.121875
100
AcDbArc
 50
308.233797137863
 51
86.30526971831486
  0
LINE
  5
1A2
330
45
100
AcDbEntity
  8
0
  6
Continuous
 62
    16
100
AcDbLine
 10
28.05259055755576
 20
11.88319764078727
 30
0.0
 11
29.51509055755585
 21
11.88319764078727
 31
0.0
  0
ARC
  5
1A3
330
45
100
AcDbEntity
  8
0
  6
Continuous
 62
    16
100
AcDbCircle
 10
26.93883619722035
 20
11.761322640787
 30
0.0
 40
0.121875
100
AcDbArc
 50
276.3236945086078
 51
90.0
  0
ARC
  5
1A4
330
45
100
AcDbEntity
  8
0
  6
Continuous
 62
    16
100
AcDbCircle
 10
26.5936591004054
 20
11.47782806258959
 30
0.0
 40
0.121875
100
AcDbArc
 50
96.32369450860737
 51
226.974934010882
  0
LINE
  5
1A5
330
45
100
AcDbEntity
  8
0
  6
Continuous
 62
    16
100
AcDbLine
 10
26.95226016192944
 20
11.64018919042559
 30
0.0
 11
26.58023513569677
 21
11.59896151295101
 31
0.0
  0
ARC
  5
1A6
330
45
100
AcDbEntity
  8
0
  6
Continuous
 62
    16
100
AcDbCircle
 10
28.05259055755576
 20
11.761322640787
 30
0.0
 40
0.121875
100
AcDbArc
 50
90.0
 51
266.3052697183143
  0
LINE
  5
1A7
330
45
100
AcDbEntity
  8
0
  6
Continuous
 62
    16
100
AcDbLine
 10
28.57443911211593
 20
11.18037357144152
 30
0.0
 11
27.57631380722913
 21
10.39397260775826
 31
0.0
  0
LINE
  5
1A8
330
45
100
AcDbEntity
  8
0
  6
Continuous
 62
    16
100
AcDbLine
 10
27.34193840602009
 20
10.61272298221996
 30
0.0
 11
26.51050156364298
 21
11.38873070177209
 31
0.0
  0
LINE
  5
1A9
330
45
100
AcDbEntity
  8
0
  6
Continuous
 62
    16
100
AcDbLine
 10
28.3500539758036
 20
11.4069950557768
 30
0.0
 11
27.34193840602009
 21
10.61272298221996
 31
0.0
  0
ARC
  5
1AA
330
45
100
AcDbEntity
  8
0
  6
Continuous
 62
    16
100
AcDbCircle
 10
30.08293922747114
 20
9.26573688215234
 30
0.0
 40
2.4375
100
AcDbArc
 50
102.8188940537166
 51
128.2337971378629
  0
ARC
  5
1AB
330
45
100
AcDbEntity
  8
0
  6
Continuous
 62
    16
100
AcDbCircle
 10
29.80063435502851
 20
9.6516285908437
 30
0.0
 40
0.9750000000000001
100
AcDbArc
 50
226.9749340108821
 51
254.9106627487853
  0
ARC
  5
1AC
330
45
100
AcDbEntity
  8
0
  6
Continuous
 62
    16
100
AcDbCircle
 10
29.51509055755585
 20
8.592572640787182
 30
0.0
 40
0.121875
100
AcDbArc
 50
270.0
 51
74.91066274878406
  0
LINE
  5
1AD
330
45
100
AcDbEntity
  8
0
  6
Continuous
 62
    16
100
AcDbLine
 10
27.30900960678926
 20
8.713822231624306
 30
0.0
 11
27.68211727135693
 21
8.751766873009217
 31
0.0
  0
ARC
  5
1AE
330
45
100
AcDbEntity
  8
0
  6
Continuous
 62
    16
100
AcDbCircle
 10
27.66978632059025
 20
8.87301646384634
 30
0.0
 40
0.121875
100
AcDbArc
 50
275.8069532297311
 51
46.974934010882
  0
LINE
  5
1AF
330
45
100
AcDbEntity
  8
0
  6
Continuous
 62
    16
100
AcDbLine
 10
26.21948995839583
 20
8.713864916282489
 30
0.0
 11
25.83120834315358
 21
8.751971313393767
 31
0.0
  0
ARC
  5
1B0
330
45
100
AcDbEntity
  8
0
  6
Continuous
 62
    16
100
AcDbCircle
 10
26.20758619722054
 20
8.592572640787182
 30
0.0
 40
0.121875
100
AcDbArc
 50
270.0
 51
84.3948769589973
  0
ARC
  5
1B1
330
45
100
AcDbEntity
  8
0
  6
Continuous
 62
    16
100
AcDbCircle
 10
27.32134055755594
 20
8.592572640787182
 30
0.0
 40
0.121875
100
AcDbArc
 50
95.80695322973123
 51
270.0
  0
LINE
  5
1B2
330
45
100
AcDbEntity
  8
0
  6
Continuous
 62
    16
100
AcDbLine
 10
27.32134055755594
 20
8.470697640787364
 30
0.0
 11
29.51509055755585
 21
8.470697640787364
 31
0.0
  0
LINE
  5
1B3
330
45
100
AcDbEntity
  8
0
  6
Continuous
 62
    16
100
AcDbLine
 10
27.75294385735313
 20
8.962113824663845
 30
0.0
 11
26.84020194867779
 21
9.81400627276065
 31
0.0
  0
LINE
  5
1B4
330
45
100
AcDbEntity
  8
0
  6
Continuous
 62
    16
100
AcDbLine
 10
26.84020194867779
 20
9.81400627276065
 30
0.0
 11
25.76768709856086
 21
8.968995423353533
 31
0.0
  0
LINE
  5
1B5
330
45
100
AcDbEntity
  8
0
  6
Continuous
 62
    16
100
AcDbLine
 10
29.13537406092772
 20
8.938849704306847
 30
0.0
 11
27.57631380722913
 21
10.39397260775826
 31
0.0
  0
ARC
  5
1B6
330
45
100
AcDbEntity
  8
0
  6
Continuous
 62
    16
100
AcDbCircle
 10
25.84311210432887
 20
8.873263588889074
 30
0.0
 40
0.121875
100
AcDbArc
 50
128.2337971378629
 51
264.3948769589975
  0
LINE
  5
1B7
330
45
100
AcDbEntity
  8
0
  6
Continuous
 62
    16
100
AcDbLine
 10
26.60582654746875
 20
10.0327566472219
 30
0.0
 11
25.41839075291526
 21
9.097202114562094
 31
0.0
  0
LINE
  5
1B8
330
45
100
AcDbEntity
  8
0
  6
Continuous
 62
    15
100
AcDbLine
 10
11.33347667260682
 20
3.151445566391601
 30
0.0
 11
12.13899439794341
 21
3.038984423767715
 31
0.0
  0
LINE
  5
1B9
330
45
100
AcDbEntity
  8
0
  6
Continuous
 62
    15
100
AcDbLine
 10
12.13899439794341
 20
3.038984423767715
 30
0.0
 11
12.95547558876996
 21
2.94659495457563
 31
0.0
  0
LINE
  5
1BA
330
45
100
AcDbEntity
  8
0
  6
Continuous
 62
    15
100
AcDbLine
 10
12.95547558876996
 20
2.94659495457563
 30
0.0
 11
13.78076733854263
 21
2.874501311141557
 31
0.0
  0
LINE
  5
1BB
330
45
100
AcDbEntity
  8
0
  6
Continuous
 62
    15
100
AcDbLine
 10
13.78076733854263
 20
2.874501311141557
 30
0.0
 11
14.61269026811576
 21
2.822879320588726
 31
0.0
  0
LINE
  5
1BC
330
45
100
AcDbEntity
  8
0
  6
Continuous
 62
    15
100
AcDbLine
 10
14.61269026811576
 20
2.822879320588726
 30
0.0
 11
15.44904507858504
 21
2.791855358557768
 31
0.0
  0
LINE
  5
1BD
330
45
100
AcDbEntity
  8
0
  6
Continuous
 62
    15
100
AcDbLine
 10
15.44904507858504
 20
2.791855358557768
 30
0.0
 11
16.28761916131023
 21
2.781505561156735
 31
0.0
  0
LINE
  5
1BE
330
45
100
AcDbEntity
  8
0
  6
Continuous
 62
    15
100
AcDbLine
 10
16.28761916131023
 20
2.781505561156735
 30
0.0
 11
17.12619324403542
 21
2.791855358557768
 31
0.0
  0
LINE
  5
1BF
330
45
100
AcDbEntity
  8
0
  6
Continuous
 62
    15
100
AcDbLine
 10
17.12619324403542
 20
2.791855358557768
 30
0.0
 11
17.96254805450519
 21
2.822879320588754
 31
0.0
  0
LINE
  5
1C0
330
45
100
AcDbEntity
  8
0
  6
Continuous
 62
    15
100
AcDbLine
 10
17.96254805450519
 20
2.822879320588754
 30
0.0
 11
18.79447098407783
 21
2.874501311141557
 31
0.0
  0
LINE
  5
1C1
330
45
100
AcDbEntity
  8
0
  6
Continuous
 62
    15
100
AcDbLine
 10
18.79447098407783
 20
2.874501311141557
 30
0.0
 11
19.61976273385048
 21
2.94659495457563
 31
0.0
  0
LINE
  5
1C2
330
45
100
AcDbEntity
  8
0
  6
Continuous
 62
    15
100
AcDbLine
 10
19.61976273385048
 20
2.94659495457563
 30
0.0
 11
20.436243924677
 21
3.038984423767715
 31
0.0
  0
LINE
  5
1C3
330
45
100
AcDbEntity
  8
0
  6
Continuous
 62
    15
100
AcDbLine
 10
20.436243924677
 20
3.038984423767715
 30
0.0
 11
21.24176165001373
 21
3.151445566391601
 31
0.0
  0
LINE
  5
1C4
330
45
100
AcDbEntity
  8
0
  6
Continuous
 62
    15
100
AcDbLine
 10
21.24176165001373
 20
3.151445566391601
 30
0.0
 11
22.03419594635264
 21
3.283707393598434
 31
0.0
  0
LINE
  5
1C5
330
45
100
AcDbEntity
  8
0
  6
Continuous
 62
    15
100
AcDbLine
 10
22.03419594635264
 20
3.283707393598434
 30
0.0
 11
22.81146614936264
 21
3.435453963751115
 31
0.0
  0
LINE
  5
1C6
330
45
100
AcDbEntity
  8
0
  6
Continuous
 62
    15
100
AcDbLine
 10
22.81146614936264
 20
3.435453963751115
 30
0.0
 11
23.5715370938226
 21
3.6063267033486
 31
0.0
  0
LINE
  5
1C7
330
45
100
AcDbEntity
  8
0
  6
Continuous
 62
    15
100
AcDbLine
 10
23.5715370938226
 20
3.6063267033486
 30
0.0
 11
24.31242510020135
 21
3.795927217531698
 31
0.0
  0
LINE
  5
1C8
330
45
100
AcDbEntity
  8
0
  6
Continuous
 62
    15
100
AcDbLine
 10
24.31242510020135
 20
3.795927217531698
 30
0.0
 11
25.03220366829177
 21
4.003820653048393
 31
0.0
  0
LINE
  5
1C9
330
45
100
AcDbEntity
  8
0
  6
Continuous
 62
    15
100
AcDbLine
 10
25.03220366829177
 20
4.003820653048393
 30
0.0
 11
25.72900876520501
 21
4.229539685723893
 31
0.0
  0
LINE
  5
1CA
330
45
100
AcDbEntity
  8
0
  6
Continuous
 62
    15
100
AcDbLine
 10
25.72900876520501
 20
4.229539685723893
 30
0.0
 11
26.40104354704479
 21
4.47258920930426
 31
0.0
  0
LINE
  5
1CB
330
45
100
AcDbEntity
  8
0
  6
Continuous
 62
    15
100
AcDbLine
 10
26.40104354704479
 20
4.47258920930426
 30
0.0
 11
27.04658228477456
 21
4.732451797268482
 31
0.0
  0
LINE
  5
1CC
330
45
100
AcDbEntity
  8
0
  6
Continuous
 62
    15
100
AcDbLine
 10
27.04658228477456
 20
4.732451797268482
 30
0.0
 11
27.66397316831993
 21
5.008593983541004
 31
0.0
  0
LINE
  5
1CD
330
45
100
AcDbEntity
  8
0
  6
Continuous
 62
    15
100
AcDbLine
 10
27.66397316831993
 20
5.008593983541004
 30
0.0
 11
28.25163953128725
 21
5.300473344271154
 31
0.0
  0
LINE
  5
1CE
330
45
100
AcDbEntity
  8
0
  6
Continuous
 62
    15
100
AcDbLine
 10
28.25163953128725
 20
5.300473344271154
 30
0.0
 11
28.80807886714524
 21
5.607546231788888
 31
0.0
  0
LINE
  5
1CF
330
45
100
AcDbEntity
  8
0
  6
Continuous
 62
    15
100
AcDbLine
 10
28.80807886714524
 20
5.607546231788888
 30
0.0
 11
29.33185880044485
 21
5.92927576784615
 31
0.0
  0
LINE
  5
1D0
330
45
100
AcDbEntity
  8
0
  6
Continuous
 62
    15
100
AcDbLine
 10
29.33185880044485
 20
5.92927576784615
 30
0.0
 11
29.82160896069675
 21
6.26513927983595
 31
0.0
  0
LINE
  5
1D1
330
45
100
AcDbEntity
  8
0
  6
Continuous
 62
    15
100
AcDbLine
 10
29.82160896069675
 20
6.26513927983595
 30
0.0
 11
30.27600755726559
 21
6.614633675587243
 31
0.0
  0
LINE
  5
1D2
330
45
100
AcDbEntity
  8
0
  6
Continuous
 62
    15
100
AcDbLine
 10
30.27600755726559
 20
6.614633675587243
 30
0.0
 11
30.6937615361413
 21
6.977276216025928
 31
0.0
  0
LINE
  5
1D3
330
45
100
AcDbEntity
  8
0
  6
Continuous
 62
    15
100
AcDbLine
 10
30.6937615361413
 20
6.977276216025928
 30
0.0
 11
31.0735798228325
 21
7.352596744011691
 31
0.0
  0
LINE
  5
1D4
330
45
100
AcDbEntity
  8
0
  6
Continuous
 62
    15
100
AcDbLine
 10
31.0735798228325
 20
7.352596744011691
 30
0.0
 11
31.41414080984256
 21
7.740115860302183
 31
0.0
  0
LINE
  5
1D5
330
45
100
AcDbEntity
  8
0
  6
Continuous
 62
    15
100
AcDbLine
 10
31.41414080984256
 20
7.740115860302183
 30
0.0
 11
31.71405853148738
 21
8.139302477707162
 31
0.0
  0
LINE
  5
1D6
330
45
100
AcDbEntity
  8
0
  6
Continuous
 62
    15
100
AcDbLine
 10
31.71405853148738
 20
8.139302477707162
 30
0.0
 11
31.97185722784576
 21
8.549505094442736
 31
0.0
  0
LINE
  5
1D7
330
45
100
AcDbEntity
  8
0
  6
Continuous
 62
    15
100
AcDbLine
 10
31.97185722784576
 20
8.549505094442736
 30
0.0
 11
32.18597044787569
 21
8.969856297881364
 31
0.0
  0
LINE
  5
1D8
330
45
100
AcDbEntity
  8
0
  6
Continuous
 62
    15
100
AcDbLine
 10
32.18597044787569
 20
8.969856297881364
 30
0.0
 11
32.35478528083135
 21
9.399161580508178
 31
0.0
  0
LINE
  5
1D9
330
45
100
AcDbEntity
  8
0
  6
Continuous
 62
    15
100
AcDbLine
 10
32.35478528083135
 20
9.399161580508178
 30
0.0
 11
32.47674859528755
 21
9.83580072311554
 31
0.0
  0
LINE
  5
1DA
330
45
100
AcDbEntity
  8
0
  6
Continuous
 62
    15
100
AcDbLine
 10
32.47674859528755
 20
9.83580072311554
 30
0.0
 11
32.55053399093714
 21
10.2776852649402
 31
0.0
  0
LINE
  5
1DB
330
45
100
AcDbEntity
  8
0
  6
Continuous
 62
    15
100
AcDbLine
 10
32.55053399093714
 20
10.2776852649402
 30
0.0
 11
32.57523663125571
 21
10.72231454833354
 31
0.0
  0
LINE
  5
1DC
330
45
100
AcDbEntity
  8
0
  6
Continuous
 62
    15
100
AcDbLine
 10
32.57523663125571
 20
10.72231454833354
 30
0.0
 11
32.55053399093717
 21
11.16694383172614
 31
0.0
  0
LINE
  5
1DD
330
45
100
AcDbEntity
  8
0
  6
Continuous
 62
    15
100
AcDbLine
 10
32.55053399093717
 20
11.16694383172614
 30
0.0
 11
32.47674859528755
 21
11.60882837355149
 31
0.0
  0
LINE
  5
1DE
330
45
100
AcDbEntity
  8
0
  6
Continuous
 62
    15
100
AcDbLine
 10
32.47674859528755
 20
11.60882837355149
 30
0.0
 11
32.35478528083138
 21
12.04546751615823
 31
0.0
  0
LINE
  5
1DF
330
45
100
AcDbEntity
  8
0
  6
Continuous
 62
    15
100
AcDbLine
 10
32.35478528083138
 20
12.04546751615823
 30
0.0
 11
32.18597044787566
 21
12.47477279878521
 31
0.0
  0
LINE
  5
1E0
330
45
100
AcDbEntity
  8
0
  6
Continuous
 62
    15
100
AcDbLine
 10
32.18597044787566
 20
12.47477279878521
 30
0.0
 11
31.97185722784573
 21
12.89512400222381
 31
0.0
  0
LINE
  5
1E1
330
45
100
AcDbEntity
  8
0
  6
Continuous
 62
    15
100
AcDbLine
 10
31.97185722784573
 20
12.89512400222381
 30
0.0
 11
31.71405853148741
 21
13.30532661895933
 31
0.0
  0
LINE
  5
1E2
330
45
100
AcDbEntity
  8
0
  6
Continuous
 62
    15
100
AcDbLine
 10
31.71405853148741
 20
13.30532661895933
 30
0.0
 11
31.41414080984265
 21
13.7045132363647
 31
0.0
  0
LINE
  5
1E3
330
45
100
AcDbEntity
  8
0
  6
Continuous
 62
    15
100
AcDbLine
 10
31.41414080984265
 20
13.7045132363647
 30
0.0
 11
31.07357982283247
 21
14.09203235265534
 31
0.0
  0
LINE
  5
1E4
330
45
100
AcDbEntity
  8
0
  6
Continuous
 62
    15
100
AcDbLine
 10
31.07357982283247
 20
14.09203235265534
 30
0.0
 11
30.69376153614101
 21
14.46735288064087
 31
0.0
  0
LINE
  5
1E5
330
45
100
AcDbEntity
  8
0
  6
Continuous
 62
    15
100
AcDbLine
 10
30.69376153614101
 20
14.46735288064087
 30
0.0
 11
30.27600755726584
 21
14.82999542107905
 31
0.0
  0
LINE
  5
1E6
330
45
100
AcDbEntity
  8
0
  6
Continuous
 62
    15
100
AcDbLine
 10
30.27600755726584
 20
14.82999542107905
 30
0.0
 11
29.82160896069692
 21
15.17948981683088
 31
0.0
  0
LINE
  5
1E7
330
45
100
AcDbEntity
  8
0
  6
Continuous
 62
    15
100
AcDbLine
 10
29.82160896069692
 20
15.17948981683088
 30
0.0
 11
29.33185880044479
 21
15.51535332882085
 31
0.0
  0
LINE
  5
1E8
330
45
100
AcDbEntity
  8
0
  6
Continuous
 62
    15
100
AcDbLine
 10
29.33185880044479
 20
15.51535332882085
 30
0.0
 11
28.8080788671455
 21
15.83708286487746
 31
0.0
  0
LINE
  5
1E9
330
45
100
AcDbEntity
  8
0
  6
Continuous
 62
    15
100
AcDbLine
 10
28.8080788671455
 20
15.83708286487746
 30
0.0
 11
28.25163953128705
 21
16.14415575239593
 31
0.0
  0
LINE
  5
1EA
330
45
100
AcDbEntity
  8
0
  6
Continuous
 62
    15
100
AcDbLine
 10
28.25163953128705
 20
16.14415575239593
 30
0.0
 11
27.6639731683201
 21
16.43603511312546
 31
0.0
  0
LINE
  5
1EB
330
45
100
AcDbEntity
  8
0
  6
Continuous
 62
    15
100
AcDbLine
 10
27.6639731683201
 20
16.43603511312546
 30
0.0
 11
27.04658228477467
 21
16.71217729939798
 31
0.0
  0
LINE
  5
1EC
330
45
100
AcDbEntity
  8
0
  6
Continuous
 62
    15
100
AcDbLine
 10
27.04658228477467
 20
16.71217729939798
 30
0.0
 11
26.4010435470444
 21
16.97203988736237
 31
0.0
  0
LINE
  5
1ED
330
45
100
AcDbEntity
  8
0
  6
Continuous
 62
    15
100
AcDbLine
 10
26.4010435470444
 20
16.97203988736237
 30
0.0
 11
25.72900876520561
 21
17.21508941094288
 31
0.0
  0
LINE
  5
1EE
330
45
100
AcDbEntity
  8
0
  6
Continuous
 62
    15
100
AcDbLine
 10
25.72900876520561
 20
17.21508941094288
 30
0.0
 11
25.03220366829126
 21
17.44080844361827
 31
0.0
  0
LINE
  5
1EF
330
45
100
AcDbEntity
  8
0
  6
Continuous
 62
    15
100
AcDbLine
 10
25.03220366829126
 20
17.44080844361827
 30
0.0
 11
24.31242510020132
 21
17.64870187913482
 31
0.0
  0
LINE
  5
1F0
330
45
100
AcDbEntity
  8
0
  6
Continuous
 62
    15
100
AcDbLine
 10
24.31242510020132
 20
17.64870187913482
 30
0.0
 11
23.57153709382277
 21
17.83830239331786
 31
0.0
  0
LINE
  5
1F1
330
45
100
AcDbEntity
  8
0
  6
Continuous
 62
    15
100
AcDbLine
 10
23.57153709382277
 20
17.83830239331786
 30
0.0
 11
22.81146614936259
 21
18.00917513291589
 31
0.0
  0
LINE
  5
1F2
330
45
100
AcDbEntity
  8
0
  6
Continuous
 62
    15
100
AcDbLine
 10
22.81146614936259
 20
18.00917513291589
 30
0.0
 11
22.0341959463529
 21
18.1609217030686
 31
0.0
  0
LINE
  5
1F3
330
45
100
AcDbEntity
  8
0
  6
Continuous
 62
    15
100
AcDbLine
 10
22.0341959463529
 20
18.1609217030686
 30
0.0
 11
21.24176165001356
 21
18.29318353027492
 31
0.0
  0
LINE
  5
1F4
330
45
100
AcDbEntity
  8
0
  6
Continuous
 62
    15
100
AcDbLine
 10
21.24176165001356
 20
18.29318353027492
 30
0.0
 11
20.43624392467694
 21
18.40564467289883
 31
0.0
  0
LINE
  5
1F5
330
45
100
AcDbEntity
  8
0
  6
Continuous
 62
    15
100
AcDbLine
 10
20.43624392467694
 20
18.40564467289883
 30
0.0
 11
19.61976273385051
 21
18.49803414209086
 31
0.0
  0
LINE
  5
1F6
330
45
100
AcDbEntity
  8
0
  6
Continuous
 62
    15
100
AcDbLine
 10
19.61976273385051
 20
18.49803414209086
 30
0.0
 11
18.79447098407789
 21
18.57012778552496
 31
0.0
  0
LINE
  5
1F7
330
45
100
AcDbEntity
  8
0
  6
Continuous
 62
    15
100
AcDbLine
 10
18.79447098407789
 20
18.57012778552496
 30
0.0
 11
17.96254805450519
 21
18.62174977607825
 31
0.0
  0
LINE
  5
1F8
330
45
100
AcDbEntity
  8
0
  6
Continuous
 62
    15
100
AcDbLine
 10
17.96254805450519
 20
18.62174977607825
 30
0.0
 11
17.12619324403548
 21
18.65277373810875
 31
0.0
  0
LINE
  5
1F9
330
45
100
AcDbEntity
  8
0
  6
Continuous
 62
    15
100
AcDbLine
 10
17.12619324403548
 20
18.65277373810875
 30
0.0
 11
16.28761916131023
 21
18.66312353550978
 31
0.0
  0
LINE
  5
1FA
330
45
100
AcDbEntity
  8
0
  6
Continuous
 62
    15
100
AcDbLine
 10
16.28761916131023
 20
18.66312353550978
 30
0.0
 11
15.44904507858499
 21
18.65277373810875
 31
0.0
  0
LINE
  5
1FB
330
45
100
AcDbEntity
  8
0
  6
Continuous
 62
    15
100
AcDbLine
 10
15.44904507858499
 20
18.65277373810875
 30
0.0
 11
14.61269026811581
 21
18.62174977607825
 31
0.0
  0
LINE
  5
1FC
330
45
100
AcDbEntity
  8
0
  6
Continuous
 62
    15
100
AcDbLine
 10
14.61269026811581
 20
18.62174977607825
 30
0.0
 11
13.78076733854257
 21
18.57012778552493
 31
0.0
  0
LINE
  5
1FD
330
45
100
AcDbEntity
  8
0
  6
Continuous
 62
    15
100
AcDbLine
 10
13.78076733854257
 20
18.57012778552493
 30
0.0
 11
12.95547558876993
 21
18.49803414209089
 31
0.0
  0
LINE
  5
1FE
330
45
100
AcDbEntity
  8
0
  6
Continuous
 62
    15
100
AcDbLine
 10
12.95547558876993
 20
18.49803414209089
 30
0.0
 11
12.13899439794341
 21
18.4056446728988
 31
0.0
  0
LINE
  5
1FF
330
45
100
AcDbEntity
  8
0
  6
Continuous
 62
    15
100
AcDbLine
 10
12.13899439794341
 20
18.4056446728988
 30
0.0
 11
11.33347667260654
 21
18.29318353027489
 31
0.0
  0
LINE
  5
200
330
45
100
AcDbEntity
  8
0
  6
Continuous
 62
    15
100
AcDbLine
 10
11.33347667260654
 20
18.29318353027489
 30
0.0
 11
10.54104237626834
 21
18.16092170306865
 31
0.0
  0
LINE
  5
201
330
45
100
AcDbEntity
  8
0
  6
Continuous
 62
    15
100
AcDbLine
 10
10.54104237626834
 20
18.16092170306865
 30
0.0
 11
9.763772173258019
 21
18.00917513291591
 31
0.0
  0
LINE
  5
202
330
45
100
AcDbEntity
  8
0
  6
Continuous
 62
    15
100
AcDbLine
 10
9.763772173258019
 20
18.00917513291591
 30
0.0
 11
9.003701228798036
 21
17.83830239331786
 31
0.0
  0
LINE
  5
203
330
45
100
AcDbEntity
  8
0
  6
Continuous
 62
    15
100
AcDbLine
 10
9.003701228798036
 20
17.83830239331786
 30
0.0
 11
8.262813222418771
 21
17.64870187913471
 31
0.0
  0
LINE
  5
204
330
45
100
AcDbEntity
  8
0
  6
Continuous
 62
    15
100
AcDbLine
 10
8.262813222418771
 20
17.64870187913471
 30
0.0
 11
7.543034654329347
 21
17.44080844361815
 31
0.0
  0
LINE
  5
205
330
45
100
AcDbEntity
  8
0
  6
Continuous
 62
    15
100
AcDbLine
 10
7.543034654329347
 20
17.44080844361815
 30
0.0
 11
6.846229557415455
 21
17.21508941094311
 31
0.0
  0
LINE
  5
206
330
45
100
AcDbEntity
  8
0
  6
Continuous
 62
    15
100
AcDbLine
 10
6.846229557415455
 20
17.21508941094311
 30
0.0
 11
6.174194775575899
 21
16.97203988736231
 31
0.0
  0
LINE
  5
207
330
45
100
AcDbEntity
  8
0
  6
Continuous
 62
    15
100
AcDbLine
 10
6.174194775575899
 20
16.97203988736231
 30
0.0
 11
5.528656037845707
 21
16.71217729939795
 31
0.0
  0
LINE
  5
208
330
45
100
AcDbEntity
  8
0
  6
Continuous
 62
    15
100
AcDbLine
 10
5.528656037845707
 20
16.71217729939795
 30
0.0
 11
4.911265154300793
 21
16.43603511312566
 31
0.0
  0
LINE
  5
209
330
45
100
AcDbEntity
  8
0
  6
Continuous
 62
    15
100
AcDbLine
 10
4.911265154300793
 20
16.43603511312566
 30
0.0
 11
4.323598791333183
 21
16.14415575239582
 31
0.0
  0
LINE
  5
20A
330
45
100
AcDbEntity
  8
0
  6
Continuous
 62
    15
100
AcDbLine
 10
4.323598791333183
 20
16.14415575239582
 30
0.0
 11
3.76715945547528
 21
15.83708286487766
 31
0.0
  0
LINE
  5
20B
330
45
100
AcDbEntity
  8
0
  6
Continuous
 62
    15
100
AcDbLine
 10
3.76715945547528
 20
15.83708286487766
 30
0.0
 11
3.243379522175331
 21
15.51535332882062
 31
0.0
  0
LINE
  5
20C
330
45
100
AcDbEntity
  8
0
  6
Continuous
 62
    15
100
AcDbLine
 10
3.243379522175331
 20
15.51535332882062
 30
0.0
 11
2.753629361923572
 21
15.17948981683094
 31
0.0
  0
LINE
  5
20D
330
45
100
AcDbEntity
  8
0
  6
Continuous
 62
    15
100
AcDbLine
 10
2.753629361923572
 20
15.17948981683094
 30
0.0
 11
2.299230765354935
 21
14.82999542107933
 31
0.0
  0
LINE
  5
20E
330
45
100
AcDbEntity
  8
0
  6
Continuous
 62
    15
100
AcDbLine
 10
2.299230765354935
 20
14.82999542107933
 30
0.0
 11
1.881476786478999
 21
14.46735288064048
 31
0.0
  0
LINE
  5
20F
330
45
100
AcDbEntity
  8
0
  6
Continuous
 62
    15
100
AcDbLine
 10
1.881476786478999
 20
14.46735288064048
 30
0.0
 11
1.501658499787993
 21
14.09203235265534
 31
0.0
  0
LINE
  5
210
330
45
100
AcDbEntity
  8
0
  6
Continuous
 62
    15
100
AcDbLine
 10
1.501658499787993
 20
14.09203235265534
 30
0.0
 11
1.161097512777815
 21
13.7045132363647
 31
0.0
  0
LINE
  5
211
330
45
100
AcDbEntity
  8
0
  6
Continuous
 62
    15
100
AcDbLine
 10
1.161097512777815
 20
13.7045132363647
 30
0.0
 11
0.8611797911330541
 21
13.3053266189593
 31
0.0
  0
LINE
  5
212
330
45
100
AcDbEntity
  8
0
  6
Continuous
 62
    15
100
AcDbLine
 10
0.8611797911330541
 20
13.3053266189593
 30
0.0
 11
0.6033810947748748
 21
12.89512400222407
 31
0.0
  0
LINE
  5
213
330
45
100
AcDbEntity
  8
0
  6
Continuous
 62
    15
100
AcDbLine
 10
0.6033810947748748
 20
12.89512400222407
 30
0.0
 11
0.3892678747449452
 21
12.47477279878547
 31
0.0
  0
LINE
  5
214
330
45
100
AcDbEntity
  8
0
  6
Continuous
 62
    15
100
AcDbLine
 10
0.3892678747449452
 20
12.47477279878547
 30
0.0
 11
0.2204530417890851
 21
12.04546751615825
 31
0.0
  0
LINE
  5
215
330
45
100
AcDbEntity
  8
0
  6
Continuous
 62
    15
100
AcDbLine
 10
0.2204530417890851
 20
12.04546751615825
 30
0.0
 11
0.0984897273329182
 21
11.60882837355155
 31
0.0
  0
LINE
  5
216
330
45
100
AcDbEntity
  8
0
  6
Continuous
 62
    15
100
AcDbLine
 10
0.0984897273329182
 20
11.60882837355155
 30
0.0
 11
0.0247043316832674
 21
11.16694383172592
 31
0.0
  0
LINE
  5
217
330
45
100
AcDbEntity
  8
0
  6
Continuous
 62
    15
100
AcDbLine
 10
0.0247043316832674
 20
11.16694383172592
 30
0.0
 11
0.0000016913647016
 21
10.72231454833292
 31
0.0
  0
LINE
  5
218
330
45
100
AcDbEntity
  8
0
  6
Continuous
 62
    15
100
AcDbLine
 10
0.0000016913647016
 20
10.72231454833292
 30
0.0
 11
0.0247043316832958
 21
10.2776852649404
 31
0.0
  0
LINE
  5
219
330
45
100
AcDbEntity
  8
0
  6
Continuous
 62
    15
100
AcDbLine
 10
0.0247043316832958
 20
10.2776852649404
 30
0.0
 11
0.0984897273328613
 21
9.835800723115653
 31
0.0
  0
LINE
  5
21A
330
45
100
AcDbEntity
  8
0
  6
Continuous
 62
    15
100
AcDbLine
 10
0.0984897273328613
 20
9.835800723115653
 30
0.0
 11
0.2204530417890567
 21
9.399161580508348
 31
0.0
  0
LINE
  5
21B
330
45
100
AcDbEntity
  8
0
  6
Continuous
 62
    15
100
AcDbLine
 10
0.2204530417890567
 20
9.399161580508348
 30
0.0
 11
0.3892678747449452
 21
8.969856297880995
 31
0.0
  0
LINE
  5
21C
330
45
100
AcDbEntity
  8
0
  6
Continuous
 62
    15
100
AcDbLine
 10
0.3892678747449452
 20
8.969856297880995
 30
0.0
 11
0.6033810947745337
 21
8.549505094443077
 31
0.0
  0
LINE
  5
21D
330
45
100
AcDbEntity
  8
0
  6
Continuous
 62
    15
100
AcDbLine
 10
0.6033810947745337
 20
8.549505094443077
 30
0.0
 11
0.8611797911329688
 21
8.13930247770736
 31
0.0
  0
LINE
  5
21E
330
45
100
AcDbEntity
  8
0
  6
Continuous
 62
    15
100
AcDbLine
 10
0.8611797911329688
 20
8.13930247770736
 30
0.0
 11
1.161097512778014
 21
7.740115860302012
 31
0.0
  0
LINE
  5
21F
330
45
100
AcDbEntity
  8
0
  6
Continuous
 62
    15
100
AcDbLine
 10
1.161097512778014
 20
7.740115860302012
 30
0.0
 11
1.501658499787993
 21
7.352596744011635
 31
0.0
  0
LINE
  5
220
330
45
100
AcDbEntity
  8
0
  6
Continuous
 62
    15
100
AcDbLine
 10
1.501658499787993
 20
7.352596744011635
 30
0.0
 11
1.881476786479652
 21
6.977276216025871
 31
0.0
  0
LINE
  5
221
330
45
100
AcDbEntity
  8
0
  6
Continuous
 62
    15
100
AcDbLine
 10
1.881476786479652
 20
6.977276216025871
 30
0.0
 11
2.299230765354764
 21
6.614633675587299
 31
0.0
  0
LINE
  5
222
330
45
100
AcDbEntity
  8
0
  6
Continuous
 62
    15
100
AcDbLine
 10
2.299230765354764
 20
6.614633675587299
 30
0.0
 11
2.753629361923515
 21
6.26513927983612
 31
0.0
  0
LINE
  5
223
330
45
100
AcDbEntity
  8
0
  6
Continuous
 62
    15
100
AcDbLine
 10
2.753629361923515
 20
6.26513927983612
 30
0.0
 11
3.243379522175672
 21
5.92927576784615
 31
0.0
  0
LINE
  5
224
330
45
100
AcDbEntity
  8
0
  6
Continuous
 62
    15
100
AcDbLine
 10
3.243379522175672
 20
5.92927576784615
 30
0.0
 11
3.767159455475053
 21
5.607546231789001
 31
0.0
  0
LINE
  5
225
330
45
100
AcDbEntity
  8
0
  6
Continuous
 62
    15
100
AcDbLine
 10
3.767159455475053
 20
5.607546231789001
 30
0.0
 11
4.323598791333978
 21
5.300473344270983
 31
0.0
  0
LINE
  5
226
330
45
100
AcDbEntity
  8
0
  6
Continuous
 62
    15
100
AcDbLine
 10
4.323598791333978
 20
5.300473344270983
 30
0.0
 11
4.911265154300139
 21
5.008593983541175
 31
0.0
  0
LINE
  5
227
330
45
100
AcDbEntity
  8
0
  6
Continuous
 62
    15
100
AcDbLine
 10
4.911265154300139
 20
5.008593983541175
 30
0.0
 11
5.52865603784582
 21
4.732451797268538
 31
0.0
  0
LINE
  5
228
330
45
100
AcDbEntity
  8
0
  6
Continuous
 62
    15
100
AcDbLine
 10
5.52865603784582
 20
4.732451797268538
 30
0.0
 11
6.174194775575813
 21
4.472589209304203
 31
0.0
  0
LINE
  5
229
330
45
100
AcDbEntity
  8
0
  6
Continuous
 62
    15
100
AcDbLine
 10
6.174194775575813
 20
4.472589209304203
 30
0.0
 11
6.846229557415171
 21
4.229539685723978
 31
0.0
  0
LINE
  5
22A
330
45
100
AcDbEntity
  8
0
  6
Continuous
 62
    15
100
AcDbLine
 10
6.846229557415171
 20
4.229539685723978
 30
0.0
 11
7.543034654329091
 21
4.003820653048422
 31
0.0
  0
LINE
  5
22B
330
45
100
AcDbEntity
  8
0
  6
Continuous
 62
    15
100
AcDbLine
 10
7.543034654329091
 20
4.003820653048422
 30
0.0
 11
8.262813222419226
 21
3.795927217531812
 31
0.0
  0
LINE
  5
22C
330
45
100
AcDbEntity
  8
0
  6
Continuous
 62
    15
100
AcDbLine
 10
8.262813222419226
 20
3.795927217531812
 30
0.0
 11
9.00370122879869
 21
3.606326703348515
 31
0.0
  0
LINE
  5
22D
330
45
100
AcDbEntity
  8
0
  6
Continuous
 62
    15
100
AcDbLine
 10
9.00370122879869
 20
3.606326703348515
 30
0.0
 11
9.763772173257905
 21
3.435453963751087
 31
0.0
  0
LINE
  5
22E
330
45
100
AcDbEntity
  8
0
  6
Continuous
 62
    15
100
AcDbLine
 10
9.763772173257905
 20
3.435453963751087
 30
0.0
 11
10.5410423762678
 21
3.283707393598434
 31
0.0
  0
LINE
  5
22F
330
45
100
AcDbEntity
  8
0
  6
Continuous
 62
    15
100
AcDbLine
 10
10.5410423762678
 20
3.283707393598434
 30
0.0
 11
11.33347667260682
 21
3.151445566391601
 31
0.0
  0
LINE
  5
230
330
45
100
AcDbEntity
  8
0
  6
Continuous
 62
    16
100
AcDbLine
 10
196.6714935923772
 20
0.0000072407879657
 30
0.0
 11
196.6714935923772
 21
278.0594585255471
 31
0.0
  0
ENDBLK
  5
47
330
45
100
AcDbEntity
  8
0
100
AcDbBlockEnd
  0
BLOCK
  5
232
330
231
100
AcDbEntity
  8
0
100
AcDbBlockBegin
  2
PROTO
 70
     0
 71
     0
 10
0.0
 20
0.0
 30
0.0
  3
PROTO
  1

  0
TEXT
  5
235
330
231
100
AcDbEntity
  8
0
  6
Continuous
 62
    15
100
AcDbText
 10
41.31317447727422
 20
6.753997802734375
 30
0.0
 40
1.759999990463257
  1
Mountplesent, Dundalk, Ireland
  7
ARIAL
100
AcDbText
  0
TEXT
  5
236
330
231
100
AcDbEntity
  8
0
  6
Continuous
 62
    15
100
AcDbText
 10
42.85794920663399
 20
3.76199746131897
 30
0.0
 40
1.759999990463257
  1
Telephone (353/42) 9371244
  7
ARIAL
100
AcDbText
  0
TEXT
  5
237
330
231
100
AcDbEntity
  8
0
  6
Continuous
 62
    15
100
AcDbText
 10
47.10607971237337
 20
0.7699971199035645
 30
0.0
 40
1.759999990463257
  1
Fax (353/42) 9371221
  7
ARIAL
100
AcDbText
  0
TEXT
  5
238
330
231
100
AcDbEntity
  8
0
  6
Continuous
 62
    16
100
AcDbText
 10
40.02586220280774
 20
11.70731353759766
 30
0.0
 40
3.529999971389771
  1
EXITEX LTD
  7
CALISTB
100
AcDbText
  0
TEXT
  5
239
330
231
100
AcDbEntity
  8
0
  6
Continuous
 62
    15
100
AcDbText
 10
118.7650737762451
 20
5.154260873794556
 30
0.0
 40
1.759999990463257
  1
DESCRIPTION
  7
ARIAL
100
AcDbText
  0
TEXT
  5
23A
330
231
100
AcDbEntity
  8
0
  6
Continuous
 62
    15
100
AcDbText
 10
118.7650737762451
 20
15.30853486061096
 30
0.0
 40
1.759999990463257
  1
CODE
  7
ARIAL
100
AcDbText
  0
TEXT
  5
23B
330
231
100
AcDbEntity
  8
0
  6
Continuous
 62
    15
100
AcDbText
 10
105.5728845596313
 20
25.15426087379456
 30
0.0
 40
1.759999990463257
  1
DRAWN
  7
ARIAL
100
AcDbText
  0
TEXT
  5
23C
330
231
100
AcDbEntity
  8
0
  6
Continuous
 62
    15
100
AcDbText
 10
137.2755126953125
 20
25.15426087379456
 30
0.0
 40
1.759999990463257
  1
DRAWING No
  7
ARIAL
100
AcDbText
  0
TEXT
  5
23D
330
231
100
AcDbEntity
  8
0
  6
Continuous
 62
    15
100
AcDbText
 10
137.2755126953125
 20
35.30853486061096
 30
0.0
 40
1.759999990463257
  1
SCALE
  7
ARIAL
100
AcDbText
  0
TEXT
  5
23E
330
231
100
AcDbEntity
  8
0
  6
Continuous
 62
    15
100
AcDbText
 10
168.3267059326172
 20
35.30853486061096
 30
0.0
 40
1.759999990463257
  1
APPROVED
  7
ARIAL
100
AcDbText
  0
TEXT
  5
23F
330
231
100
AcDbEntity
  8
0
  6
Continuous
 62
    15
100
AcDbText
 10
168.3267059326172
 20
25.15426087379456
 30
0.0
 40
1.759999990463257
  1
DATE
  7
ARIAL
100
AcDbText
  0
TEXT
  5
240
330
231
100
AcDbEntity
  8
0
  6
Continuous
 62
    15
100
AcDbText
 10
121.7850818634033
 20
273.1621387004852
 30
0.0
 40
1.059999942779541
  1
DATE
  7
ARIAL
100
AcDbText
  0
TEXT
  5
241
330
231
100
AcDbEntity
  8
0
  6
Continuous
 62
    15
100
AcDbText
 10
129.7850914001465
 20
273.1621387004852
 30
0.0
 40
1.059999942779541
  1
ISSUE
  7
ARIAL
100
AcDbText
  0
TEXT
  5
242
330
231
100
AcDbEntity
  8
0
  6
Continuous
 62
    15
100
AcDbText
 10
153.1041603088379
 20
273.1621387004852
 30
0.0
 40
1.059999942779541
  1
CHANGE
  7
ARIAL
100
AcDbText
  0
TEXT
  5
243
330
231
100
AcDbEntity
  8
0
  6
Continuous
 62
    15
100
AcDbText
 10
185.7850799560547
 20
273.1621387004852
 30
0.0
 40
1.059999942779541
  1
SIGNED
  7
ARIAL
100
AcDbText
  0
TEXT
  5
244
330
231
100
AcDbEntity
  8
0
  6
Continuous
 62
    15
100
AcDbText
 10
0.580291748046875
 20
273.5897967815399
 30
0.0
 40
1.059999942779541
  1
THIS DRAWING  IS  THE PROPERTY OF  EXITEX  LTD  AND  MUST
  7
ARIAL
100
AcDbText
  0
TEXT
  5
245
330
231
100
AcDbEntity
  8
0
  6
Continuous
 62
    15
100
AcDbText
 10
0.580291748046875
 20
271.7877966165543
 30
0.0
 40
1.059999942779541
  1
NOT BE REPRODUCED IN WHOLE OR IN PART WITHOUT CONSENT
  7
ARIAL
100
AcDbText
  0
TEXT
  5
246
330
231
100
AcDbEntity
  8
0
  6
Continuous
 62
    15
100
AcDbText
 10
0.580291748046875
 20
269.9857964515686
 30
0.0
 40
1.059999942779541
  1
C  COPYRIGHT EXITEX.
  7
ARIAL
100
AcDbText
  0
LINE
  5
247
330
231
100
AcDbEntity
  8
0
  6
Continuous
 62
     9
100
AcDbLine
 10
197.785087647553
 20
271.1921336964456
 30
0.0
 11
121.7850876475531
 21
271.1921336964456
 31
0.0
  0
CIRCLE
  5
248
330
231
100
AcDbEntity
  8
0
  6
Continuous
 62
    15
100
AcDbCircle
 10
1.351006260388772
 20
270.4871209009121
 30
0.0
 40
0.7858324255611161
  0
ENDBLK
  5
233
330
231
100
AcDbEntity
  8
0
100
AcDbBlockEnd
  0
BLOCK
  5
24A
330
249
100
AcDbEntity
  8
0
100
AcDbBlockBegin
  2
GEN_BLOCK00000
 70
     0
 71
     0
 10
0.0
 20
0.0
 30
0.0
  3
GEN_BLOCK00000
  1

  0
LINE
  5
24D
330
249
100
AcDbEntity
  8
0
  6
Continuous
 62
    16
100
AcDbLine
 10
0.0000026988430477
 20
0.0000072407879657
 30
0.0
 11
0.0000026988430477
 21
278.0594585255471
 31
0.0
  0
LINE
  5
24E
330
249
100
AcDbEntity
  8
0
  6
Continuous
 62
    16
100
AcDbLine
 10
0.0000026988430477
 20
0.0000072407879657
 30
0.0
 11
199.0200119639592
 21
0.0000072407879657
 31
0.0
  0
LINE
  5
24F
330
249
100
AcDbEntity
  8
0
  6
Continuous
 62
    16
100
AcDbLine
 10
0.0000026988430477
 20
278.0594585255471
 30
0.0
 11
199.0200119639592
 21
278.0594585255471
 31
0.0
  0
LINE
  5
250
330
249
100
AcDbEntity
  8
0
  6
Continuous
 62
    16
100
AcDbLine
 10
0.0000026988430477
 20
20.00000724078797
 30
0.0
 11
199.0200119639592
 21
20.00000724078798
 31
0.0
  0
LINE
  5
251
330
249
100
AcDbEntity
  8
0
  6
Continuous
 62
    16
100
AcDbLine
 10
120.000002698843
 20
20.00000724078797
 30
0.0
 11
120.000002698843
 21
0.0000072407879657
 31
0.0
  0
LINE
  5
252
330
249
100
AcDbEntity
  8
0
  6
Continuous
 62
    16
100
AcDbLine
 10
104.7450599639593
 20
30.00000724078797
 30
0.0
 11
104.7450599639593
 21
20.00000724078797
 31
0.0
  0
LINE
  5
253
330
249
100
AcDbEntity
  8
0
  6
Continuous
 62
    16
100
AcDbLine
 10
136.1700439639593
 20
20.00000724078797
 30
0.0
 11
136.1700439639593
 21
40.00000724078797
 31
0.0
  0
LINE
  5
254
330
249
100
AcDbEntity
  8
0
  6
Continuous
 62
    16
100
AcDbLine
 10
167.5950279639593
 20
20.00000724078797
 30
0.0
 11
167.5950279639593
 21
40.00000724078797
 31
0.0
  0
LINE
  5
255
330
249
100
AcDbEntity
  8
0
  6
Continuous
 62
    16
100
AcDbLine
 10
120.000002698843
 20
10.00000724078797
 30
0.0
 11
199.0200119639592
 21
10.00000724078801
 31
0.0
  0
LINE
  5
256
330
249
100
AcDbEntity
  8
0
  6
Continuous
 62
    16
100
AcDbLine
 10
136.1700439639593
 20
40.00000724078798
 30
0.0
 11
199.0200119639592
 21
40.00000724078797
 31
0.0
  0
LINE
  5
257
330
249
100
AcDbEntity
  8
0
  6
Continuous
 62
    16
100
AcDbLine
 10
104.7450599639593
 20
30.00000724078797
 30
0.0
 11
199.0200119639592
 21
30.00000724078797
 31
0.0
  0
ENDBLK
  5
24B
330
249
100
AcDbEntity
  8
0
100
AcDbBlockEnd
  0
BLOCK
  5
25A
330
259
100
AcDbEntity
  8
0
100
AcDbBlockBegin
  2
GEN_BLOCK00001
 70
     0
 71
     0
 10
0.0
 20
0.0
 30
0.0
  3
GEN_BLOCK00001
  1

  0
LINE
  5
25D
330
259
100
AcDbEntity
  8
1
  6
HIDDEN
 62
    15
100
AcDbLine
 10
0.0000001022673644
 20
-0.0000005403687311
 30
0.0
 11
0.0000001022673644
 21
-0.0000005403687311
 31
0.0
  0
ENDBLK
  5
25B
330
259
100
AcDbEntity
  8
0
100
AcDbBlockEnd
  0
BLOCK
  5
25F
330
25E
100
AcDbEntity
  8
0
100
AcDbBlockBegin
  2
GEN_BLOCK00002
 70
     0
 71
     0
 10
0.0
 20
0.0
 30
0.0
  3
GEN_BLOCK00002
  1

  0
LINE
  5
262
330
25E
100
AcDbEntity
  8
1
  6
Continuous
 62
    15
100
AcDbLine
 10
2.649999629728905
 20
0.9999995207054759
 30
0.0
 11
2.444295924051539
 21
1.205703226382841
 31
0.0
  0
LINE
  5
263
330
25E
100
AcDbEntity
  8
1
  6
Continuous
 62
    15
100
AcDbLine
 10
2.367157034422527
 20
1.282842116011853
 30
0.0
 11
2.161453328745161
 21
1.488545821689218
 31
0.0
  0
LINE
  5
264
330
25E
100
AcDbEntity
  8
1
  6
Continuous
 62
    15
100
AcDbLine
 10
2.084314439116149
 20
1.56568471131823
 30
0.0
 11
1.878610733438784
 21
1.771388416995595
 31
0.0
  0
LINE
  5
265
330
25E
100
AcDbEntity
  8
1
  6
Continuous
 62
    15
100
AcDbLine
 10
2.649999705704272
 20
0.9999994447301077
 30
0.0
 11
2.649999705704272
 21
0.9999994447301077
 31
0.0
  0
LINE
  5
266
330
25E
100
AcDbEntity
  8
1
  6
Continuous
 62
    15
100
AcDbLine
 10
2.084314439116149
 20
0.9999995207054759
 30
0.0
 11
1.878610733438784
 21
1.205703226382841
 31
0.0
  0
LINE
  5
267
330
25E
100
AcDbEntity
  8
1
  6
Continuous
 62
    15
100
AcDbLine
 10
2.849999594776394
 20
1.365684746270745
 30
0.0
 11
2.727138519357918
 21
1.488545821689222
 31
0.0
  0
LINE
  5
268
330
25E
100
AcDbEntity
  8
1
  6
Continuous
 62
    15
100
AcDbLine
 10
2.649999629728906
 20
1.565684711318234
 30
0.0
 11
2.465113070127019
 21
1.750571270920119
 31
0.0
  0
LINE
  5
269
330
25E
100
AcDbEntity
  8
1
  6
Continuous
 62
    15
100
AcDbLine
 10
2.849999594776394
 20
1.931369936883499
 30
0.0
 11
2.727138519357917
 21
2.054231012301976
 31
0.0
  0
LINE
  5
26A
330
25E
100
AcDbEntity
  8
1
  6
Continuous
 62
    15
100
AcDbLine
 10
2.649999629728905
 20
2.131369901930988
 30
0.0
 11
2.649999606697323
 21
2.13136992496257
 31
0.0
  0
LINE
  5
26B
330
25E
100
AcDbEntity
  8
1
  6
Continuous
 62
    15
100
AcDbLine
 10
2.849999594776395
 20
2.497055127496253
 30
0.0
 11
2.727138519357918
 21
2.61991620291473
 31
0.0
  0
LINE
  5
26C
330
25E
100
AcDbEntity
  8
1
  6
Continuous
 62
    15
100
AcDbLine
 10
2.649999629728906
 20
2.697055092543742
 30
0.0
 11
2.649999606697326
 21
2.697055115575321
 31
0.0
  0
LINE
  5
26D
330
25E
100
AcDbEntity
  8
1
  6
Continuous
 62
    15
100
AcDbLine
 10
3.1627404681553
 20
2.749999444730104
 30
0.0
 11
3.009981114664295
 21
2.902758798221107
 31
0.0
  0
LINE
  5
26E
330
25E
100
AcDbEntity
  8
1
  6
Continuous
 62
    15
100
AcDbLine
 10
2.932842225035283
 20
2.979897687850119
 30
0.0
 11
2.912740483056457
 21
2.999999429828943
 31
0.0
  0
LINE
  5
26F
330
25E
100
AcDbEntity
  8
1
  6
Continuous
 62
    15
100
AcDbLine
 10
3.57671118556684
 20
2.901713917931318
 30
0.0
 11
3.57566630527705
 21
2.902758798221107
 31
0.0
  0
LINE
  5
270
330
25E
100
AcDbEntity
  8
1
  6
Continuous
 62
    15
100
AcDbLine
 10
2.649999629728905
 20
0.9999995207054795
 30
0.0
 11
2.64999955375354
 21
0.9999994447301148
 31
0.0
  0
LINE
  5
271
330
25E
100
AcDbEntity
  8
1
  6
Continuous
 62
    15
100
AcDbLine
 10
2.727138519357917
 20
1.077138410334491
 30
0.0
 11
2.849999594776393
 21
1.199999485752969
 31
0.0
  0
LINE
  5
272
330
25E
100
AcDbEntity
  8
1
  6
Continuous
 62
    15
100
AcDbLine
 10
2.367157034422524
 20
1.282842116011857
 30
0.0
 11
2.161453328745158
 21
1.077138410334491
 31
0.0
  0
LINE
  5
273
330
25E
100
AcDbEntity
  8
1
  6
Continuous
 62
    15
100
AcDbLine
 10
2.084314439116145
 20
0.9999995207054795
 30
0.0
 11
2.084314363140781
 21
0.9999994447301148
 31
0.0
  0
LINE
  5
274
330
25E
100
AcDbEntity
  8
1
  6
Continuous
 62
    15
100
AcDbLine
 10
2.444295924051536
 20
1.359981005640869
 30
0.0
 11
2.649999629728902
 21
1.565684711318234
 31
0.0
  0
LINE
  5
275
330
25E
100
AcDbEntity
  8
1
  6
Continuous
 62
    15
100
AcDbLine
 10
2.727138519357914
 20
1.642823600947246
 30
0.0
 11
2.84999959477639
 21
1.765684676365723
 31
0.0
  0
LINE
  5
276
330
25E
100
AcDbEntity
  8
1
  6
Continuous
 62
    15
100
AcDbLine
 10
3.292823709970671
 20
2.774193982172754
 30
0.0
 11
3.496313322055618
 21
2.977683594257702
 31
0.0
  0
LINE
  5
277
330
25E
100
AcDbEntity
  8
1
  6
Continuous
 62
    15
100
AcDbLine
 10
2.649999606697321
 20
2.131369878899406
 30
0.0
 11
2.649999629728903
 21
2.131369901930988
 31
0.0
  0
LINE
  5
278
330
25E
100
AcDbEntity
  8
1
  6
Continuous
 62
    15
100
AcDbLine
 10
2.727138519357915
 20
2.20850879156
 30
0.0
 11
2.849999594776392
 21
2.331369866978477
 31
0.0
  0
LINE
  5
279
330
25E
100
AcDbEntity
  8
1
  6
Continuous
 62
    15
100
AcDbLine
 10
2.084314439116147
 20
1.565684711318234
 30
0.0
 11
1.87861073343878
 21
1.359981005640869
 31
0.0
  0
LINE
  5
27A
330
25E
100
AcDbEntity
  8
1
  6
Continuous
 62
    15
100
AcDbLine
 10
2.161453328745159
 20
1.642823600947246
 30
0.0
 11
2.274380469896237
 21
1.755750742098325
 31
0.0
  0
LINE
  5
27B
330
25E
100
AcDbEntity
  8
1
  6
Continuous
 62
    15
100
AcDbLine
 10
2.64999960669732
 20
2.697055069512157
 30
0.0
 11
2.649999629728905
 21
2.697055092543742
 31
0.0
  0
LINE
  5
27C
330
25E
100
AcDbEntity
  8
1
  6
Continuous
 62
    15
100
AcDbLine
 10
2.727138519357917
 20
2.774193982172754
 30
0.0
 11
2.932842225035283
 21
2.979897687850119
 31
0.0
  0
LINE
  5
27D
330
25E
100
AcDbEntity
  8
1
  6
Continuous
 62
    15
100
AcDbLine
 10
2.95294396701411
 20
2.999999429828947
 30
0.0
 11
2.95294396701411
 21
2.999999429828947
 31
0.0
  0
LINE
  5
27E
330
25E
100
AcDbEntity
  8
1
  6
Continuous
 62
    15
100
AcDbLine
 10
1.878610733438782
 20
1.925666196253623
 30
0.0
 11
1.930648611876922
 21
1.977704074691761
 31
0.0
  0
LINE
  5
27F
330
25E
100
AcDbEntity
  8
1
  6
Continuous
 62
    15
100
AcDbLine
 10
3.39999963119847
 20
5.249999444730111
 30
0.0
 11
3.5470552134881
 21
5.10294386244048
 31
0.0
  0
LINE
  5
280
330
25E
100
AcDbEntity
  8
1
  6
Continuous
 62
    15
100
AcDbLine
 10
3.563349258416965
 20
5.086649817511617
 30
0.0
 11
3.563349258416965
 21
5.086649817511617
 31
0.0
  0
LINE
  5
281
330
25E
100
AcDbEntity
  8
1
  6
Continuous
 62
    15
100
AcDbLine
 10
2.399999597670858
 20
6.24999947825772
 30
0.0
 11
2.415684832262588
 21
6.234314243665992
 31
0.0
  0
LINE
  5
282
330
25E
100
AcDbEntity
  8
1
  6
Continuous
 62
    15
100
AcDbLine
 10
2.4928237218916
 20
6.15717535403698
 30
0.0
 11
2.698527427568966
 21
5.951471648359615
 31
0.0
  0
LINE
  5
283
330
25E
100
AcDbEntity
  8
1
  6
Continuous
 62
    15
100
AcDbLine
 10
2.775666317197978
 20
5.874332758730603
 30
0.0
 11
2.849999594776391
 21
5.799999481152192
 31
0.0
  0
LINE
  5
284
330
25E
100
AcDbEntity
  8
1
  6
Continuous
 62
    15
100
AcDbLine
 10
1.849999594776397
 20
6.799999481152177
 30
0.0
 11
1.849999594776396
 21
6.799999481152177
 31
0.0
  0
LINE
  5
285
330
25E
100
AcDbEntity
  8
1
  6
Continuous
 62
    15
100
AcDbLine
 10
2.649999606697323
 20
5.434314278618505
 30
0.0
 11
2.698527427568966
 21
5.38578645774686
 31
0.0
  0
LINE
  5
286
330
25E
100
AcDbEntity
  8
1
  6
Continuous
 62
    15
100
AcDbLine
 10
2.775666317197978
 20
5.308647568117848
 30
0.0
 11
2.981370022875344
 21
5.102943862440483
 31
0.0
  0
LINE
  5
287
330
25E
100
AcDbEntity
  8
1
  6
Continuous
 62
    15
100
AcDbLine
 10
3.058508912504356
 20
5.025804972811471
 30
0.0
 11
3.084314425684549
 21
4.99999945963128
 31
0.0
  0
LINE
  5
288
330
25E
100
AcDbEntity
  8
1
  6
Continuous
 62
    15
100
AcDbLine
 10
1.849999594776396
 20
6.23431429053943
 30
0.0
 11
1.849999641649834
 21
6.234314243665992
 31
0.0
  0
LINE
  5
289
330
25E
100
AcDbEntity
  8
1
  6
Continuous
 62
    15
100
AcDbLine
 10
1.927138531278846
 20
6.15717535403698
 30
0.0
 11
1.988690606220677
 21
6.09562327909515
 31
0.0
  0
LINE
  5
28A
330
25E
100
AcDbEntity
  8
1
  6
Continuous
 62
    15
100
AcDbLine
 10
2.215684821811225
 20
6.999999444730108
 30
0.0
 11
2.415684832262589
 21
6.799999434278746
 31
0.0
  0
LINE
  5
28B
330
25E
100
AcDbEntity
  8
1
  6
Continuous
 62
    15
100
AcDbLine
 10
2.492823721891601
 20
6.722860544649734
 30
0.0
 11
2.698527427568967
 21
6.517156838972369
 31
0.0
  0
LINE
  5
28C
330
25E
100
AcDbEntity
  8
1
  6
Continuous
 62
    15
100
AcDbLine
 10
2.775666317197979
 20
6.440017949343357
 30
0.0
 11
2.849999594776393
 21
6.365684671764946
 31
0.0
  0
LINE
  5
28D
330
25E
100
AcDbEntity
  8
1
  6
Continuous
 62
    15
100
AcDbLine
 10
1.849999641649832
 20
6.799999434278746
 30
0.0
 11
1.849999594776396
 21
6.799999387405308
 31
0.0
  0
LINE
  5
28E
330
25E
100
AcDbEntity
  8
1
  6
Continuous
 62
    15
100
AcDbLine
 10
1.927138531278844
 20
6.877138323907758
 30
0.0
 11
2.049999652101194
 21
6.999999444730108
 31
0.0
  0
LINE
  5
28F
330
25E
100
AcDbEntity
  8
1
  6
Continuous
 62
    15
100
AcDbLine
 10
2.132842236956209
 20
6.517156838972369
 30
0.0
 11
1.927138531278842
 21
6.311453133295004
 31
0.0
  0
LINE
  5
290
330
25E
100
AcDbEntity
  8
1
  6
Continuous
 62
    15
100
AcDbLine
 10
1.849999641649831
 20
6.234314243665992
 30
0.0
 11
1.849999594776392
 21
6.234314196792553
 31
0.0
  0
LINE
  5
291
330
25E
100
AcDbEntity
  8
1
  6
Continuous
 62
    15
100
AcDbLine
 10
2.209981126585221
 20
6.594295728601381
 30
0.0
 11
2.415684832262587
 21
6.799999434278746
 31
0.0
  0
LINE
  5
292
330
25E
100
AcDbEntity
  8
1
  6
Continuous
 62
    15
100
AcDbLine
 10
2.492823721891599
 20
6.877138323907758
 30
0.0
 11
2.615684842713946
 21
6.999999444730101
 31
0.0
  0
LINE
  5
293
330
25E
100
AcDbEntity
  8
1
  6
Continuous
 62
    15
100
AcDbLine
 10
2.492823721891599
 20
6.311453133295004
 30
0.0
 11
2.698527427568965
 21
6.517156838972369
 31
0.0
  0
LINE
  5
294
330
25E
100
AcDbEntity
  8
1
  6
Continuous
 62
    15
100
AcDbLine
 10
2.775666317197977
 20
6.594295728601381
 30
0.0
 11
2.849999594776391
 21
6.668629006179792
 31
0.0
  0
LINE
  5
295
330
25E
100
AcDbEntity
  8
1
  6
Continuous
 62
    15
100
AcDbLine
 10
2.698527427568964
 20
5.951471648359615
 30
0.0
 11
2.649999606697322
 21
5.902943827487974
 31
0.0
  0
LINE
  5
296
330
25E
100
AcDbEntity
  8
1
  6
Continuous
 62
    15
100
AcDbLine
 10
2.775666317197976
 20
6.028610537988627
 30
0.0
 11
2.84999959477639
 21
6.102943815567045
 31
0.0
  0
LINE
  5
297
330
25E
100
AcDbEntity
  8
1
  6
Continuous
 62
    15
100
AcDbLine
 10
2.849999594776394
 20
5.537258624954287
 30
0.0
 11
2.775666317197978
 21
5.462925347375872
 31
0.0
  0
LINE
  5
298
330
25E
100
AcDbEntity
  8
1
  6
Continuous
 62
    15
100
AcDbLine
 10
2.698527427568966
 20
5.38578645774686
 30
0.0
 11
2.649999606697325
 21
5.33725863687522
 31
0.0
  0
LINE
  5
299
330
25E
100
AcDbEntity
  8
1
  6
Continuous
 62
    15
100
AcDbLine
 10
3.128425605164973
 20
5.249999444730111
 30
0.0
 11
3.058508912504355
 21
5.180082752069495
 31
0.0
  0
LINE
  5
29A
330
25E
100
AcDbEntity
  8
1
  6
Continuous
 62
    15
100
AcDbLine
 10
2.981370022875343
 20
5.102943862440483
 30
0.0
 11
2.878425620066134
 21
4.999999459631272
 31
0.0
  0
LINE
  5
29B
330
25E
100
AcDbEntity
  8
1
  6
Continuous
 62
    15
100
AcDbLine
 10
3.547055213488099
 20
5.102943862440483
 30
0.0
 11
3.451144375478385
 21
5.007033024430768
 31
0.0
  0
LINE
  5
29C
330
25E
100
AcDbEntity
  8
1
  6
Continuous
 62
    15
100
AcDbLine
 10
3.592202477007634
 20
5.148091125960018
 30
0.0
 11
3.592202477007634
 21
5.148091125960018
 31
0.0
  0
LINE
  5
29D
330
25E
100
AcDbEntity
  8
1
  6
Continuous
 62
    15
100
AcDbLine
 10
1.849999594776394
 20
2.749999522875427
 30
0.0
 11
2.649999606697321
 21
1.949999510954502
 31
0.0
  0
LINE
  5
29E
330
25E
100
AcDbEntity
  8
1
  6
Continuous
 62
    15
100
AcDbLine
 10
1.849999594776394
 20
3.881370389632643
 30
0.0
 11
2.755242502403829
 21
2.976127482005207
 31
0.0
  0
LINE
  5
29F
330
25E
100
AcDbEntity
  8
1
  6
Continuous
 62
    15
100
AcDbLine
 10
1.849999594776392
 20
5.012741256389859
 30
0.0
 11
3.396862672816658
 21
3.465878178349595
 31
0.0
  0
LINE
  5
2A0
330
25E
100
AcDbEntity
  8
1
  6
Continuous
 62
    15
100
AcDbLine
 10
1.94748909167371
 20
6.046622626249757
 30
0.0
 11
2.649999606697325
 21
5.344112111226142
 31
0.0
  0
LINE
  5
2A1
330
25E
100
AcDbEntity
  8
1
  6
Continuous
 62
    15
100
AcDbLine
 10
2.994112258292198
 20
4.999999459631269
 30
0.0
 11
3.401687953166566
 21
4.592423764756902
 31
0.0
  0
LINE
  5
2A2
330
25E
100
AcDbEntity
  8
1
  6
Continuous
 62
    15
100
AcDbLine
 10
4.569999635307553
 20
7.999999504334752
 30
0.0
 11
15.74157450009225
 21
14.82011200706755
 31
0.0
  0
ARC
  5
2A3
330
25E
100
AcDbEntity
  8
1
  6
Continuous
 62
    15
100
AcDbCircle
 10
15.9499995947764
 20
14.47870465520484
 30
0.0
 40
0.3999999999999978
100
AcDbArc
 50
301.4035648056335
 51
121.4035648056335
  0
LINE
  5
2A4
330
25E
100
AcDbEntity
  8
1
  6
Continuous
 62
    15
100
AcDbLine
 10
16.15842468946054
 20
14.13729730334214
 30
0.0
 11
10.34583274413353
 21
10.58877961631748
 31
0.0
  0
ARC
  5
2A5
330
25E
100
AcDbEntity
  8
1
  6
Continuous
 62
    15
100
AcDbCircle
 10
9.099999594776392
 20
8.71517353072668
 30
0.0
 40
2.25
100
AcDbArc
 50
341.2610915308524
 51
56.37853017329314
  0
ARC
  5
2A6
330
25E
100
AcDbEntity
  8
1
  6
Continuous
 62
    15
100
AcDbCircle
 10
-7.709114390580886
 20
14.41747017569933
 30
0.0
 40
20.0
100
AcDbArc
 50
317.7260252640424
 51
341.2610915308523
  0
LINE
  5
2A7
330
25E
100
AcDbEntity
  8
1
  6
Continuous
 62
    15
100
AcDbLine
 10
5.166312190755789
 20
7.426744423266484
 30
0.0
 11
9.539972534468092
 21
10.09681162094388
 31
0.0
  0
ARC
  5
2A8
330
25E
100
AcDbEntity
  8
1
  6
Continuous
 62
    15
100
AcDbCircle
 10
9.099999594776392
 20
8.71517353072668
 30
0.0
 40
1.45
100
AcDbArc
 50
341.2610915308522
 51
72.33628937978912
  0
ARC
  5
2A9
330
25E
100
AcDbEntity
  8
1
  6
Continuous
 62
    15
100
AcDbCircle
 10
-7.709114390580886
 20
14.41747017569933
 30
0.0
 40
19.2
100
AcDbArc
 50
320.2523331915361
 51
341.2610915308523
  0
LINE
  5
2AA
330
25E
100
AcDbEntity
  8
1
  6
Continuous
 62
    15
100
AcDbLine
 10
3.627142472014526
 20
5.249999444730108
 30
0.0
 11
3.049999594776395
 21
5.249999444730108
 31
0.0
  0
LINE
  5
2AB
330
25E
100
AcDbEntity
  8
1
  6
Continuous
 62
    15
100
AcDbLine
 10
2.849999594776392
 20
5.449999444730103
 30
0.0
 11
2.849999594776392
 21
6.799999444730105
 31
0.0
  0
LINE
  5
2AC
330
25E
100
AcDbEntity
  8
1
  6
Continuous
 62
    15
100
AcDbLine
 10
2.649999594776396
 20
6.999999444730108
 30
0.0
 11
2.049999594776395
 21
6.999999444730108
 31
0.0
  0
LINE
  5
2AD
330
25E
100
AcDbEntity
  8
1
  6
Continuous
 62
    15
100
AcDbLine
 10
1.849999594776392
 20
6.799999444730105
 30
0.0
 11
1.849999594776392
 21
1.199999444730103
 31
0.0
  0
LINE
  5
2AE
330
25E
100
AcDbEntity
  8
1
  6
Continuous
 62
    15
100
AcDbLine
 10
2.049999594776395
 20
0.9999994447301077
 30
0.0
 11
2.649999594776396
 21
0.9999994447301077
 31
0.0
  0
LINE
  5
2AF
330
25E
100
AcDbEntity
  8
1
  6
Continuous
 62
    15
100
AcDbLine
 10
2.849999594776392
 20
1.199999444730103
 30
0.0
 11
2.849999594776392
 21
2.549999444730105
 31
0.0
  0
LINE
  5
2B0
330
25E
100
AcDbEntity
  8
1
  6
Continuous
 62
    15
100
AcDbLine
 10
3.049999594776395
 20
2.749999444730108
 30
0.0
 11
3.631338895712318
 21
2.749999444730108
 31
0.0
  0
ARC
  5
2B1
330
25E
100
AcDbEntity
  8
1
  6
Continuous
 62
    15
100
AcDbCircle
 10
2.649999594776396
 20
1.199999444730103
 30
0.0
 40
0.2
100
AcDbArc
 50
270.0
 51
0.0
  0
ARC
  5
2B2
330
25E
100
AcDbEntity
  8
1
  6
Continuous
 62
    15
100
AcDbCircle
 10
3.049999594776395
 20
2.549999444730105
 30
0.0
 40
0.2
100
AcDbArc
 50
90.0
 51
180.0
  0
ARC
  5
2B3
330
25E
100
AcDbEntity
  8
1
  6
Continuous
 62
    15
100
AcDbCircle
 10
3.049999594776395
 20
5.449999444730103
 30
0.0
 40
0.2
100
AcDbArc
 50
180.0
 51
270.0
  0
ARC
  5
2B4
330
25E
100
AcDbEntity
  8
1
  6
Continuous
 62
    15
100
AcDbCircle
 10
2.649999594776396
 20
6.799999444730105
 30
0.0
 40
0.2
100
AcDbArc
 50
0.0
 51
90.0
  0
ARC
  5
2B5
330
25E
100
AcDbEntity
  8
1
  6
Continuous
 62
    15
100
AcDbCircle
 10
2.049999594776395
 20
6.799999444730105
 30
0.0
 40
0.2
100
AcDbArc
 50
90.0
 51
180.0
  0
ARC
  5
2B6
330
25E
100
AcDbEntity
  8
1
  6
Continuous
 62
    15
100
AcDbCircle
 10
2.049999594776395
 20
1.199999444730103
 30
0.0
 40
0.2
100
AcDbArc
 50
180.0
 51
270.0
  0
LINE
  5
2B7
330
25E
100
AcDbEntity
  8
1
  6
Continuous
 62
    15
100
AcDbLine
 10
5.191713966701194
 20
7.500832936440595
 30
0.0
 11
3.991428198114747
 21
3.999999444730108
 31
0.0
  0
LINE
  5
2B8
330
25E
100
AcDbEntity
  8
1
  6
Continuous
 62
    15
100
AcDbLine
 10
-0.000000432790749
 20
4.999999459631262
 30
0.0
 11
-0.000000432790749
 21
4.999999459631262
 31
0.0
  0
LINE
  5
2B9
330
25E
100
AcDbEntity
  8
1
  6
Continuous
 62
    15
100
AcDbLine
 10
-0.000000432790749
 20
4.999999459631262
 30
0.0
 11
-0.000000432790749
 21
4.999999459631262
 31
0.0
  0
LINE
  5
2BA
330
25E
100
AcDbEntity
  8
1
  6
Continuous
 62
    15
100
AcDbLine
 10
-0.000000432790749
 20
4.999999459631262
 30
0.0
 11
-0.000000432790749
 21
4.999999459631262
 31
0.0
  0
LINE
  5
2BB
330
25E
100
AcDbEntity
  8
1
  6
Continuous
 62
    15
100
AcDbLine
 10
-0.000000432790749
 20
4.999999459631262
 30
0.0
 11
-0.000000432790749
 21
4.999999459631262
 31
0.0
  0
LINE
  5
2BC
330
25E
100
AcDbEntity
  8
1
  6
Continuous
 62
    15
100
AcDbLine
 10
-0.000000432790749
 20
4.999999459631262
 30
0.0
 11
-0.000000432790749
 21
4.999999459631262
 31
0.0
  0
LINE
  5
2BD
330
25E
100
AcDbEntity
  8
1
  6
Continuous
 62
    15
100
AcDbLine
 10
-0.000000432790749
 20
4.999999459631262
 30
0.0
 11
-0.000000432790749
 21
4.999999459631262
 31
0.0
  0
LINE
  5
2BE
330
25E
100
AcDbEntity
  8
1
  6
Continuous
 62
    15
100
AcDbLine
 10
-0.000000432790749
 20
4.999999459631262
 30
0.0
 11
-0.000000432790749
 21
4.999999459631262
 31
0.0
  0
LINE
  5
2BF
330
25E
100
AcDbEntity
  8
1
  6
Continuous
 62
    15
100
AcDbLine
 10
-0.000000432790749
 20
4.999999459631262
 30
0.0
 11
-0.000000432790749
 21
4.999999459631262
 31
0.0
  0
LINE
  5
2C0
330
25E
100
AcDbEntity
  8
1
  6
Continuous
 62
    15
100
AcDbLine
 10
3.594571960926018
 20
2.86225247571484
 30
0.0
 11
4.419270757156056
 21
0.3443667704107085
 31
0.0
  0
LINE
  5
2C1
330
25E
100
AcDbEntity
  8
1
  6
Continuous
 62
    15
100
AcDbLine
 10
4.894432302705056
 20
-0.0000006148745442
 30
0.0
 11
5.812277313987316
 21
-0.0000006148745442
 31
0.0
  0
ARC
  5
2C2
330
25E
100
AcDbEntity
  8
1
  6
Continuous
 62
    15
100
AcDbCircle
 10
2.649999606697335
 20
4.999999459631269
 30
0.0
 40
6.000000089406967
100
AcDbArc
 50
305.0968012275845
 51
317.7260252640424
  0
LINE
  5
2C3
330
25E
100
AcDbEntity
  8
1
  6
Continuous
 62
    15
100
AcDbLine
 10
4.569999635307553
 20
7.999999504334752
 30
0.0
 11
3.587760238431656
 21
5.135134596780077
 31
0.0
  0
LINE
  5
2C4
330
25E
100
AcDbEntity
  8
1
  6
Continuous
 62
    15
100
AcDbLine
 10
1.849999594776392
 20
5.749999470807133
 30
0.0
 11
1.849999594776392
 21
2.249999418653076
 31
0.0
  0
LINE
  5
2C5
330
25E
100
AcDbEntity
  8
1
  6
Continuous
 62
    15
100
AcDbLine
 10
5.075616677599541
 20
0.7499993963013267
 30
0.0
 11
5.732206654110271
 21
0.7499993963013267
 31
0.0
  0
ARC
  5
2C6
330
25E
100
AcDbEntity
  8
1
  6
Continuous
 62
    15
100
AcDbCircle
 10
2.649999606697335
 20
4.999999459631269
 30
0.0
 40
5.250000078231096
100
AcDbArc
 50
305.9505676196178
 51
327.0025763907773
  0
LINE
  5
2C7
330
25E
100
AcDbEntity
  8
1
  6
Continuous
 62
    15
100
AcDbLine
 10
5.017045517357168
 20
6.991383292520467
 30
0.0
 11
3.991428198114747
 21
3.999999444730108
 31
0.0
  0
LINE
  5
2C8
330
25E
100
AcDbEntity
  8
1
  6
Continuous
 62
    15
100
AcDbLine
 10
3.991428198114747
 20
3.999999444730108
 30
0.0
 11
5.075616677599541
 21
0.7499993963013267
 31
0.0
  0
ARC
  5
2C9
330
25E
100
AcDbEntity
  8
1
  6
Continuous
 62
    15
100
AcDbCircle
 10
5.812277313987316
 20
0.4999993925760435
 30
0.0
 40
0.5000000074505806
100
AcDbArc
 50
270.0
 51
305.0968012275845
  0
ARC
  5
2CA
330
25E
100
AcDbEntity
  8
1
  6
Continuous
 62
    15
100
AcDbCircle
 10
4.894432302705056
 20
0.4999993925760364
 30
0.0
 40
0.5000000074505806
100
AcDbArc
 50
198.1354962559053
 51
270.0
  0
LINE
  5
2CB
330
25E
100
AcDbEntity
  8
1
  6
HIDDEN
 62
    15
100
AcDbLine
 10
3.587760238431656
 20
5.135134596780077
 30
0.0
 11
3.210511612732112
 21
4.034826105156405
 31
0.0
  0
LINE
  5
2CC
330
25E
100
AcDbEntity
  8
1
  6
HIDDEN
 62
    15
100
AcDbLine
 10
3.210511612732112
 20
4.034826105156405
 30
0.0
 11
3.594571960926011
 21
2.86225247571484
 31
0.0
  0
ENDBLK
  5
260
330
25E
100
AcDbEntity
  8
0
100
AcDbBlockEnd
  0
BLOCK
  5
2CE
330
2CD
100
AcDbEntity
  8
0
100
AcDbBlockBegin
  2
GEN_BLOCK00003
 70
     0
 71
     0
 10
0.0
 20
0.0
 30
0.0
  3
GEN_BLOCK00003
  1

  0
LINE
  5
2D1
330
2CD
100
AcDbEntity
  8
1
  6
HIDDEN
 62
    15
100
AcDbLine
 10
0.0000009193310575
 20
0.0000007661228238
 30
0.0
 11
0.0000009193310575
 21
0.0000007661228238
 31
0.0
  0
ENDBLK
  5
2CF
330
2CD
100
AcDbEntity
  8
0
100
AcDbBlockEnd
  0
BLOCK
  5
2D3
330
2D2
100
AcDbEntity
  8
0
100
AcDbBlockBegin
  2
GEN_BLOCK00004
 70
     0
 71
     0
 10
0.0
 20
0.0
 30
0.0
  3
GEN_BLOCK00004
  1

  0
LINE
  5
2D6
330
2D2
100
AcDbEntity
  8
1
  6
Continuous
 62
    15
100
AcDbLine
 10
2.649998328652643
 20
0.999996528718782
 30
0.0
 11
2.444294622975278
 21
1.205700234396147
 31
0.0
  0
LINE
  5
2D7
330
2D2
100
AcDbEntity
  8
1
  6
Continuous
 62
    15
100
AcDbLine
 10
2.367155733346266
 20
1.282839124025159
 30
0.0
 11
2.161452027668901
 21
1.488542829702524
 31
0.0
  0
LINE
  5
2D8
330
2D2
100
AcDbEntity
  8
1
  6
Continuous
 62
    15
100
AcDbLine
 10
2.084313138039889
 20
1.565681719331536
 30
0.0
 11
1.878609432362524
 21
1.771385425008901
 31
0.0
  0
LINE
  5
2D9
330
2D2
100
AcDbEntity
  8
1
  6
Continuous
 62
    15
100
AcDbLine
 10
2.649998404628015
 20
0.9999964527434173
 30
0.0
 11
2.649998404628015
 21
0.9999964527434173
 31
0.0
  0
LINE
  5
2DA
330
2D2
100
AcDbEntity
  8
1
  6
Continuous
 62
    15
100
AcDbLine
 10
2.084313138039889
 20
0.999996528718782
 30
0.0
 11
1.878609432362524
 21
1.205700234396147
 31
0.0
  0
LINE
  5
2DB
330
2D2
100
AcDbEntity
  8
1
  6
Continuous
 62
    15
100
AcDbLine
 10
2.849998293700132
 20
1.36568175428404
 30
0.0
 11
2.727137218281648
 21
1.488542829702524
 31
0.0
  0
LINE
  5
2DC
330
2D2
100
AcDbEntity
  8
1
  6
Continuous
 62
    15
100
AcDbLine
 10
2.649998328652636
 20
1.565681719331536
 30
0.0
 11
2.465111769050736
 21
1.750568278933429
 31
0.0
  0
LINE
  5
2DD
330
2D2
100
AcDbEntity
  8
1
  6
Continuous
 62
    15
100
AcDbLine
 10
2.849998293700139
 20
1.931366944896794
 30
0.0
 11
2.727137218281655
 21
2.054228020315279
 31
0.0
  0
LINE
  5
2DE
330
2D2
100
AcDbEntity
  8
1
  6
Continuous
 62
    15
100
AcDbLine
 10
2.649998328652643
 20
2.13136690994429
 30
0.0
 11
2.649998305621068
 21
2.131366932975865
 31
0.0
  0
LINE
  5
2DF
330
2D2
100
AcDbEntity
  8
1
  6
Continuous
 62
    15
100
AcDbLine
 10
2.849998293700125
 20
2.497052135509549
 30
0.0
 11
2.727137218281641
 21
2.619913210928033
 31
0.0
  0
LINE
  5
2E0
330
2D2
100
AcDbEntity
  8
1
  6
Continuous
 62
    15
100
AcDbLine
 10
2.649998328652629
 20
2.697052100557045
 30
0.0
 11
2.649998305621068
 21
2.697052123588605
 31
0.0
  0
LINE
  5
2E1
330
2D2
100
AcDbEntity
  8
1
  6
Continuous
 62
    15
100
AcDbLine
 10
3.162739167079003
 20
2.749996452743417
 30
0.0
 11
3.009979813588018
 21
2.902755806234396
 31
0.0
  0
LINE
  5
2E2
330
2D2
100
AcDbEntity
  8
1
  6
Continuous
 62
    15
100
AcDbLine
 10
2.932840923959006
 20
2.979894695863408
 30
0.0
 11
2.912739181980157
 21
2.999996437842256
 31
0.0
  0
LINE
  5
2E3
330
2D2
100
AcDbEntity
  8
1
  6
Continuous
 62
    15
100
AcDbLine
 10
3.576709884490612
 20
2.901710925944556
 30
0.0
 11
3.575665004200772
 21
2.902755806234396
 31
0.0
  0
LINE
  5
2E4
330
2D2
100
AcDbEntity
  8
1
  6
Continuous
 62
    15
100
AcDbLine
 10
2.649998328652636
 20
0.9999965287187678
 30
0.0
 11
2.649998252677271
 21
0.9999964527434031
 31
0.0
  0
LINE
  5
2E5
330
2D2
100
AcDbEntity
  8
1
  6
Continuous
 62
    15
100
AcDbLine
 10
2.727137218281648
 20
1.07713541834778
 30
0.0
 11
2.849998293700125
 21
1.199996493766264
 31
0.0
  0
LINE
  5
2E6
330
2D2
100
AcDbEntity
  8
1
  6
Continuous
 62
    15
100
AcDbLine
 10
2.367155733346259
 20
1.282839124025145
 30
0.0
 11
2.161452027668894
 21
1.07713541834778
 31
0.0
  0
LINE
  5
2E7
330
2D2
100
AcDbEntity
  8
1
  6
Continuous
 62
    15
100
AcDbLine
 10
2.084313138039882
 20
0.9999965287187678
 30
0.0
 11
2.08431306206451
 21
0.9999964527434031
 31
0.0
  0
LINE
  5
2E8
330
2D2
100
AcDbEntity
  8
1
  6
Continuous
 62
    15
100
AcDbLine
 10
2.444294622975271
 20
1.359978013654157
 30
0.0
 11
2.649998328652636
 21
1.565681719331522
 31
0.0
  0
LINE
  5
2E9
330
2D2
100
AcDbEntity
  8
1
  6
Continuous
 62
    15
100
AcDbLine
 10
2.727137218281648
 20
1.642820608960534
 30
0.0
 11
2.849998293700132
 21
1.765681684379018
 31
0.0
  0
LINE
  5
2EA
330
2D2
100
AcDbEntity
  8
1
  6
Continuous
 62
    15
100
AcDbLine
 10
3.292822408894402
 20
2.774190990186042
 30
0.0
 11
3.496312020979353
 21
2.977680602270993
 31
0.0
  0
LINE
  5
2EB
330
2D2
100
AcDbEntity
  8
1
  6
Continuous
 62
    15
100
AcDbLine
 10
2.64999830562104
 20
2.131366886912673
 30
0.0
 11
2.649998328652636
 21
2.131366909944276
 31
0.0
  0
LINE
  5
2EC
330
2D2
100
AcDbEntity
  8
1
  6
Continuous
 62
    15
100
AcDbLine
 10
2.727137218281648
 20
2.208505799573288
 30
0.0
 11
2.849998293700132
 21
2.331366874991772
 31
0.0
  0
LINE
  5
2ED
330
2D2
100
AcDbEntity
  8
1
  6
Continuous
 62
    15
100
AcDbLine
 10
2.084313138039882
 20
1.565681719331522
 30
0.0
 11
1.878609432362516
 21
1.359978013654157
 31
0.0
  0
LINE
  5
2EE
330
2D2
100
AcDbEntity
  8
1
  6
Continuous
 62
    15
100
AcDbLine
 10
2.161452027668894
 20
1.642820608960534
 30
0.0
 11
2.274379168819983
 21
1.755747750111624
 31
0.0
  0
LINE
  5
2EF
330
2D2
100
AcDbEntity
  8
1
  6
Continuous
 62
    15
100
AcDbLine
 10
2.649998305621047
 20
2.697052077525441
 30
0.0
 11
2.649998328652636
 21
2.69705210055703
 31
0.0
  0
LINE
  5
2F0
330
2D2
100
AcDbEntity
  8
1
  6
Continuous
 62
    15
100
AcDbLine
 10
2.727137218281648
 20
2.774190990186042
 30
0.0
 11
2.932840923959013
 21
2.979894695863408
 31
0.0
  0
LINE
  5
2F1
330
2D2
100
AcDbEntity
  8
1
  6
Continuous
 62
    15
100
AcDbLine
 10
2.952942665937847
 20
2.999996437842242
 30
0.0
 11
2.952942665937847
 21
2.999996437842242
 31
0.0
  0
LINE
  5
2F2
330
2D2
100
AcDbEntity
  8
1
  6
Continuous
 62
    15
100
AcDbLine
 10
1.878609432362516
 20
1.925663204266911
 30
0.0
 11
1.930647310800666
 21
1.977701082705067
 31
0.0
  0
LINE
  5
2F3
330
2D2
100
AcDbEntity
  8
1
  6
Continuous
 62
    15
100
AcDbLine
 10
3.399998330122209
 20
5.249996452743432
 30
0.0
 11
3.54705391241184
 21
5.102940870453793
 31
0.0
  0
LINE
  5
2F4
330
2D2
100
AcDbEntity
  8
1
  6
Continuous
 62
    15
100
AcDbLine
 10
3.56334795734071
 20
5.086646825524923
 30
0.0
 11
3.56334795734071
 21
5.086646825524923
 31
0.0
  0
LINE
  5
2F5
330
2D2
100
AcDbEntity
  8
1
  6
Continuous
 62
    15
100
AcDbLine
 10
2.39999829659461
 20
6.24999648627103
 30
0.0
 11
2.415683531186339
 21
6.234311251679301
 31
0.0
  0
LINE
  5
2F6
330
2D2
100
AcDbEntity
  8
1
  6
Continuous
 62
    15
100
AcDbLine
 10
2.492822420815351
 20
6.157172362050289
 30
0.0
 11
2.698526126492716
 21
5.951468656372924
 31
0.0
  0
LINE
  5
2F7
330
2D2
100
AcDbEntity
  8
1
  6
Continuous
 62
    15
100
AcDbLine
 10
2.775665016121728
 20
5.874329766743912
 30
0.0
 11
2.849998293700146
 21
5.799996489165494
 31
0.0
  0
LINE
  5
2F8
330
2D2
100
AcDbEntity
  8
1
  6
Continuous
 62
    15
100
AcDbLine
 10
1.849998293700146
 20
6.79999648916548
 30
0.0
 11
1.849998293700146
 21
6.79999648916548
 31
0.0
  0
LINE
  5
2F9
330
2D2
100
AcDbEntity
  8
1
  6
Continuous
 62
    15
100
AcDbLine
 10
2.649998305621061
 20
5.434311286631811
 30
0.0
 11
2.698526126492709
 21
5.38578346576017
 31
0.0
  0
LINE
  5
2FA
330
2D2
100
AcDbEntity
  8
1
  6
Continuous
 62
    15
100
AcDbLine
 10
2.775665016121721
 20
5.308644576131158
 30
0.0
 11
2.981368721799086
 21
5.102940870453793
 31
0.0
  0
LINE
  5
2FB
330
2D2
100
AcDbEntity
  8
1
  6
Continuous
 62
    15
100
AcDbLine
 10
3.058507611428098
 20
5.025801980824781
 30
0.0
 11
3.084313124608286
 21
4.999996467644593
 31
0.0
  0
LINE
  5
2FC
330
2D2
100
AcDbEntity
  8
1
  6
Continuous
 62
    15
100
AcDbLine
 10
1.849998293700146
 20
6.23431129855274
 30
0.0
 11
1.849998340573585
 21
6.234311251679301
 31
0.0
  0
LINE
  5
2FD
330
2D2
100
AcDbEntity
  8
1
  6
Continuous
 62
    15
100
AcDbLine
 10
1.927137230202597
 20
6.157172362050289
 30
0.0
 11
1.988689305144433
 21
6.09562028710846
 31
0.0
  0
LINE
  5
2FE
330
2D2
100
AcDbEntity
  8
1
  6
Continuous
 62
    15
100
AcDbLine
 10
2.21568352073497
 20
6.999996452743417
 30
0.0
 11
2.415683531186332
 21
6.799996442292056
 31
0.0
  0
LINE
  5
2FF
330
2D2
100
AcDbEntity
  8
1
  6
Continuous
 62
    15
100
AcDbLine
 10
2.492822420815344
 20
6.722857552663044
 30
0.0
 11
2.698526126492709
 21
6.517153846985678
 31
0.0
  0
LINE
  5
300
330
2D2
100
AcDbEntity
  8
1
  6
Continuous
 62
    15
100
AcDbLine
 10
2.775665016121721
 20
6.440014957356667
 30
0.0
 11
2.849998293700139
 21
6.365681679778248
 31
0.0
  0
LINE
  5
301
330
2D2
100
AcDbEntity
  8
1
  6
Continuous
 62
    15
100
AcDbLine
 10
1.84999834057357
 20
6.799996442292056
 30
0.0
 11
1.849998293700139
 21
6.799996395418617
 31
0.0
  0
LINE
  5
302
330
2D2
100
AcDbEntity
  8
1
  6
Continuous
 62
    15
100
AcDbLine
 10
1.927137230202582
 20
6.877135331921068
 30
0.0
 11
2.049998351024911
 21
6.999996452743389
 31
0.0
  0
LINE
  5
303
330
2D2
100
AcDbEntity
  8
1
  6
Continuous
 62
    15
100
AcDbLine
 10
2.132840935879948
 20
6.517153846985678
 30
0.0
 11
1.927137230202582
 21
6.311450141308313
 31
0.0
  0
LINE
  5
304
330
2D2
100
AcDbEntity
  8
1
  6
Continuous
 62
    15
100
AcDbLine
 10
1.84999834057357
 20
6.234311251679301
 30
0.0
 11
1.849998293700139
 21
6.234311204805863
 31
0.0
  0
LINE
  5
305
330
2D2
100
AcDbEntity
  8
1
  6
Continuous
 62
    15
100
AcDbLine
 10
2.20997982550896
 20
6.59429273661469
 30
0.0
 11
2.415683531186325
 21
6.799996442292056
 31
0.0
  0
LINE
  5
306
330
2D2
100
AcDbEntity
  8
1
  6
Continuous
 62
    15
100
AcDbLine
 10
2.492822420815337
 20
6.877135331921068
 30
0.0
 11
2.615683541637679
 21
6.999996452743417
 31
0.0
  0
LINE
  5
307
330
2D2
100
AcDbEntity
  8
1
  6
Continuous
 62
    15
100
AcDbLine
 10
2.492822420815337
 20
6.311450141308299
 30
0.0
 11
2.698526126492702
 21
6.517153846985664
 31
0.0
  0
LINE
  5
308
330
2D2
100
AcDbEntity
  8
1
  6
Continuous
 62
    15
100
AcDbLine
 10
2.775665016121714
 20
6.594292736614676
 30
0.0
 11
2.849998293700125
 21
6.668626014193094
 31
0.0
  0
LINE
  5
309
330
2D2
100
AcDbEntity
  8
1
  6
Continuous
 62
    15
100
AcDbLine
 10
2.698526126492709
 20
5.951468656372924
 30
0.0
 11
2.649998305621054
 21
5.902940835501269
 31
0.0
  0
LINE
  5
30A
330
2D2
100
AcDbEntity
  8
1
  6
Continuous
 62
    15
100
AcDbLine
 10
2.775665016121721
 20
6.028607546001936
 30
0.0
 11
2.849998293700139
 21
6.102940823580354
 31
0.0
  0
LINE
  5
30B
330
2D2
100
AcDbEntity
  8
1
  6
Continuous
 62
    15
100
AcDbLine
 10
2.849998293700139
 20
5.537255632967586
 30
0.0
 11
2.775665016121721
 21
5.462922355389168
 31
0.0
  0
LINE
  5
30C
330
2D2
100
AcDbEntity
  8
1
  6
Continuous
 62
    15
100
AcDbLine
 10
2.698526126492709
 20
5.385783465760156
 30
0.0
 11
2.649998305621068
 21
5.337255644888515
 31
0.0
  0
LINE
  5
30D
330
2D2
100
AcDbEntity
  8
1
  6
Continuous
 62
    15
100
AcDbLine
 10
3.128424304088718
 20
5.249996452743403
 30
0.0
 11
3.058507611428098
 21
5.180079760082791
 31
0.0
  0
LINE
  5
30E
330
2D2
100
AcDbEntity
  8
1
  6
Continuous
 62
    15
100
AcDbLine
 10
2.981368721799086
 20
5.102940870453779
 30
0.0
 11
2.878424318989879
 21
4.999996467644579
 31
0.0
  0
LINE
  5
30F
330
2D2
100
AcDbEntity
  8
1
  6
Continuous
 62
    15
100
AcDbLine
 10
3.54705391241184
 20
5.102940870453779
 30
0.0
 11
3.451143074402118
 21
5.007030032444064
 31
0.0
  0
LINE
  5
310
330
2D2
100
AcDbEntity
  8
1
  6
Continuous
 62
    15
100
AcDbLine
 10
3.592201175931358
 20
5.148088133973289
 30
0.0
 11
3.592201175931358
 21
5.148088133973289
 31
0.0
  0
LINE
  5
311
330
2D2
100
AcDbEntity
  8
1
  6
Continuous
 62
    15
100
AcDbLine
 10
1.849998293700139
 20
2.749996530888723
 30
0.0
 11
2.649998305621054
 21
1.949996518967808
 31
0.0
  0
LINE
  5
312
330
2D2
100
AcDbEntity
  8
1
  6
Continuous
 62
    15
100
AcDbLine
 10
1.849998293700146
 20
3.881367397645946
 30
0.0
 11
2.755241201327571
 21
2.97612449001852
 31
0.0
  0
LINE
  5
313
330
2D2
100
AcDbEntity
  8
1
  6
Continuous
 62
    15
100
AcDbLine
 10
1.849998293700146
 20
5.012738264403154
 30
0.0
 11
3.3968613717404
 21
3.465875186362894
 31
0.0
  0
LINE
  5
314
330
2D2
100
AcDbEntity
  8
1
  6
Continuous
 62
    15
100
AcDbLine
 10
1.947487790597464
 20
6.046619634263052
 30
0.0
 11
2.649998305621082
 21
5.344109119239434
 31
0.0
  0
LINE
  5
315
330
2D2
100
AcDbEntity
  8
1
  6
Continuous
 62
    15
100
AcDbLine
 10
2.994110957215938
 20
4.999996467644579
 30
0.0
 11
3.401686652090312
 21
4.592420772770211
 31
0.0
  0
LINE
  5
316
330
2D2
100
AcDbEntity
  8
1
  6
Continuous
 62
    15
100
AcDbLine
 10
4.5699983342313
 20
7.999996512348062
 30
0.0
 11
15.74157319901599
 21
14.82010901508086
 31
0.0
  0
ARC
  5
317
330
2D2
100
AcDbEntity
  8
1
  6
Continuous
 62
    15
100
AcDbCircle
 10
15.94999829370013
 20
14.47870166321815
 30
0.0
 40
0.3999999999999978
100
AcDbArc
 50
301.4035648056335
 51
121.4035648056335
  0
LINE
  5
318
330
2D2
100
AcDbEntity
  8
1
  6
Continuous
 62
    15
100
AcDbLine
 10
16.15842338838428
 20
14.13729431135545
 30
0.0
 11
10.34583144305728
 21
10.58877662433079
 31
0.0
  0
ARC
  5
319
330
2D2
100
AcDbEntity
  8
1
  6
Continuous
 62
    15
100
AcDbCircle
 10
9.09999829370014
 20
8.715170538739983
 30
0.0
 40
2.25
100
AcDbArc
 50
341.2610915308524
 51
56.37853017329314
  0
ARC
  5
31A
330
2D2
100
AcDbEntity
  8
1
  6
Continuous
 62
    15
100
AcDbCircle
 10
-7.709115691657146
 20
14.41746718371263
 30
0.0
 40
20.0
100
AcDbArc
 50
317.7260252640424
 51
341.2610915308523
  0
LINE
  5
31B
330
2D2
100
AcDbEntity
  8
1
  6
Continuous
 62
    15
100
AcDbLine
 10
5.166310889679522
 20
7.426741431279794
 30
0.0
 11
9.539971233391839
 21
10.09680862895719
 31
0.0
  0
ARC
  5
31C
330
2D2
100
AcDbEntity
  8
1
  6
Continuous
 62
    15
100
AcDbCircle
 10
9.09999829370014
 20
8.715170538739983
 30
0.0
 40
1.45
100
AcDbArc
 50
341.2610915308522
 51
72.33628937978912
  0
ARC
  5
31D
330
2D2
100
AcDbEntity
  8
1
  6
Continuous
 62
    15
100
AcDbCircle
 10
-7.709115691657146
 20
14.41746718371263
 30
0.0
 40
19.2
100
AcDbArc
 50
320.2523331915361
 51
341.2610915308523
  0
LINE
  5
31E
330
2D2
100
AcDbEntity
  8
1
  6
Continuous
 62
    15
100
AcDbLine
 10
3.627141170938259
 20
5.249996452743417
 30
0.0
 11
3.049998293700142
 21
5.249996452743417
 31
0.0
  0
LINE
  5
31F
330
2D2
100
AcDbEntity
  8
1
  6
Continuous
 62
    15
100
AcDbLine
 10
2.849998293700139
 20
5.44999645274342
 30
0.0
 11
2.849998293700139
 21
6.799996452743414
 31
0.0
  0
LINE
  5
320
330
2D2
100
AcDbEntity
  8
1
  6
Continuous
 62
    15
100
AcDbLine
 10
2.649998293700136
 20
6.999996452743417
 30
0.0
 11
2.049998293700142
 21
6.999996452743417
 31
0.0
  0
LINE
  5
321
330
2D2
100
AcDbEntity
  8
1
  6
Continuous
 62
    15
100
AcDbLine
 10
1.849998293700139
 20
6.799996452743414
 30
0.0
 11
1.849998293700139
 21
1.19999645274342
 31
0.0
  0
LINE
  5
322
330
2D2
100
AcDbEntity
  8
1
  6
Continuous
 62
    15
100
AcDbLine
 10
2.049998293700142
 20
0.9999964527434173
 30
0.0
 11
2.649998293700136
 21
0.9999964527434173
 31
0.0
  0
LINE
  5
323
330
2D2
100
AcDbEntity
  8
1
  6
Continuous
 62
    15
100
AcDbLine
 10
2.849998293700139
 20
1.19999645274342
 30
0.0
 11
2.849998293700139
 21
2.549996452743414
 31
0.0
  0
LINE
  5
324
330
2D2
100
AcDbEntity
  8
1
  6
Continuous
 62
    15
100
AcDbLine
 10
3.049998293700142
 20
2.749996452743417
 30
0.0
 11
3.631337594636065
 21
2.749996452743417
 31
0.0
  0
ARC
  5
325
330
2D2
100
AcDbEntity
  8
1
  6
Continuous
 62
    15
100
AcDbCircle
 10
2.649998293700136
 20
1.19999645274342
 30
0.0
 40
0.2
100
AcDbArc
 50
270.0
 51
0.0
  0
ARC
  5
326
330
2D2
100
AcDbEntity
  8
1
  6
Continuous
 62
    15
100
AcDbCircle
 10
3.049998293700142
 20
2.549996452743414
 30
0.0
 40
0.2
100
AcDbArc
 50
90.0
 51
180.0
  0
ARC
  5
327
330
2D2
100
AcDbEntity
  8
1
  6
Continuous
 62
    15
100
AcDbCircle
 10
3.049998293700142
 20
5.44999645274342
 30
0.0
 40
0.2
100
AcDbArc
 50
180.0
 51
270.0
  0
ARC
  5
328
330
2D2
100
AcDbEntity
  8
1
  6
Continuous
 62
    15
100
AcDbCircle
 10
2.649998293700136
 20
6.799996452743414
 30
0.0
 40
0.2
100
AcDbArc
 50
0.0
 51
90.0
  0
ARC
  5
329
330
2D2
100
AcDbEntity
  8
1
  6
Continuous
 62
    15
100
AcDbCircle
 10
2.049998293700142
 20
6.799996452743414
 30
0.0
 40
0.2
100
AcDbArc
 50
90.0
 51
180.0
  0
ARC
  5
32A
330
2D2
100
AcDbEntity
  8
1
  6
Continuous
 62
    15
100
AcDbCircle
 10
2.049998293700142
 20
1.19999645274342
 30
0.0
 40
0.2
100
AcDbArc
 50
180.0
 51
270.0
  0
LINE
  5
32B
330
2D2
100
AcDbEntity
  8
1
  6
Continuous
 62
    15
100
AcDbLine
 10
5.191712665624934
 20
7.500829944453898
 30
0.0
 11
3.99142689703848
 21
3.999996452743417
 31
0.0
  0
LINE
  5
32C
330
2D2
100
AcDbEntity
  8
1
  6
Continuous
 62
    15
100
AcDbLine
 10
-0.0000017338670091
 20
4.999996467644564
 30
0.0
 11
-0.0000017338670091
 21
4.999996467644564
 31
0.0
  0
LINE
  5
32D
330
2D2
100
AcDbEntity
  8
1
  6
Continuous
 62
    15
100
AcDbLine
 10
-0.0000017338670091
 20
4.999996467644564
 30
0.0
 11
-0.0000017338670091
 21
4.999996467644564
 31
0.0
  0
LINE
  5
32E
330
2D2
100
AcDbEntity
  8
1
  6
Continuous
 62
    15
100
AcDbLine
 10
-0.0000017338670091
 20
4.999996467644564
 30
0.0
 11
-0.0000017338670091
 21
4.999996467644564
 31
0.0
  0
LINE
  5
32F
330
2D2
100
AcDbEntity
  8
1
  6
Continuous
 62
    15
100
AcDbLine
 10
-0.0000017338670091
 20
4.999996467644564
 30
0.0
 11
-0.0000017338670091
 21
4.999996467644564
 31
0.0
  0
LINE
  5
330
330
2D2
100
AcDbEntity
  8
1
  6
Continuous
 62
    15
100
AcDbLine
 10
-0.0000017338670091
 20
4.999996467644564
 30
0.0
 11
-0.0000017338670091
 21
4.999996467644564
 31
0.0
  0
LINE
  5
331
330
2D2
100
AcDbEntity
  8
1
  6
Continuous
 62
    15
100
AcDbLine
 10
-0.0000017338670091
 20
4.999996467644564
 30
0.0
 11
-0.0000017338670091
 21
4.999996467644564
 31
0.0
  0
LINE
  5
332
330
2D2
100
AcDbEntity
  8
1
  6
Continuous
 62
    15
100
AcDbLine
 10
-0.0000017338670091
 20
4.999996467644564
 30
0.0
 11
-0.0000017338670091
 21
4.999996467644564
 31
0.0
  0
LINE
  5
333
330
2D2
100
AcDbEntity
  8
1
  6
Continuous
 62
    15
100
AcDbLine
 10
-0.0000017338670091
 20
4.999996467644564
 30
0.0
 11
-0.0000017338670091
 21
4.999996467644564
 31
0.0
  0
LINE
  5
334
330
2D2
100
AcDbEntity
  8
1
  6
Continuous
 62
    15
100
AcDbLine
 10
3.594570659849765
 20
2.862249483728149
 30
0.0
 11
4.419269456079803
 21
0.3443637784240252
 31
0.0
  0
LINE
  5
335
330
2D2
100
AcDbEntity
  8
1
  6
Continuous
 62
    15
100
AcDbLine
 10
4.894431001628803
 20
-0.0000036068612417
 30
0.0
 11
5.812276012911056
 21
-0.0000036068612417
 31
0.0
  0
ARC
  5
336
330
2D2
100
AcDbEntity
  8
1
  6
Continuous
 62
    15
100
AcDbCircle
 10
2.649998305621082
 20
4.999996467644579
 30
0.0
 40
6.000000089406967
100
AcDbArc
 50
305.0968012275845
 51
317.7260252640424
  0
LINE
  5
337
330
2D2
100
AcDbEntity
  8
1
  6
Continuous
 62
    15
100
AcDbLine
 10
4.5699983342313
 20
7.999996512348062
 30
0.0
 11
3.587758937355403
 21
5.135131604793386
 31
0.0
  0
LINE
  5
338
330
2D2
100
AcDbEntity
  8
1
  6
Continuous
 62
    15
100
AcDbLine
 10
1.849998293700139
 20
5.749996478820435
 30
0.0
 11
1.849998293700139
 21
2.249996426666385
 31
0.0
  0
LINE
  5
339
330
2D2
100
AcDbEntity
  8
1
  6
Continuous
 62
    15
100
AcDbLine
 10
5.075615376523274
 20
0.7499964043146292
 30
0.0
 11
5.732205353034018
 21
0.7499964043146292
 31
0.0
  0
ARC
  5
33A
330
2D2
100
AcDbEntity
  8
1
  6
Continuous
 62
    15
100
AcDbCircle
 10
2.649998305621082
 20
4.999996467644579
 30
0.0
 40
5.250000078231096
100
AcDbArc
 50
305.9505676196178
 51
327.0025763907773
  0
LINE
  5
33B
330
2D2
100
AcDbEntity
  8
1
  6
Continuous
 62
    15
100
AcDbLine
 10
5.017044216280908
 20
6.991380300533777
 30
0.0
 11
3.99142689703848
 21
3.999996452743417
 31
0.0
  0
LINE
  5
33C
330
2D2
100
AcDbEntity
  8
1
  6
Continuous
 62
    15
100
AcDbLine
 10
3.99142689703848
 20
3.999996452743417
 30
0.0
 11
5.075615376523274
 21
0.7499964043146292
 31
0.0
  0
ARC
  5
33D
330
2D2
100
AcDbEntity
  8
1
  6
Continuous
 62
    15
100
AcDbCircle
 10
5.812276012911056
 20
0.4999964005893531
 30
0.0
 40
0.5000000074505806
100
AcDbArc
 50
270.0
 51
305.0968012275845
  0
ARC
  5
33E
330
2D2
100
AcDbEntity
  8
1
  6
Continuous
 62
    15
100
AcDbCircle
 10
4.894431001628803
 20
0.4999964005893389
 30
0.0
 40
0.5000000074505806
100
AcDbArc
 50
198.1354962559053
 51
270.0
  0
LINE
  5
33F
330
2D2
100
AcDbEntity
  8
1
  6
HIDDEN
 62
    15
100
AcDbLine
 10
3.587758937355403
 20
5.135131604793386
 30
0.0
 11
3.210510311655852
 21
4.034823113169722
 31
0.0
  0
LINE
  5
340
330
2D2
100
AcDbEntity
  8
1
  6
HIDDEN
 62
    15
100
AcDbLine
 10
3.210510311655852
 20
4.034823113169722
 30
0.0
 11
3.594570659849751
 21
2.862249483728149
 31
0.0
  0
ENDBLK
  5
2D4
330
2D2
100
AcDbEntity
  8
0
100
AcDbBlockEnd
  0
BLOCK
  5
342
330
341
100
AcDbEntity
  8
0
100
AcDbBlockBegin
  2
GEN_BLOCK00005
 70
     0
 71
     0
 10
0.0
 20
0.0
 30
0.0
  3
GEN_BLOCK00005
  1

  0
ARC
  5
345
330
341
100
AcDbEntity
  8
0
  6
Continuous
 62
    15
100
AcDbCircle
 10
6.558094072423224
 20
-3.345790670424492
 30
0.0
 40
8.177165026246895
100
AcDbArc
 50
117.0209269307648
 51
138.8194993480197
  0
ARC
  5
346
330
341
100
AcDbEntity
  8
0
  6
Continuous
 62
    15
100
AcDbCircle
 10
7.974496565270755
 20
-4.004459552573991
 30
0.0
 40
9.318469936955477
100
AcDbArc
 50
82.52882873452248
 51
101.6307449866929
  0
ARC
  5
347
330
341
100
AcDbEntity
  8
0
  6
Continuous
 62
    15
100
AcDbCircle
 10
6.123078467584371
 20
4.373170252991002
 30
0.0
 40
0.75
100
AcDbArc
 50
92.07978686061502
 51
110.0
  0
ARC
  5
348
330
341
100
AcDbEntity
  8
0
  6
Continuous
 62
    15
100
AcDbCircle
 10
6.123078467584371
 20
4.373170252991002
 30
0.0
 40
0.75
100
AcDbArc
 50
110.0
 51
200.0
  0
LINE
  5
349
330
341
100
AcDbEntity
  8
0
  6
Continuous
 62
    15
100
AcDbLine
 10
5.418309001994935
 20
4.11665514549675
 30
0.0
 11
5.777430152486893
 21
3.129977893671551
 31
0.0
  0
ARC
  5
34A
330
341
100
AcDbEntity
  8
0
  6
Continuous
 62
    15
100
AcDbCircle
 10
6.153307200801251
 20
3.266785951001815
 30
0.0
 40
0.4
100
AcDbArc
 50
200.0
 51
289.9999999999999
  0
LINE
  5
34B
330
341
100
AcDbEntity
  8
0
  6
Continuous
 62
    15
100
AcDbLine
 10
6.290115258131515
 20
2.89090890268745
 30
0.0
 11
7.041869354760244
 21
3.164525017347984
 31
0.0
  0
ARC
  5
34C
330
341
100
AcDbEntity
  8
0
  6
Continuous
 62
    15
100
AcDbCircle
 10
7.298384462254496
 20
2.459755551758555
 30
0.0
 40
0.75
100
AcDbArc
 50
20.00000000000009
 51
110.0
  0
LINE
  5
34D
330
341
100
AcDbEntity
  8
0
  6
Continuous
 62
    15
100
AcDbLine
 10
8.003153927843925
 20
2.716270659252807
 30
0.0
 11
8.139961985174196
 21
2.340393610938442
 31
0.0
  0
ARC
  5
34E
330
341
100
AcDbEntity
  8
0
  6
Continuous
 62
    15
100
AcDbCircle
 10
7.435192519584767
 20
2.08387850344419
 30
0.0
 40
0.75
100
AcDbArc
 50
290.0000000000001
 51
20.0
  0
LINE
  5
34F
330
341
100
AcDbEntity
  8
0
  6
Continuous
 62
    15
100
AcDbLine
 10
7.691707627079019
 20
1.379109037854761
 30
0.0
 11
4.026906406013971
 21
0.0452304788846476
 31
0.0
  0
ARC
  5
350
330
341
100
AcDbEntity
  8
0
  6
Continuous
 62
    15
100
AcDbCircle
 10
3.770391298519719
 20
0.7499999444740837
 30
0.0
 40
0.75
100
AcDbArc
 50
199.9999999999998
 51
289.9999999999998
  0
ARC
  5
351
330
341
100
AcDbEntity
  8
0
  6
Continuous
 62
    15
100
AcDbCircle
 10
3.770391298519719
 20
0.7499999444740837
 30
0.0
 40
0.75
100
AcDbArc
 50
199.9999999999998
 51
289.9999999999998
  0
LINE
  5
352
330
341
100
AcDbEntity
  8
0
  6
Continuous
 62
    15
100
AcDbLine
 10
3.06562183293029
 20
0.4934848369798317
 30
0.0
 11
2.928813775600023
 21
0.8693618852941967
 31
0.0
  0
ARC
  5
353
330
341
100
AcDbEntity
  8
0
  6
Continuous
 62
    15
100
AcDbCircle
 10
3.633583241189452
 20
1.125876992788449
 30
0.0
 40
0.75
100
AcDbArc
 50
109.9999999999999
 51
199.9999999999998
  0
LINE
  5
354
330
341
100
AcDbEntity
  8
0
  6
Continuous
 62
    15
100
AcDbLine
 10
3.377068133695204
 20
1.830646458377878
 30
0.0
 11
4.128822230323927
 21
2.104262573038412
 31
0.0
  0
ARC
  5
355
330
341
100
AcDbEntity
  8
0
  6
Continuous
 62
    15
100
AcDbCircle
 10
3.992014172993663
 20
2.480139621352777
 30
0.0
 40
0.4
100
AcDbArc
 50
290.0
 51
20.00000000000003
  0
LINE
  5
356
330
341
100
AcDbEntity
  8
0
  6
Continuous
 62
    15
100
AcDbLine
 10
4.367891221308021
 20
2.616947678683047
 30
0.0
 11
4.008770070816077
 21
3.603624930508246
 31
0.0
  0
ARC
  5
357
330
341
100
AcDbEntity
  8
0
  6
Continuous
 62
    15
100
AcDbCircle
 10
3.304000605226641
 20
3.347109823013994
 30
0.0
 40
0.75
100
AcDbArc
 50
20.00000000000005
 51
110.0
  0
LINE
  5
358
330
341
100
AcDbEntity
  8
0
  6
Continuous
 62
    15
100
AcDbLine
 10
3.047485497732389
 20
4.05187928860343
 30
0.0
 11
2.843077950560939
 21
3.938760316477769
 31
0.0
  0
ARC
  5
359
330
341
100
AcDbEntity
  8
0
  6
Continuous
 62
    15
100
AcDbCircle
 10
0.2499995876724412
 20
2.235544357205569
 30
0.0
 40
0.25
100
AcDbArc
 50
290.0000000000001
 51
318.4979393479002
  0
ARC
  5
35A
330
341
100
AcDbEntity
  8
0
  6
Continuous
 62
    15
100
AcDbCircle
 10
0.2499995876724412
 20
2.235544357205569
 30
0.0
 40
0.25
100
AcDbArc
 50
200.0
 51
290.0000000000001
  0
ARC
  5
35B
330
341
100
AcDbEntity
  8
0
  6
Continuous
 62
    15
100
AcDbCircle
 10
0.2499995876724412
 20
2.235544357205569
 30
0.0
 40
0.25
100
AcDbArc
 50
145.0568016610933
 51
200.0
  0
ARC
  5
35C
330
341
100
AcDbEntity
  8
0
  6
Continuous
 62
    15
100
AcDbCircle
 10
7.027980788547694
 20
-2.500442067538039
 30
0.0
 40
8.51862846715127
100
AcDbArc
 50
117.9632131752917
 51
145.0568016610933
  0
ARC
  5
35D
330
341
100
AcDbEntity
  8
0
  6
Continuous
 62
    15
100
AcDbCircle
 10
2.799104698811867
 20
5.465251025104429
 30
0.0
 40
0.5
100
AcDbArc
 50
297.9632131752921
 51
20.00000000000002
  0
LINE
  5
35E
330
341
100
AcDbEntity
  8
0
  6
Continuous
 62
    15
100
AcDbLine
 10
3.268951009204823
 20
5.636261096767264
 30
0.0
 11
3.10823440325133
 21
6.077826342555881
 31
0.0
  0
ARC
  5
35F
330
341
100
AcDbEntity
  8
0
  6
Continuous
 62
    15
100
AcDbCircle
 10
3.578080713644283
 20
6.248836414218715
 30
0.0
 40
0.5
100
AcDbArc
 50
132.1062713386105
 51
200.0
  0
LINE
  5
360
330
341
100
AcDbEntity
  8
0
  6
Continuous
 62
    15
100
AcDbLine
 10
3.242826799501952
 20
6.61978764154145
 30
0.0
 11
5.044213076614263
 21
8.247823231672442
 31
0.0
  0
ARC
  5
361
330
341
100
AcDbEntity
  8
0
  6
Continuous
 62
    15
100
AcDbCircle
 10
2.788382070159098
 20
13.53517330565361
 30
0.0
 40
0.5
100
AcDbArc
 50
109.9999999999999
 51
190.7906041440173
  0
ARC
  5
362
330
341
100
AcDbEntity
  8
0
  6
Continuous
 62
    15
100
AcDbCircle
 10
2.788382070159098
 20
13.53517330565361
 30
0.0
 40
0.5
100
AcDbArc
 50
10.79060414401775
 51
109.9999999999999
  0
ARC
  5
363
330
341
100
AcDbEntity
  8
0
  6
Continuous
 62
    15
100
AcDbCircle
 10
12.12040274644021
 20
15.31376547292015
 30
0.0
 40
9.0
100
AcDbArc
 50
190.7906041440177
 51
228.1340402720335
  0
ARC
  5
364
330
341
100
AcDbEntity
  8
0
  6
Continuous
 62
    15
100
AcDbCircle
 10
5.780195550899016
 20
8.239037724263824
 30
0.0
 40
0.5
100
AcDbArc
 50
312.1062713386107
 51
48.13404027203386
  0
ARC
  5
365
330
341
100
AcDbEntity
  8
0
  6
Continuous
 62
    15
100
AcDbCircle
 10
5.780195550899016
 20
8.239037724263824
 30
0.0
 40
0.5
100
AcDbArc
 50
312.1062713386107
 51
48.13404027203386
  0
LINE
  5
366
330
341
100
AcDbEntity
  8
0
  6
Continuous
 62
    15
100
AcDbLine
 10
6.115449465041351
 20
7.868086496941089
 30
0.0
 11
4.813138229358529
 21
6.691099046743638
 31
0.0
  0
ARC
  5
367
330
341
100
AcDbEntity
  8
0
  6
Continuous
 62
    15
100
AcDbCircle
 10
5.148392143500864
 20
6.320147819420896
 30
0.0
 40
0.5
100
AcDbArc
 50
132.1062713386108
 51
282.0292962315108
  0
ARC
  5
368
330
341
100
AcDbEntity
  8
0
  6
Continuous
 62
    15
100
AcDbCircle
 10
9.17707948513857
 20
5.484735718799428
 30
0.0
 40
0.25
100
AcDbArc
 50
262.7773055416432
 51
290.0000000000001
  0
ARC
  5
369
330
341
100
AcDbEntity
  8
0
  6
Continuous
 62
    15
100
AcDbCircle
 10
9.17707948513857
 20
5.484735718799428
 30
0.0
 40
0.25
100
AcDbArc
 50
290.0000000000001
 51
74.93657560321527
  0
ARC
  5
36A
330
341
100
AcDbEntity
  8
0
  6
Continuous
 62
    15
100
AcDbCircle
 10
7.027980788547694
 20
-2.500442067538039
 30
0.0
 40
8.51862846715127
100
AcDbArc
 50
74.9365756032154
 51
102.0292962315111
  0
ARC
  5
36B
330
341
100
AcDbEntity
  8
0
  6
Continuous
 62
    15
100
AcDbCircle
 10
12.12040274644021
 20
15.31376547292015
 30
0.0
 40
10.0
100
AcDbArc
 50
190.7906041440177
 51
224.9584833242026
  0
ENDBLK
  5
343
330
341
100
AcDbEntity
  8
0
100
AcDbBlockEnd
  0
BLOCK
  5
36D
330
36C
100
AcDbEntity
  8
0
100
AcDbBlockBegin
  2
GEN_BLOCK00006
 70
     0
 71
     0
 10
0.0
 20
0.0
 30
0.0
  3
GEN_BLOCK00006
  1

  0
LINE
  5
370
330
36C
100
AcDbEntity
  8
1
  6
HIDDEN
 62
    15
100
AcDbLine
 10
13.52191972732544
 20
46.10700225830078
 30
0.0
 11
27.2594199180603
 21
46.10700225830078
 31
0.0
  0
LINE
  5
371
330
36C
100
AcDbEntity
  8
1
  6
HIDDEN
 62
    15
100
AcDbLine
 10
27.2594199180603
 20
46.10700225830078
 30
0.0
 11
27.2594199180603
 21
55.79450225830078
 31
0.0
  0
LINE
  5
372
330
36C
100
AcDbEntity
  8
1
  6
HIDDEN
 62
    15
100
AcDbLine
 10
27.2594199180603
 20
55.79450225830078
 30
0.0
 11
13.52191972732544
 21
55.79450225830078
 31
0.0
  0
LINE
  5
373
330
36C
100
AcDbEntity
  8
1
  6
HIDDEN
 62
    15
100
AcDbLine
 10
13.52191972732544
 20
55.79450225830078
 30
0.0
 11
13.52191972732544
 21
46.10700225830078
 31
0.0
  0
TEXT
  5
374
330
36C
100
AcDbEntity
  8
1
  6
Continuous
 62
    15
100
AcDbText
 10
14.89566946029663
 20
52.20075225830078
 30
0.0
 40
2.5
  1
44mm
100
AcDbText
  0
TEXT
  5
375
330
36C
100
AcDbEntity
  8
1
  6
Continuous
 62
    15
100
AcDbText
 10
14.89566946029663
 20
47.20075225830078
 30
0.0
 40
2.5
  1
DOOR
100
AcDbText
  0
LINE
  5
376
330
36C
100
AcDbEntity
  8
1
  6
HIDDEN
 62
    15
100
AcDbLine
 10
-0.0000000600701071
 20
78.94266859545502
 30
0.0
 11
17.1807875326711
 21
74.51792468603
 31
0.0
  0
LINE
  5
377
330
36C
100
AcDbEntity
  8
1
  6
HIDDEN
 62
    15
100
AcDbLine
 10
17.1807875326711
 20
74.51792468603
 30
0.0
 11
17.1807875326711
 21
70.95144963329685
 31
0.0
  0
LINE
  5
378
330
36C
100
AcDbEntity
  8
1
  6
HIDDEN
 62
    15
100
AcDbLine
 10
17.1807875326711
 20
70.95144963329685
 30
0.0
 11
43.99999993992989
 21
74.51792468603
 31
0.0
  0
LINE
  5
379
330
36C
100
AcDbEntity
  8
1
  6
HIDDEN
 62
    15
100
AcDbLine
 10
-0.0000000600701071
 20
78.94266859545502
 30
0.0
 11
-0.0000000600701071
 21
-0.0000017354270767
 31
0.0
  0
LINE
  5
37A
330
36C
100
AcDbEntity
  8
1
  6
HIDDEN
 62
    15
100
AcDbLine
 10
-0.0000000600701071
 20
-0.0000017354270767
 30
0.0
 11
43.99999993992989
 21
-0.0000017354270838
 31
0.0
  0
LINE
  5
37B
330
36C
100
AcDbEntity
  8
1
  6
HIDDEN
 62
    15
100
AcDbLine
 10
43.99999993992989
 20
-0.0000017354270838
 30
0.0
 11
43.99999993992989
 21
74.51792468603
 31
0.0
  0
ENDBLK
  5
36E
330
36C
100
AcDbEntity
  8
0
100
AcDbBlockEnd
  0
BLOCK
  5
37E
330
37D
100
AcDbEntity
  8
0
100
AcDbBlockBegin
  2
GEN_BLOCK00007
 70
     0
 71
     0
 10
0.0
 20
0.0
 30
0.0
  3
GEN_BLOCK00007
  1

  0
LINE
  5
381
330
37D
100
AcDbEntity
  8
GEN_LAYER
  6
HIDDEN
 62
    15
100
AcDbLine
 10
-0.0000030225531589
 20
-0.0000008137878638
 30
0.0
 11
79.68346817679736
 21
-0.0000008137878638
 31
0.0
  0
LINE
  5
382
330
37D
100
AcDbEntity
  8
GEN_LAYER
  6
HIDDEN
 62
    15
100
AcDbLine
 10
37.43799874605102
 20
103.0036888696566
 30
0.0
 11
117.1214699454015
 21
103.0036888696566
 31
0.0
  0
ENDBLK
  5
37F
330
37D
100
AcDbEntity
  8
0
100
AcDbBlockEnd
  0
BLOCK
  5
384
330
383
100
AcDbEntity
  8
0
100
AcDbBlockBegin
  2
GEN_BLOCK00008
 70
     0
 71
     0
 10
0.0
 20
0.0
 30
0.0
  3
GEN_BLOCK00008
  1

  0
LINE
  5
387
330
383
100
AcDbEntity
  8
1
  6
HIDDEN
 62
    15
100
AcDbLine
 10
13.52191543579102
 20
27.50719833374023
 30
0.0
 11
27.2594165802002
 21
27.50719833374023
 31
0.0
  0
LINE
  5
388
330
383
100
AcDbEntity
  8
1
  6
HIDDEN
 62
    15
100
AcDbLine
 10
27.2594165802002
 20
27.50719833374023
 30
0.0
 11
27.2594165802002
 21
37.19469833374023
 31
0.0
  0
LINE
  5
389
330
383
100
AcDbEntity
  8
1
  6
HIDDEN
 62
    15
100
AcDbLine
 10
27.2594165802002
 20
37.19469833374023
 30
0.0
 11
13.52191543579102
 21
37.19469833374023
 31
0.0
  0
LINE
  5
38A
330
383
100
AcDbEntity
  8
1
  6
HIDDEN
 62
    15
100
AcDbLine
 10
13.52191543579102
 20
37.19469833374023
 30
0.0
 11
13.52191543579102
 21
27.50719833374023
 31
0.0
  0
TEXT
  5
38B
330
383
100
AcDbEntity
  8
1
  6
Continuous
 62
    15
100
AcDbText
 10
14.89566612243652
 20
33.60094833374023
 30
0.0
 40
2.5
  1
44mm
100
AcDbText
  0
TEXT
  5
38C
330
383
100
AcDbEntity
  8
1
  6
Continuous
 62
    15
100
AcDbText
 10
14.89566612243652
 20
28.60094833374023
 30
0.0
 40
2.5
  1
DOOR
100
AcDbText
  0
LINE
  5
38D
330
383
100
AcDbEntity
  8
1
  6
HIDDEN
 62
    15
100
AcDbLine
 10
-0.000001467393929
 20
60.34287143808034
 30
0.0
 11
17.18078612534728
 21
55.91812752865533
 31
0.0
  0
LINE
  5
38E
330
383
100
AcDbEntity
  8
1
  6
HIDDEN
 62
    15
100
AcDbLine
 10
17.18078612534728
 20
55.91812752865533
 30
0.0
 11
17.18078612534728
 21
52.35165247592217
 31
0.0
  0
LINE
  5
38F
330
383
100
AcDbEntity
  8
1
  6
HIDDEN
 62
    15
100
AcDbLine
 10
17.18078612534728
 20
52.35165247592217
 30
0.0
 11
43.99999853260607
 21
55.91812752865533
 31
0.0
  0
LINE
  5
390
330
383
100
AcDbEntity
  8
1
  6
HIDDEN
 62
    15
100
AcDbLine
 10
-0.000001467393929
 20
60.34287143808034
 30
0.0
 11
-0.000001467393929
 21
-0.00000072199893
 31
0.0
  0
LINE
  5
391
330
383
100
AcDbEntity
  8
1
  6
HIDDEN
 62
    15
100
AcDbLine
 10
-0.000001467393929
 20
-0.00000072199893
 30
0.0
 11
43.99999853260607
 21
-0.0000007219989442
 31
0.0
  0
LINE
  5
392
330
383
100
AcDbEntity
  8
1
  6
HIDDEN
 62
    15
100
AcDbLine
 10
43.99999853260607
 20
-0.0000007219989442
 30
0.0
 11
43.99999853260607
 21
55.91812752865533
 31
0.0
  0
ENDBLK
  5
385
330
383
100
AcDbEntity
  8
0
100
AcDbBlockEnd
  0
BLOCK
  5
394
330
393
100
AcDbEntity
  8
0
100
AcDbBlockBegin
  2
GEN_BLOCK00009
 70
     0
 71
     0
 10
0.0
 20
0.0
 30
0.0
  3
GEN_BLOCK00009
  1

  0
LINE
  5
397
330
393
100
AcDbEntity
  8
1
  6
Continuous
 62
    15
100
AcDbLine
 10
0.0000009280578581
 20
0.0000000574007117
 30
0.0
 11
0.0000009280578581
 21
98.53371115429172
 31
0.0
  0
LINE
  5
398
330
393
100
AcDbEntity
  8
1
  6
Continuous
 62
    15
100
AcDbLine
 10
0.0000009280578581
 20
98.53371115429172
 30
0.0
 11
22.4557670946235
 21
98.53371115429172
 31
0.0
  0
LINE
  5
399
330
393
100
AcDbEntity
  8
1
  6
Continuous
 62
    15
100
AcDbLine
 10
22.4557670946235
 20
98.53371115429172
 30
0.0
 11
22.4557670946235
 21
15.50000005740071
 31
0.0
  0
LINE
  5
39A
330
393
100
AcDbEntity
  8
1
  6
Continuous
 62
    15
100
AcDbLine
 10
22.4557670946235
 20
98.53371115429172
 30
0.0
 11
26.4557670946235
 21
98.53371115429172
 31
0.0
  0
LINE
  5
39B
330
393
100
AcDbEntity
  8
1
  6
Continuous
 62
    15
100
AcDbLine
 10
26.4557670946235
 20
98.53371115429172
 30
0.0
 11
41.21558947944607
 21
94.96169347983806
 31
0.0
  0
LINE
  5
39C
330
393
100
AcDbEntity
  8
1
  6
Continuous
 62
    15
100
AcDbLine
 10
41.21558947944607
 20
94.96169347983806
 30
0.0
 11
54.40457781589032
 21
101.2814170577176
 31
0.0
  0
LINE
  5
39D
330
393
100
AcDbEntity
  8
1
  6
Continuous
 62
    15
100
AcDbLine
 10
54.40457781589032
 20
101.2814170577176
 30
0.0
 11
66.21971320062158
 21
94.41215229915292
 31
0.0
  0
LINE
  5
39E
330
393
100
AcDbEntity
  8
1
  6
Continuous
 62
    15
100
AcDbLine
 10
66.21971320062158
 20
94.41215229915292
 30
0.0
 11
73.4557670946235
 21
98.53371115429172
 31
0.0
  0
LINE
  5
39F
330
393
100
AcDbEntity
  8
1
  6
Continuous
 62
    15
100
AcDbLine
 10
73.4557670946235
 20
98.53371115429172
 30
0.0
 11
73.4557670946235
 21
7.844388077196996
 31
0.0
  0
ENDBLK
  5
395
330
393
100
AcDbEntity
  8
0
100
AcDbBlockEnd
  0
BLOCK
  5
3A1
330
3A0
100
AcDbEntity
  8
0
100
AcDbBlockBegin
  2
GEN_BLOCK00010
 70
     0
 71
     0
 10
0.0
 20
0.0
 30
0.0
  3
GEN_BLOCK00010
  1

  0
TEXT
  5
3A4
330
3A0
100
AcDbEntity
  8
1
  6
Continuous
 62
    15
100
AcDbText
 10
40.03706741333008
 20
84.16050338745117
 30
0.0
 40
2.0
  1
Outward
100
AcDbText
  0
TEXT
  5
3A5
330
3A0
100
AcDbEntity
  8
1
  6
Continuous
 62
    15
100
AcDbText
 10
40.03706741333008
 20
80.16050338745117
 30
0.0
 40
2.0
  1
opening
100
AcDbText
  0
TEXT
  5
3A6
330
3A0
100
AcDbEntity
  8
1
  6
Continuous
 62
    15
100
AcDbText
 10
76.1806526184082
 20
198.3226623535156
 30
0.0
 40
2.0
  1
Inward
100
AcDbText
  0
TEXT
  5
3A7
330
3A0
100
AcDbEntity
  8
1
  6
Continuous
 62
    15
100
AcDbText
 10
76.1806526184082
 20
194.3226623535156
 30
0.0
 40
2.0
  1
opening
100
AcDbText
  0
TEXT
  5
3A8
330
3A0
100
AcDbEntity
  8
1
  6
Continuous
 62
    15
100
AcDbText
 10
6.044948577880859
 20
34.00069427490234
 30
0.0
 40
2.0
  1
Outward
100
AcDbText
  0
TEXT
  5
3A9
330
3A0
100
AcDbEntity
  8
1
  6
Continuous
 62
    15
100
AcDbText
 10
6.044948577880859
 20
30.00069427490234
 30
0.0
 40
2.0
  1
opening
100
AcDbText
  0
TEXT
  5
3AA
330
3A0
100
AcDbEntity
  8
1
  6
Continuous
 62
    15
100
AcDbText
 10
6.044948577880859
 20
26.00069427490234
 30
0.0
 40
2.0
  1
sill infill
100
AcDbText
  0
TEXT
  5
3AB
330
3A0
100
AcDbEntity
  8
1
  6
Continuous
 62
    15
100
AcDbText
 10
112.3811683654785
 20
30.42867279052734
 30
0.0
 40
2.0
  1
1:1          PBA
100
AcDbText
  0
TEXT
  5
3AC
330
3A0
100
AcDbEntity
  8
1
  6
Continuous
 62
    15
100
AcDbText
 10
103.588508605957
 20
11.46950531005859
 30
0.0
 40
2.0
  1
MXS 15 FS 67
100
AcDbText
  0
TEXT
  5
3AD
330
3A0
100
AcDbEntity
  8
1
  6
Continuous
 62
    15
100
AcDbText
 10
90.39952087402344
 20
4.875007629394531
 30
0.0
 40
2.0
  1
         MXS 15
100
AcDbText
  0
TEXT
  5
3AE
330
3A0
100
AcDbEntity
  8
1
  6
Continuous
 62
    15
100
AcDbText
 10
90.39952087402344
 20
0.8750076293945312
 30
0.0
 40
2.0
  1
Frame specfic 
100
AcDbText
  0
LINE
  5
3AF
330
3A0
100
AcDbEntity
  8
1
  6
Continuous
 62
    15
100
AcDbLine
 10
-0.0000030225531589
 20
47.79350962322385
 30
0.0
 11
-0.0000030225531589
 21
129.7183165253134
 31
0.0
  0
LINE
  5
3B0
330
3A0
100
AcDbEntity
  8
1
  6
Continuous
 62
    15
100
AcDbLine
 10
-0.0000030225531589
 20
129.7183165253134
 30
0.0
 11
22.45576314401248
 21
129.7183165253134
 31
0.0
  0
LINE
  5
3B1
330
3A0
100
AcDbEntity
  8
1
  6
Continuous
 62
    15
100
AcDbLine
 10
22.45576314401248
 20
129.7183165253134
 30
0.0
 11
22.45576314401248
 21
63.29350962322385
 31
0.0
  0
LINE
  5
3B2
330
3A0
100
AcDbEntity
  8
1
  6
Continuous
 62
    15
100
AcDbLine
 10
22.45576314401248
 20
129.7183165253134
 30
0.0
 11
26.45576314401248
 21
129.7183165253134
 31
0.0
  0
LINE
  5
3B3
330
3A0
100
AcDbEntity
  8
1
  6
Continuous
 62
    15
100
AcDbLine
 10
26.45576314401248
 20
129.7183165253134
 30
0.0
 11
41.21558552883505
 21
126.1462988508598
 31
0.0
  0
LINE
  5
3B4
330
3A0
100
AcDbEntity
  8
1
  6
Continuous
 62
    15
100
AcDbLine
 10
41.21558552883505
 20
126.1462988508598
 30
0.0
 11
54.4045738652793
 21
132.4660224287393
 31
0.0
  0
LINE
  5
3B5
330
3A0
100
AcDbEntity
  8
1
  6
Continuous
 62
    15
100
AcDbLine
 10
54.4045738652793
 20
132.4660224287393
 30
0.0
 11
66.21970925001057
 21
125.5967576701746
 31
0.0
  0
LINE
  5
3B6
330
3A0
100
AcDbEntity
  8
1
  6
Continuous
 62
    15
100
AcDbLine
 10
66.21970925001057
 20
125.5967576701746
 30
0.0
 11
73.45576314401248
 21
129.7183165253134
 31
0.0
  0
LINE
  5
3B7
330
3A0
100
AcDbEntity
  8
1
  6
Continuous
 62
    15
100
AcDbLine
 10
73.45576314401248
 20
129.7183165253134
 30
0.0
 11
73.45576314401248
 21
55.63789764302014
 31
0.0
  0
ENDBLK
  5
3A2
330
3A0
100
AcDbEntity
  8
0
100
AcDbBlockEnd
  0
BLOCK
  5
3BA
330
3B9
100
AcDbEntity
  8
0
100
AcDbBlockBegin
  2
8569S
 70
     0
 71
     0
 10
0.0
 20
0.0
 30
0.0
  3
8569S
  1

  0
LINE
  5
3BD
330
3B9
100
AcDbEntity
  8
FIXING
  6
Continuous
 62
    15
100
AcDbLine
 10
2.147400293902628
 20
9.844398224057443
 30
0.0
 11
4.491600293902628
 21
10.69759822405743
 31
0.0
  0
LINE
  5
3BE
330
3B9
100
AcDbEntity
  8
FIXING
  6
Continuous
 62
    15
100
AcDbLine
 10
4.491600293902628
 20
10.69759822405743
 30
0.0
 11
2.147400293902628
 21
9.844398224057443
 31
0.0
  0
LINE
  5
3BF
330
3B9
100
AcDbEntity
  8
FIXING
  6
Continuous
 62
    15
100
AcDbLine
 10
2.147600293902578
 20
10.69759822405743
 30
0.0
 11
2.147600293902578
 21
9.84459822405745
 31
0.0
  0
LINE
  5
3C0
330
3B9
100
AcDbEntity
  8
FIXING
  6
Continuous
 62
    15
100
AcDbLine
 10
2.147600293902578
 20
9.84459822405745
 30
0.0
 11
2.147600293902578
 21
11.54789822405743
 31
0.0
  0
LINE
  5
3C1
330
3B9
100
AcDbEntity
  8
FIXING
  6
Continuous
 62
    15
100
AcDbLine
 10
2.147600293902578
 20
11.54789822405743
 30
0.0
 11
2.147600293902578
 21
9.84459822405745
 31
0.0
  0
LINE
  5
3C2
330
3B9
100
AcDbEntity
  8
FIXING
  6
Continuous
 62
    15
100
AcDbLine
 10
2.147600293902578
 20
9.84459822405745
 30
0.0
 11
2.147600293902578
 21
10.69759822405743
 31
0.0
  0
LINE
  5
3C3
330
3B9
100
AcDbEntity
  8
FIXING
  6
Continuous
 62
    15
100
AcDbLine
 10
2.147600293902578
 20
11.54789822405743
 30
0.0
 11
2.147600293902578
 21
9.84459822405745
 31
0.0
  0
LINE
  5
3C4
330
3B9
100
AcDbEntity
  8
FIXING
  6
Continuous
 62
    15
100
AcDbLine
 10
2.147600293902578
 20
9.84459822405745
 30
0.0
 11
1.219400293902744
 21
9.469898224057431
 31
0.0
  0
LINE
  5
3C5
330
3B9
100
AcDbEntity
  8
FIXING
  6
Continuous
 62
    15
100
AcDbLine
 10
1.219400293902744
 20
9.469898224057431
 30
0.0
 11
5.419500293902765
 21
10.32309822405745
 31
0.0
  0
LINE
  5
3C6
330
3B9
100
AcDbEntity
  8
FIXING
  6
Continuous
 62
    15
100
AcDbLine
 10
5.419500293902765
 20
10.32309822405745
 30
0.0
 11
4.491500293902881
 21
9.958998224057439
 31
0.0
  0
LINE
  5
3C7
330
3B9
100
AcDbEntity
  8
FIXING
  6
Continuous
 62
    15
100
AcDbLine
 10
4.491500293902881
 20
9.958998224057439
 30
0.0
 11
2.147400293902628
 21
9.105898224057427
 31
0.0
  0
LINE
  5
3C8
330
3B9
100
AcDbEntity
  8
FIXING
  6
Continuous
 62
    15
100
AcDbLine
 10
4.491600293902628
 20
9.959098224057414
 30
0.0
 11
4.491500293902881
 21
9.958998224057439
 31
0.0
  0
LINE
  5
3C9
330
3B9
100
AcDbEntity
  8
FIXING
  6
Continuous
 62
    15
100
AcDbLine
 10
4.491500293902881
 20
9.958998224057439
 30
0.0
 11
2.147400293902628
 21
9.105898224057427
 31
0.0
  0
LINE
  5
3CA
330
3B9
100
AcDbEntity
  8
FIXING
  6
Continuous
 62
    15
100
AcDbLine
 10
2.147400293902628
 20
9.105898224057427
 30
0.0
 11
1.219400293902744
 21
9.469898224057431
 31
0.0
  0
LINE
  5
3CB
330
3B9
100
AcDbEntity
  8
FIXING
  6
Continuous
 62
    15
100
AcDbLine
 10
1.219400293902744
 20
9.469898224057431
 30
0.0
 11
5.419500293902765
 21
10.32309822405745
 31
0.0
  0
LINE
  5
3CC
330
3B9
100
AcDbEntity
  8
FIXING
  6
Continuous
 62
    15
100
AcDbLine
 10
5.419500293902765
 20
10.32309822405745
 30
0.0
 11
4.491700293902831
 21
10.69759822405743
 31
0.0
  0
LINE
  5
3CD
330
3B9
100
AcDbEntity
  8
FIXING
  6
Continuous
 62
    15
100
AcDbLine
 10
4.491700293902831
 20
10.69759822405743
 30
0.0
 11
5.419500293902765
 21
10.32309822405745
 31
0.0
  0
LINE
  5
3CE
330
3B9
100
AcDbEntity
  8
FIXING
  6
Continuous
 62
    15
100
AcDbLine
 10
2.147600293902578
 20
9.84459822405745
 30
0.0
 11
1.219400293902744
 21
9.469898224057431
 31
0.0
  0
LINE
  5
3CF
330
3B9
100
AcDbEntity
  8
FIXING
  6
Continuous
 62
    15
100
AcDbLine
 10
1.219400293902744
 20
9.469898224057431
 30
0.0
 11
2.147400293902628
 21
9.105898224057427
 31
0.0
  0
LINE
  5
3D0
330
3B9
100
AcDbEntity
  8
FIXING
  6
Continuous
 62
    15
100
AcDbLine
 10
2.147400293902628
 20
9.105898224057427
 30
0.0
 11
4.491500293902881
 21
9.958998224057439
 31
0.0
  0
LINE
  5
3D1
330
3B9
100
AcDbEntity
  8
FIXING
  6
Continuous
 62
    15
100
AcDbLine
 10
4.491500293902881
 20
9.958998224057439
 30
0.0
 11
5.419500293902765
 21
10.32309822405745
 31
0.0
  0
LINE
  5
3D2
330
3B9
100
AcDbEntity
  8
FIXING
  6
Continuous
 62
    15
100
AcDbLine
 10
5.419500293902765
 20
10.32309822405745
 30
0.0
 11
1.219400293902744
 21
9.469898224057431
 31
0.0
  0
LINE
  5
3D3
330
3B9
100
AcDbEntity
  8
FIXING
  6
Continuous
 62
    15
100
AcDbLine
 10
1.219400293902744
 20
9.469898224057431
 30
0.0
 11
2.147400293902628
 21
9.105898224057427
 31
0.0
  0
LINE
  5
3D4
330
3B9
100
AcDbEntity
  8
FIXING
  6
Continuous
 62
    15
100
AcDbLine
 10
2.147400293902628
 20
9.105898224057427
 30
0.0
 11
4.491500293902881
 21
9.958998224057439
 31
0.0
  0
LINE
  5
3D5
330
3B9
100
AcDbEntity
  8
FIXING
  6
Continuous
 62
    15
100
AcDbLine
 10
4.491500293902881
 20
9.958998224057439
 30
0.0
 11
4.491600293902628
 21
9.959098224057414
 31
0.0
  0
LINE
  5
3D6
330
3B9
100
AcDbEntity
  8
FIXING
  6
Continuous
 62
    15
100
AcDbLine
 10
4.492000293902528
 20
6.948898224057416
 30
0.0
 11
4.492000293902528
 21
7.401298224057427
 31
0.0
  0
LINE
  5
3D7
330
3B9
100
AcDbEntity
  8
FIXING
  6
Continuous
 62
    15
100
AcDbLine
 10
4.492000293902528
 20
7.401298224057427
 30
0.0
 11
5.419900293902664
 21
7.765298224057432
 31
0.0
  0
LINE
  5
3D8
330
3B9
100
AcDbEntity
  8
FIXING
  6
Continuous
 62
    15
100
AcDbLine
 10
5.419900293902664
 20
7.765298224057432
 30
0.0
 11
1.219900293902846
 21
6.948898224057416
 31
0.0
  0
LINE
  5
3D9
330
3B9
100
AcDbEntity
  8
FIXING
  6
Continuous
 62
    15
100
AcDbLine
 10
1.219900293902846
 20
6.948898224057416
 30
0.0
 11
2.198100293902861
 21
6.566398224057423
 31
0.0
  0
LINE
  5
3DA
330
3B9
100
AcDbEntity
  8
FIXING
  6
Continuous
 62
    15
100
AcDbLine
 10
2.198100293902861
 20
6.566398224057423
 30
0.0
 11
4.492000293902528
 21
7.401298224057427
 31
0.0
  0
LINE
  5
3DB
330
3B9
100
AcDbEntity
  8
FIXING
  6
Continuous
 62
    15
100
AcDbLine
 10
4.492000293902528
 20
7.401298224057427
 30
0.0
 11
2.198100293902861
 21
6.566398224057423
 31
0.0
  0
LINE
  5
3DC
330
3B9
100
AcDbEntity
  8
FIXING
  6
Continuous
 62
    15
100
AcDbLine
 10
2.198100293902861
 20
6.566398224057423
 30
0.0
 11
2.414200293902503
 21
4.925198224057425
 31
0.0
  0
LINE
  5
3DD
330
3B9
100
AcDbEntity
  8
FIXING
  6
Continuous
 62
    15
100
AcDbLine
 10
2.414200293902503
 20
4.925198224057425
 30
0.0
 11
1.781800293902542
 21
4.695098224057432
 31
0.0
  0
LINE
  5
3DE
330
3B9
100
AcDbEntity
  8
FIXING
  6
Continuous
 62
    15
100
AcDbLine
 10
1.781800293902542
 20
4.695098224057432
 30
0.0
 11
2.414200293902503
 21
4.925198224057425
 31
0.0
  0
LINE
  5
3DF
330
3B9
100
AcDbEntity
  8
FIXING
  6
Continuous
 62
    15
100
AcDbLine
 10
1.219900293902846
 20
6.948898224057416
 30
0.0
 11
5.419900293902664
 21
7.765298224057432
 31
0.0
  0
LINE
  5
3E0
330
3B9
100
AcDbEntity
  8
FIXING
  6
Continuous
 62
    15
100
AcDbLine
 10
5.419900293902664
 20
7.765298224057432
 30
0.0
 11
1.219900293902846
 21
6.948898224057416
 31
0.0
  0
LINE
  5
3E1
330
3B9
100
AcDbEntity
  8
FIXING
  6
Continuous
 62
    15
100
AcDbLine
 10
1.219900293902846
 20
6.948898224057416
 30
0.0
 11
2.198100293902861
 21
6.566398224057423
 31
0.0
  0
LINE
  5
3E2
330
3B9
100
AcDbEntity
  8
FIXING
  6
Continuous
 62
    15
100
AcDbLine
 10
2.198100293902861
 20
6.566398224057423
 30
0.0
 11
2.414200293902503
 21
4.925198224057425
 31
0.0
  0
LINE
  5
3E3
330
3B9
100
AcDbEntity
  8
FIXING
  6
Continuous
 62
    15
100
AcDbLine
 10
2.414200293902503
 20
4.925198224057425
 30
0.0
 11
1.781800293902542
 21
4.695098224057432
 31
0.0
  0
LINE
  5
3E4
330
3B9
100
AcDbEntity
  8
FIXING
  6
Continuous
 62
    15
100
AcDbLine
 10
1.781800293902542
 20
4.695098224057432
 30
0.0
 11
2.414200293902503
 21
4.925198224057425
 31
0.0
  0
LINE
  5
3E5
330
3B9
100
AcDbEntity
  8
FIXING
  6
Continuous
 62
    15
100
AcDbLine
 10
2.414200293902503
 20
4.925198224057425
 30
0.0
 11
4.315100293902596
 21
5.605798224057423
 31
0.0
  0
LINE
  5
3E6
330
3B9
100
AcDbEntity
  8
FIXING
  6
Continuous
 62
    15
100
AcDbLine
 10
4.315100293902596
 20
5.605798224057423
 30
0.0
 11
4.492000293902528
 21
6.948898224057416
 31
0.0
  0
LINE
  5
3E7
330
3B9
100
AcDbEntity
  8
FIXING
  6
Continuous
 62
    15
100
AcDbLine
 10
4.492000293902528
 20
6.948898224057416
 30
0.0
 11
4.315100293902596
 21
5.605798224057423
 31
0.0
  0
LINE
  5
3E8
330
3B9
100
AcDbEntity
  8
FIXING
  6
Continuous
 62
    15
100
AcDbLine
 10
4.315100293902596
 20
5.605798224057423
 30
0.0
 11
5.014600293902767
 21
5.323498224057431
 31
0.0
  0
LINE
  5
3E9
330
3B9
100
AcDbEntity
  8
FIXING
  6
Continuous
 62
    15
100
AcDbLine
 10
2.147800293902527
 20
7.286698224057432
 30
0.0
 11
1.219900293902846
 21
6.948898224057416
 31
0.0
  0
LINE
  5
3EA
330
3B9
100
AcDbEntity
  8
FIXING
  6
Continuous
 62
    15
100
AcDbLine
 10
1.219900293902846
 20
6.948898224057416
 30
0.0
 11
2.147800293902527
 21
7.286698224057432
 31
0.0
  0
LINE
  5
3EB
330
3B9
100
AcDbEntity
  8
FIXING
  6
Continuous
 62
    15
100
AcDbLine
 10
2.147800293902527
 20
7.286698224057432
 30
0.0
 11
4.492000293902528
 21
8.139898224057447
 31
0.0
  0
LINE
  5
3EC
330
3B9
100
AcDbEntity
  8
FIXING
  6
Continuous
 62
    15
100
AcDbLine
 10
4.492000293902528
 20
8.139898224057447
 30
0.0
 11
5.419900293902664
 21
7.765298224057432
 31
0.0
  0
LINE
  5
3ED
330
3B9
100
AcDbEntity
  8
FIXING
  6
Continuous
 62
    15
100
AcDbLine
 10
5.419900293902664
 20
7.765298224057432
 30
0.0
 11
4.492000293902528
 21
7.401298224057427
 31
0.0
  0
LINE
  5
3EE
330
3B9
100
AcDbEntity
  8
FIXING
  6
Continuous
 62
    15
100
AcDbLine
 10
4.492000293902528
 20
7.401298224057427
 30
0.0
 11
4.492000293902528
 21
6.948898224057416
 31
0.0
  0
LINE
  5
3EF
330
3B9
100
AcDbEntity
  8
FIXING
  6
Continuous
 62
    15
100
AcDbLine
 10
4.492000293902528
 20
6.948898224057416
 30
0.0
 11
4.315100293902596
 21
5.605798224057423
 31
0.0
  0
LINE
  5
3F0
330
3B9
100
AcDbEntity
  8
FIXING
  6
Continuous
 62
    15
100
AcDbLine
 10
4.315100293902596
 20
5.605798224057423
 30
0.0
 11
2.414200293902503
 21
4.925198224057425
 31
0.0
  0
LINE
  5
3F1
330
3B9
100
AcDbEntity
  8
FIXING
  6
Continuous
 62
    15
100
AcDbLine
 10
2.414200293902503
 20
4.925198224057425
 30
0.0
 11
2.198100293902861
 21
6.566398224057423
 31
0.0
  0
LINE
  5
3F2
330
3B9
100
AcDbEntity
  8
FIXING
  6
Continuous
 62
    15
100
AcDbLine
 10
2.497100293902839
 20
2.524198224057443
 30
0.0
 11
2.818700293902602
 21
2.641198224057433
 31
0.0
  0
LINE
  5
3F3
330
3B9
100
AcDbEntity
  8
FIXING
  6
Continuous
 62
    15
100
AcDbLine
 10
2.818700293902602
 20
2.641198224057433
 30
0.0
 11
3.94300029390255
 21
3.040098224057431
 31
0.0
  0
LINE
  5
3F4
330
3B9
100
AcDbEntity
  8
FIXING
  6
Continuous
 62
    15
100
AcDbLine
 10
3.94300029390255
 20
3.040098224057431
 30
0.0
 11
4.003300293902647
 21
3.23729822405744
 31
0.0
  0
LINE
  5
3F5
330
3B9
100
AcDbEntity
  8
FIXING
  6
Continuous
 62
    15
100
AcDbLine
 10
4.003300293902647
 20
3.23729822405744
 30
0.0
 11
4.237900293902875
 21
5.018798224057434
 31
0.0
  0
LINE
  5
3F6
330
3B9
100
AcDbEntity
  8
FIXING
  6
Continuous
 62
    15
100
AcDbLine
 10
4.237900293902875
 20
5.018798224057434
 30
0.0
 11
4.003300293902647
 21
3.23729822405744
 31
0.0
  0
LINE
  5
3F7
330
3B9
100
AcDbEntity
  8
FIXING
  6
Continuous
 62
    15
100
AcDbLine
 10
4.003300293902647
 20
3.23729822405744
 30
0.0
 11
3.94300029390255
 21
3.040098224057431
 31
0.0
  0
LINE
  5
3F8
330
3B9
100
AcDbEntity
  8
FIXING
  6
Continuous
 62
    15
100
AcDbLine
 10
3.94300029390255
 20
3.040098224057431
 30
0.0
 11
4.335800293902629
 21
2.881598224057427
 31
0.0
  0
LINE
  5
3F9
330
3B9
100
AcDbEntity
  8
FIXING
  6
Continuous
 62
    15
100
AcDbLine
 10
4.335800293902629
 20
2.881598224057427
 30
0.0
 11
2.497100293902839
 21
2.524198224057443
 31
0.0
  0
LINE
  5
3FA
330
3B9
100
AcDbEntity
  8
FIXING
  6
Continuous
 62
    15
100
AcDbLine
 10
2.803200293902627
 20
2.691698224057433
 30
0.0
 11
2.818700293902602
 21
2.641198224057433
 31
0.0
  0
LINE
  5
3FB
330
3B9
100
AcDbEntity
  8
FIXING
  6
Continuous
 62
    15
100
AcDbLine
 10
2.818700293902602
 20
2.641198224057433
 30
0.0
 11
2.636400293902661
 21
3.23729822405744
 31
0.0
  0
LINE
  5
3FC
330
3B9
100
AcDbEntity
  8
FIXING
  6
Continuous
 62
    15
100
AcDbLine
 10
2.636400293902661
 20
3.23729822405744
 30
0.0
 11
2.480500293902914
 21
4.421898224057429
 31
0.0
  0
LINE
  5
3FD
330
3B9
100
AcDbEntity
  8
FIXING
  6
Continuous
 62
    15
100
AcDbLine
 10
2.480500293902914
 20
4.421898224057429
 30
0.0
 11
4.237900293902875
 21
5.018798224057434
 31
0.0
  0
LINE
  5
3FE
330
3B9
100
AcDbEntity
  8
FIXING
  6
Continuous
 62
    15
100
AcDbLine
 10
4.237900293902875
 20
5.018798224057434
 30
0.0
 11
5.014600293902767
 21
5.323498224057431
 31
0.0
  0
LINE
  5
3FF
330
3B9
100
AcDbEntity
  8
FIXING
  6
Continuous
 62
    15
100
AcDbLine
 10
5.014600293902767
 20
5.323498224057431
 30
0.0
 11
4.315100293902596
 21
5.605798224057423
 31
0.0
  0
LINE
  5
400
330
3B9
100
AcDbEntity
  8
FIXING
  6
Continuous
 62
    15
100
AcDbLine
 10
4.492000293902528
 20
7.401298224057427
 30
0.0
 11
4.492000293902528
 21
6.948898224057416
 31
0.0
  0
LINE
  5
401
330
3B9
100
AcDbEntity
  8
FIXING
  6
Continuous
 62
    15
100
AcDbLine
 10
4.492000293902528
 20
6.948898224057416
 30
0.0
 11
4.315100293902596
 21
5.605798224057423
 31
0.0
  0
LINE
  5
402
330
3B9
100
AcDbEntity
  8
FIXING
  6
Continuous
 62
    15
100
AcDbLine
 10
4.315100293902596
 20
5.605798224057423
 30
0.0
 11
2.414200293902503
 21
4.925198224057425
 31
0.0
  0
LINE
  5
403
330
3B9
100
AcDbEntity
  8
FIXING
  6
Continuous
 62
    15
100
AcDbLine
 10
2.414200293902503
 20
4.925198224057425
 30
0.0
 11
4.315100293902596
 21
5.605798224057423
 31
0.0
  0
LINE
  5
404
330
3B9
100
AcDbEntity
  8
FIXING
  6
Continuous
 62
    15
100
AcDbLine
 10
4.315100293902596
 20
5.605798224057423
 30
0.0
 11
5.014600293902767
 21
5.323498224057431
 31
0.0
  0
LINE
  5
405
330
3B9
100
AcDbEntity
  8
FIXING
  6
Continuous
 62
    15
100
AcDbLine
 10
5.014600293902767
 20
5.323498224057431
 30
0.0
 11
4.237900293902875
 21
5.018798224057434
 31
0.0
  0
LINE
  5
406
330
3B9
100
AcDbEntity
  8
FIXING
  6
Continuous
 62
    15
100
AcDbLine
 10
4.237900293902875
 20
5.018798224057434
 30
0.0
 11
2.480500293902914
 21
4.421898224057429
 31
0.0
  0
LINE
  5
407
330
3B9
100
AcDbEntity
  8
FIXING
  6
Continuous
 62
    15
100
AcDbLine
 10
2.480500293902914
 20
4.421898224057429
 30
0.0
 11
2.636400293902661
 21
3.23729822405744
 31
0.0
  0
LINE
  5
408
330
3B9
100
AcDbEntity
  8
FIXING
  6
Continuous
 62
    15
100
AcDbLine
 10
2.636400293902661
 20
3.23729822405744
 30
0.0
 11
2.818700293902602
 21
2.641198224057433
 31
0.0
  0
LINE
  5
409
330
3B9
100
AcDbEntity
  8
FIXING
  6
Continuous
 62
    15
100
AcDbLine
 10
2.818700293902602
 20
2.641198224057433
 30
0.0
 11
2.803200293902627
 21
2.691698224057433
 31
0.0
  0
LINE
  5
40A
330
3B9
100
AcDbEntity
  8
FIXING
  6
Continuous
 62
    15
100
AcDbLine
 10
2.803200293902627
 20
2.691698224057433
 30
0.0
 11
2.818700293902602
 21
2.641198224057433
 31
0.0
  0
LINE
  5
40B
330
3B9
100
AcDbEntity
  8
FIXING
  6
Continuous
 62
    15
100
AcDbLine
 10
2.818700293902602
 20
2.641198224057433
 30
0.0
 11
3.94300029390255
 21
3.040098224057431
 31
0.0
  0
LINE
  5
40C
330
3B9
100
AcDbEntity
  8
FIXING
  6
Continuous
 62
    15
100
AcDbLine
 10
3.94300029390255
 20
3.040098224057431
 30
0.0
 11
4.335800293902629
 21
2.881598224057427
 31
0.0
  0
LINE
  5
40D
330
3B9
100
AcDbEntity
  8
FIXING
  6
Continuous
 62
    15
100
AcDbLine
 10
4.335800293902629
 20
2.881598224057427
 30
0.0
 11
2.497100293902839
 21
2.524198224057443
 31
0.0
  0
LINE
  5
40E
330
3B9
100
AcDbEntity
  8
FIXING
  6
Continuous
 62
    15
100
AcDbLine
 10
2.480500293902914
 20
4.421898224057429
 30
0.0
 11
1.781800293902542
 21
4.695098224057432
 31
0.0
  0
LINE
  5
40F
330
3B9
100
AcDbEntity
  8
FIXING
  6
Continuous
 62
    15
100
AcDbLine
 10
1.781800293902542
 20
4.695098224057432
 30
0.0
 11
2.480500293902914
 21
4.421898224057429
 31
0.0
  0
LINE
  5
410
330
3B9
100
AcDbEntity
  8
FIXING
  6
Continuous
 62
    15
100
AcDbLine
 10
2.480500293902914
 20
4.421898224057429
 30
0.0
 11
4.237900293902875
 21
5.018798224057434
 31
0.0
  0
LINE
  5
411
330
3B9
100
AcDbEntity
  8
FIXING
  6
Continuous
 62
    15
100
AcDbLine
 10
4.237900293902875
 20
5.018798224057434
 30
0.0
 11
4.003300293902647
 21
3.23729822405744
 31
0.0
  0
LINE
  5
412
330
3B9
100
AcDbEntity
  8
FIXING
  6
Continuous
 62
    15
100
AcDbLine
 10
4.003300293902647
 20
3.23729822405744
 30
0.0
 11
3.94300029390255
 21
3.040098224057431
 31
0.0
  0
LINE
  5
413
330
3B9
100
AcDbEntity
  8
FIXING
  6
Continuous
 62
    15
100
AcDbLine
 10
3.94300029390255
 20
3.040098224057431
 30
0.0
 11
4.335800293902629
 21
2.881598224057427
 31
0.0
  0
LINE
  5
414
330
3B9
100
AcDbEntity
  8
FIXING
  6
Continuous
 62
    15
100
AcDbLine
 10
4.335800293902629
 20
2.881598224057427
 30
0.0
 11
3.834400293902526
 21
2.684898224057434
 31
0.0
  0
LINE
  5
415
330
3B9
100
AcDbEntity
  8
FIXING
  6
Continuous
 62
    15
100
AcDbLine
 10
3.834400293902526
 20
2.684898224057434
 30
0.0
 11
3.320300293902655
 21
-0.0000017759425646
 31
0.0
  0
LINE
  5
416
330
3B9
100
AcDbEntity
  8
FIXING
  6
Continuous
 62
    15
100
AcDbLine
 10
3.320300293902655
 20
-0.0000017759425646
 30
0.0
 11
2.902900293902839
 21
2.365498224057433
 31
0.0
  0
LINE
  5
417
330
3B9
100
AcDbEntity
  8
FIXING
  6
Continuous
 62
    15
100
AcDbLine
 10
2.902900293902839
 20
2.365498224057433
 30
0.0
 11
3.834400293902526
 21
2.684898224057434
 31
0.0
  0
LINE
  5
418
330
3B9
100
AcDbEntity
  8
FIXING
  6
Continuous
 62
    15
100
AcDbLine
 10
3.834400293902526
 20
2.684898224057434
 30
0.0
 11
4.335800293902629
 21
2.881598224057427
 31
0.0
  0
LINE
  5
419
330
3B9
100
AcDbEntity
  8
FIXING
  6
Continuous
 62
    15
100
AcDbLine
 10
4.335800293902629
 20
2.881598224057427
 30
0.0
 11
3.94300029390255
 21
3.040098224057431
 31
0.0
  0
LINE
  5
41A
330
3B9
100
AcDbEntity
  8
FIXING
  6
Continuous
 62
    15
100
AcDbLine
 10
1.781800293902542
 20
4.695098224057432
 30
0.0
 11
2.480500293902914
 21
4.421898224057429
 31
0.0
  0
LINE
  5
41B
330
3B9
100
AcDbEntity
  8
FIXING
  6
Continuous
 62
    15
100
AcDbLine
 10
2.480500293902914
 20
4.421898224057429
 30
0.0
 11
1.781800293902542
 21
4.695098224057432
 31
0.0
  0
LINE
  5
41C
330
3B9
100
AcDbEntity
  8
FIXING
  6
Continuous
 62
    15
100
AcDbLine
 10
1.781800293902542
 20
4.695098224057432
 30
0.0
 11
5.014600293902767
 21
5.323498224057431
 31
0.0
  0
LINE
  5
41D
330
3B9
100
AcDbEntity
  8
FIXING
  6
Continuous
 62
    15
100
AcDbLine
 10
5.014600293902767
 20
5.323498224057431
 30
0.0
 11
1.781800293902542
 21
4.695098224057432
 31
0.0
  0
LINE
  5
41E
330
3B9
100
AcDbEntity
  8
FIXING
  6
Continuous
 62
    15
100
AcDbLine
 10
1.781800293902542
 20
4.695098224057432
 30
0.0
 11
2.480500293902914
 21
4.421898224057429
 31
0.0
  0
LINE
  5
41F
330
3B9
100
AcDbEntity
  8
FIXING
  6
Continuous
 62
    15
100
AcDbLine
 10
2.480500293902914
 20
4.421898224057429
 30
0.0
 11
1.781800293902542
 21
4.695098224057432
 31
0.0
  0
LINE
  5
420
330
3B9
100
AcDbEntity
  8
FIXING
  6
Continuous
 62
    15
100
AcDbLine
 10
2.902900293902839
 20
2.365498224057433
 30
0.0
 11
2.497100293902839
 21
2.524198224057443
 31
0.0
  0
LINE
  5
421
330
3B9
100
AcDbEntity
  8
FIXING
  6
Continuous
 62
    15
100
AcDbLine
 10
2.497100293902839
 20
2.524198224057443
 30
0.0
 11
4.335800293902629
 21
2.881598224057427
 31
0.0
  0
LINE
  5
422
330
3B9
100
AcDbEntity
  8
FIXING
  6
Continuous
 62
    15
100
AcDbLine
 10
4.335800293902629
 20
2.881598224057427
 30
0.0
 11
3.94300029390255
 21
3.040098224057431
 31
0.0
  0
LINE
  5
423
330
3B9
100
AcDbEntity
  8
FIXING
  6
Continuous
 62
    15
100
AcDbLine
 10
3.94300029390255
 20
3.040098224057431
 30
0.0
 11
2.818700293902602
 21
2.641198224057433
 31
0.0
  0
LINE
  5
424
330
3B9
100
AcDbEntity
  8
FIXING
  6
Continuous
 62
    15
100
AcDbLine
 10
2.818700293902602
 20
2.641198224057433
 30
0.0
 11
2.497100293902839
 21
2.524198224057443
 31
0.0
  0
LINE
  5
425
330
3B9
100
AcDbEntity
  8
FIXING
  6
Continuous
 62
    15
100
AcDbLine
 10
2.497100293902839
 20
2.524198224057443
 30
0.0
 11
2.818700293902602
 21
2.641198224057433
 31
0.0
  0
LINE
  5
426
330
3B9
100
AcDbEntity
  8
FIXING
  6
Continuous
 62
    15
100
AcDbLine
 10
3.834400293902526
 20
2.684898224057434
 30
0.0
 11
4.335800293902629
 21
2.881598224057427
 31
0.0
  0
LINE
  5
427
330
3B9
100
AcDbEntity
  8
FIXING
  6
Continuous
 62
    15
100
AcDbLine
 10
4.335800293902629
 20
2.881598224057427
 30
0.0
 11
2.497100293902839
 21
2.524198224057443
 31
0.0
  0
LINE
  5
428
330
3B9
100
AcDbEntity
  8
FIXING
  6
Continuous
 62
    15
100
AcDbLine
 10
2.497100293902839
 20
2.524198224057443
 30
0.0
 11
2.902900293902839
 21
2.365498224057433
 31
0.0
  0
LINE
  5
429
330
3B9
100
AcDbEntity
  8
FIXING
  6
Continuous
 62
    15
100
AcDbLine
 10
2.902900293902839
 20
2.365498224057433
 30
0.0
 11
3.834400293902526
 21
2.684898224057434
 31
0.0
  0
LINE
  5
42A
330
3B9
100
AcDbEntity
  8
FIXING
  6
Continuous
 62
    15
100
AcDbLine
 10
3.834400293902526
 20
2.684898224057434
 30
0.0
 11
3.320300293902655
 21
-0.0000017759425646
 31
0.0
  0
LINE
  5
42B
330
3B9
100
AcDbEntity
  8
FIXING
  6
Continuous
 62
    15
100
AcDbLine
 10
3.320300293902655
 20
-0.0000017759425646
 30
0.0
 11
2.902900293902839
 21
2.365498224057433
 31
0.0
  0
LINE
  5
42C
330
3B9
100
AcDbEntity
  8
FIXING
  6
Continuous
 62
    15
100
AcDbLine
 10
2.902900293902839
 20
2.365498224057433
 30
0.0
 11
2.497100293902839
 21
2.524198224057443
 31
0.0
  0
LINE
  5
42D
330
3B9
100
AcDbEntity
  8
FIXING
  6
Continuous
 62
    15
100
AcDbLine
 10
2.497100293902839
 20
2.524198224057443
 30
0.0
 11
4.335800293902629
 21
2.881598224057427
 31
0.0
  0
LINE
  5
42E
330
3B9
100
AcDbEntity
  8
FIXING
  6
Continuous
 62
    15
100
AcDbLine
 10
4.492000293902528
 20
8.139898224057447
 30
0.0
 11
4.491600293902628
 21
9.959098224057414
 31
0.0
  0
LINE
  5
42F
330
3B9
100
AcDbEntity
  8
FIXING
  6
Continuous
 62
    15
100
AcDbLine
 10
2.147658293902658
 20
9.105992224057445
 30
0.0
 11
2.147800293902527
 21
7.286698224057432
 31
0.0
  0
LINE
  5
430
330
3B9
100
AcDbEntity
  8
FIXING
  6
Continuous
 62
    15
100
AcDbLine
 10
1.220200293902543
 20
9.390898224057423
 30
0.0
 11
1.220200293902543
 21
9.390898224057423
 31
0.0
  0
LINE
  5
431
330
3B9
100
AcDbEntity
  8
FIXING
  6
Continuous
 62
    15
100
AcDbLine
 10
1.220200293902543
 20
9.390898224057423
 30
0.0
 11
1.220200293902543
 21
9.390898224057423
 31
0.0
  0
LINE
  5
432
330
3B9
100
AcDbEntity
  8
FIXING
  6
Continuous
 62
    15
100
AcDbLine
 10
2.148800293902738
 20
23.75789822405744
 30
0.0
 11
2.148700293902536
 21
22.05449822405743
 31
0.0
  0
LINE
  5
433
330
3B9
100
AcDbEntity
  8
FIXING
  6
Continuous
 62
    15
100
AcDbLine
 10
2.148700293902536
 20
22.05449822405743
 30
0.0
 11
1.220500293902703
 21
21.67979822405744
 31
0.0
  0
LINE
  5
434
330
3B9
100
AcDbEntity
  8
FIXING
  6
Continuous
 62
    15
100
AcDbLine
 10
2.148600293902788
 20
21.31589822405743
 30
0.0
 11
1.220600293902905
 21
21.67989822405744
 31
0.0
  0
LINE
  5
435
330
3B9
100
AcDbEntity
  8
FIXING
  6
Continuous
 62
    15
100
AcDbLine
 10
1.220600293902905
 20
21.67989822405744
 30
0.0
 11
5.420700293902925
 21
22.53309822405743
 31
0.0
  0
LINE
  5
436
330
3B9
100
AcDbEntity
  8
FIXING
  6
Continuous
 62
    15
100
AcDbLine
 10
5.420700293902925
 20
22.53309822405743
 30
0.0
 11
4.492700293902587
 21
22.16899822405742
 31
0.0
  0
LINE
  5
437
330
3B9
100
AcDbEntity
  8
FIXING
  6
Continuous
 62
    15
100
AcDbLine
 10
4.492700293902587
 20
22.16899822405742
 30
0.0
 11
2.148600293902788
 21
21.31589822405743
 31
0.0
  0
LINE
  5
438
330
3B9
100
AcDbEntity
  8
FIXING
  6
Continuous
 62
    15
100
AcDbLine
 10
2.148500293902586
 20
22.05439822405742
 30
0.0
 11
4.492700293902587
 21
22.90759822405744
 31
0.0
  0
LINE
  5
439
330
3B9
100
AcDbEntity
  8
FIXING
  6
Continuous
 62
    15
100
AcDbLine
 10
4.492700293902587
 20
20.46579822405744
 30
0.0
 11
4.492700293902587
 21
22.16899822405742
 31
0.0
  0
LINE
  5
43A
330
3B9
100
AcDbEntity
  8
FIXING
  6
Continuous
 62
    15
100
AcDbLine
 10
4.492700293902587
 20
22.16899822405742
 30
0.0
 11
4.492700293902587
 21
20.46579822405744
 31
0.0
  0
LINE
  5
43B
330
3B9
100
AcDbEntity
  8
FIXING
  6
Continuous
 62
    15
100
AcDbLine
 10
4.492700293902587
 20
20.46579822405744
 30
0.0
 11
4.492700293902587
 21
22.16899822405742
 31
0.0
  0
LINE
  5
43C
330
3B9
100
AcDbEntity
  8
FIXING
  6
Continuous
 62
    15
100
AcDbLine
 10
4.492700293902587
 20
22.16899822405742
 30
0.0
 11
5.420700293902925
 21
22.53309822405743
 31
0.0
  0
LINE
  5
43D
330
3B9
100
AcDbEntity
  8
FIXING
  6
Continuous
 62
    15
100
AcDbLine
 10
5.420700293902925
 20
22.53309822405743
 30
0.0
 11
4.493000293902739
 21
22.90759822405744
 31
0.0
  0
LINE
  5
43E
330
3B9
100
AcDbEntity
  8
FIXING
  6
Continuous
 62
    15
100
AcDbLine
 10
4.491700293902831
 20
12.40109822405742
 30
0.0
 11
4.491800293902578
 21
12.40109822405742
 31
0.0
  0
LINE
  5
43F
330
3B9
100
AcDbEntity
  8
FIXING
  6
Continuous
 62
    15
100
AcDbLine
 10
4.491800293902578
 20
12.40109822405742
 30
0.0
 11
4.491700293902831
 21
12.40109822405742
 31
0.0
  0
LINE
  5
440
330
3B9
100
AcDbEntity
  8
FIXING
  6
Continuous
 62
    15
100
AcDbLine
 10
4.491700293902831
 20
12.40109822405742
 30
0.0
 11
2.147600293902578
 21
11.54789822405743
 31
0.0
  0
LINE
  5
441
330
3B9
100
AcDbEntity
  8
FIXING
  6
Continuous
 62
    15
100
AcDbLine
 10
2.147600293902578
 20
11.54789822405743
 30
0.0
 11
1.219600293902694
 21
11.91189822405744
 31
0.0
  0
LINE
  5
442
330
3B9
100
AcDbEntity
  8
FIXING
  6
Continuous
 62
    15
100
AcDbLine
 10
1.219600293902694
 20
11.91189822405744
 30
0.0
 11
5.419700293902714
 21
12.76509822405743
 31
0.0
  0
LINE
  5
443
330
3B9
100
AcDbEntity
  8
FIXING
  6
Continuous
 62
    15
100
AcDbLine
 10
5.419700293902714
 20
12.76509822405743
 30
0.0
 11
4.491700293902831
 21
12.40109822405742
 31
0.0
  0
LINE
  5
444
330
3B9
100
AcDbEntity
  8
FIXING
  6
Continuous
 62
    15
100
AcDbLine
 10
4.491700293902831
 20
12.40109822405742
 30
0.0
 11
2.147600293902578
 21
11.54789822405743
 31
0.0
  0
LINE
  5
445
330
3B9
100
AcDbEntity
  8
FIXING
  6
Continuous
 62
    15
100
AcDbLine
 10
2.147600293902578
 20
11.54789822405743
 30
0.0
 11
1.219600293902694
 21
11.91189822405744
 31
0.0
  0
LINE
  5
446
330
3B9
100
AcDbEntity
  8
FIXING
  6
Continuous
 62
    15
100
AcDbLine
 10
1.219600293902694
 20
11.91189822405744
 30
0.0
 11
2.147800293902527
 21
12.28659822405743
 31
0.0
  0
LINE
  5
447
330
3B9
100
AcDbEntity
  8
FIXING
  6
Continuous
 62
    15
100
AcDbLine
 10
2.147800293902527
 20
12.28659822405743
 30
0.0
 11
2.147800293902527
 21
13.98989822405741
 31
0.0
  0
LINE
  5
448
330
3B9
100
AcDbEntity
  8
FIXING
  6
Continuous
 62
    15
100
AcDbLine
 10
2.147800293902527
 20
13.98989822405741
 30
0.0
 11
2.147800293902527
 21
12.28659822405743
 31
0.0
  0
LINE
  5
449
330
3B9
100
AcDbEntity
  8
FIXING
  6
Continuous
 62
    15
100
AcDbLine
 10
2.147600293902578
 20
11.54789822405743
 30
0.0
 11
4.491700293902831
 21
12.40109822405742
 31
0.0
  0
LINE
  5
44A
330
3B9
100
AcDbEntity
  8
FIXING
  6
Continuous
 62
    15
100
AcDbLine
 10
4.491700293902831
 20
12.40109822405742
 30
0.0
 11
5.419700293902714
 21
12.76509822405743
 31
0.0
  0
LINE
  5
44B
330
3B9
100
AcDbEntity
  8
FIXING
  6
Continuous
 62
    15
100
AcDbLine
 10
5.419700293902714
 20
12.76509822405743
 30
0.0
 11
1.219600293902694
 21
11.91189822405744
 31
0.0
  0
LINE
  5
44C
330
3B9
100
AcDbEntity
  8
FIXING
  6
Continuous
 62
    15
100
AcDbLine
 10
1.219600293902694
 20
11.91189822405744
 30
0.0
 11
2.147800293902527
 21
12.28659822405743
 31
0.0
  0
LINE
  5
44D
330
3B9
100
AcDbEntity
  8
FIXING
  6
Continuous
 62
    15
100
AcDbLine
 10
2.147800293902527
 20
12.28659822405743
 30
0.0
 11
2.147800293902527
 21
13.13959822405744
 31
0.0
  0
LINE
  5
44E
330
3B9
100
AcDbEntity
  8
FIXING
  6
Continuous
 62
    15
100
AcDbLine
 10
2.147800293902527
 20
13.13959822405744
 30
0.0
 11
2.147800293902527
 21
12.28659822405743
 31
0.0
  0
LINE
  5
44F
330
3B9
100
AcDbEntity
  8
FIXING
  6
Continuous
 62
    15
100
AcDbLine
 10
2.147800293902527
 20
12.28659822405743
 30
0.0
 11
1.219600293902694
 21
11.91189822405744
 31
0.0
  0
LINE
  5
450
330
3B9
100
AcDbEntity
  8
FIXING
  6
Continuous
 62
    15
100
AcDbLine
 10
1.219600293902694
 20
11.91189822405744
 30
0.0
 11
5.419700293902714
 21
12.76509822405743
 31
0.0
  0
LINE
  5
451
330
3B9
100
AcDbEntity
  8
FIXING
  6
Continuous
 62
    15
100
AcDbLine
 10
5.419700293902714
 20
12.76509822405743
 30
0.0
 11
4.491700293902831
 21
12.40109822405742
 31
0.0
  0
LINE
  5
452
330
3B9
100
AcDbEntity
  8
FIXING
  6
Continuous
 62
    15
100
AcDbLine
 10
4.491700293902831
 20
12.40109822405742
 30
0.0
 11
2.147600293902578
 21
11.54789822405743
 31
0.0
  0
LINE
  5
453
330
3B9
100
AcDbEntity
  8
FIXING
  6
Continuous
 62
    15
100
AcDbLine
 10
2.147600293902578
 20
11.54789822405743
 30
0.0
 11
1.219600293902694
 21
11.91189822405744
 31
0.0
  0
LINE
  5
454
330
3B9
100
AcDbEntity
  8
FIXING
  6
Continuous
 62
    15
100
AcDbLine
 10
1.219600293902694
 20
11.91189822405744
 30
0.0
 11
2.147800293902527
 21
12.28659822405743
 31
0.0
  0
LINE
  5
455
330
3B9
100
AcDbEntity
  8
FIXING
  6
Continuous
 62
    15
100
AcDbLine
 10
2.147800293902527
 20
12.28659822405743
 30
0.0
 11
2.147800293902527
 21
13.98989822405741
 31
0.0
  0
LINE
  5
456
330
3B9
100
AcDbEntity
  8
FIXING
  6
Continuous
 62
    15
100
AcDbLine
 10
4.492300293902687
 20
15.58159822405742
 30
0.0
 11
5.420000293902866
 21
15.20709822405743
 31
0.0
  0
LINE
  5
457
330
3B9
100
AcDbEntity
  8
FIXING
  6
Continuous
 62
    15
100
AcDbLine
 10
5.420000293902866
 20
15.20709822405743
 30
0.0
 11
1.219900293902846
 21
14.35399822405742
 31
0.0
  0
LINE
  5
458
330
3B9
100
AcDbEntity
  8
FIXING
  6
Continuous
 62
    15
100
AcDbLine
 10
1.219900293902846
 20
14.35399822405742
 30
0.0
 11
2.14790029390273
 21
13.98989822405741
 31
0.0
  0
LINE
  5
459
330
3B9
100
AcDbEntity
  8
FIXING
  6
Continuous
 62
    15
100
AcDbLine
 10
2.14790029390273
 20
13.98989822405741
 30
0.0
 11
4.492000293902528
 21
14.84309822405743
 31
0.0
  0
LINE
  5
45A
330
3B9
100
AcDbEntity
  8
FIXING
  6
Continuous
 62
    15
100
AcDbLine
 10
4.492000293902528
 20
14.84309822405743
 30
0.0
 11
4.492000293902528
 21
13.13979822405742
 31
0.0
  0
LINE
  5
45B
330
3B9
100
AcDbEntity
  8
FIXING
  6
Continuous
 62
    15
100
AcDbLine
 10
4.49210029390273
 20
14.84309822405743
 30
0.0
 11
4.492000293902528
 21
14.84309822405743
 31
0.0
  0
LINE
  5
45C
330
3B9
100
AcDbEntity
  8
FIXING
  6
Continuous
 62
    15
100
AcDbLine
 10
4.492000293902528
 20
14.84309822405743
 30
0.0
 11
4.492000293902528
 21
13.13979822405742
 31
0.0
  0
LINE
  5
45D
330
3B9
100
AcDbEntity
  8
FIXING
  6
Continuous
 62
    15
100
AcDbLine
 10
4.492000293902528
 20
13.13979822405742
 30
0.0
 11
4.492000293902528
 21
14.84309822405743
 31
0.0
  0
LINE
  5
45E
330
3B9
100
AcDbEntity
  8
FIXING
  6
Continuous
 62
    15
100
AcDbLine
 10
4.492000293902528
 20
14.84309822405743
 30
0.0
 11
5.420000293902866
 21
15.20709822405743
 31
0.0
  0
LINE
  5
45F
330
3B9
100
AcDbEntity
  8
FIXING
  6
Continuous
 62
    15
100
AcDbLine
 10
4.492000293902528
 20
13.13959822405744
 30
0.0
 11
5.419700293902714
 21
12.76509822405743
 31
0.0
  0
LINE
  5
460
330
3B9
100
AcDbEntity
  8
FIXING
  6
Continuous
 62
    15
100
AcDbLine
 10
5.419700293902714
 20
12.76509822405743
 30
0.0
 11
4.491700293902831
 21
12.40109822405742
 31
0.0
  0
LINE
  5
461
330
3B9
100
AcDbEntity
  8
FIXING
  6
Continuous
 62
    15
100
AcDbLine
 10
4.491700293902831
 20
12.40109822405742
 30
0.0
 11
4.491800293902578
 21
12.40109822405742
 31
0.0
  0
LINE
  5
462
330
3B9
100
AcDbEntity
  8
FIXING
  6
Continuous
 62
    15
100
AcDbLine
 10
4.491800293902578
 20
12.40109822405742
 30
0.0
 11
4.491700293902831
 21
12.40109822405742
 31
0.0
  0
LINE
  5
463
330
3B9
100
AcDbEntity
  8
FIXING
  6
Continuous
 62
    15
100
AcDbLine
 10
4.491700293902831
 20
12.40109822405742
 30
0.0
 11
5.419700293902714
 21
12.76509822405743
 31
0.0
  0
LINE
  5
464
330
3B9
100
AcDbEntity
  8
FIXING
  6
Continuous
 62
    15
100
AcDbLine
 10
5.419700293902714
 20
12.76509822405743
 30
0.0
 11
4.492000293902528
 21
13.13959822405744
 31
0.0
  0
LINE
  5
465
330
3B9
100
AcDbEntity
  8
FIXING
  6
Continuous
 62
    15
100
AcDbLine
 10
4.491700293902831
 20
10.69779822405744
 30
0.0
 11
4.491700293902831
 21
12.40109822405742
 31
0.0
  0
LINE
  5
466
330
3B9
100
AcDbEntity
  8
FIXING
  6
Continuous
 62
    15
100
AcDbLine
 10
4.491700293902831
 20
12.40109822405742
 30
0.0
 11
4.491700293902831
 21
10.69779822405744
 31
0.0
  0
LINE
  5
467
330
3B9
100
AcDbEntity
  8
FIXING
  6
Continuous
 62
    15
100
AcDbLine
 10
4.491700293902831
 20
10.69779822405744
 30
0.0
 11
4.491700293902831
 21
12.40109822405742
 31
0.0
  0
LINE
  5
468
330
3B9
100
AcDbEntity
  8
FIXING
  6
Continuous
 62
    15
100
AcDbLine
 10
4.491700293902831
 20
12.40109822405742
 30
0.0
 11
5.419700293902714
 21
12.76509822405743
 31
0.0
  0
LINE
  5
469
330
3B9
100
AcDbEntity
  8
FIXING
  6
Continuous
 62
    15
100
AcDbLine
 10
5.419700293902714
 20
12.76509822405743
 30
0.0
 11
4.492000293902528
 21
13.13959822405744
 31
0.0
  0
LINE
  5
46A
330
3B9
100
AcDbEntity
  8
FIXING
  6
Continuous
 62
    15
100
AcDbLine
 10
4.492000293902528
 20
13.13959822405744
 30
0.0
 11
5.419700293902714
 21
12.76509822405743
 31
0.0
  0
LINE
  5
46B
330
3B9
100
AcDbEntity
  8
FIXING
  6
Continuous
 62
    15
100
AcDbLine
 10
5.419700293902714
 20
12.76509822405743
 30
0.0
 11
1.219600293902694
 21
11.91189822405744
 31
0.0
  0
LINE
  5
46C
330
3B9
100
AcDbEntity
  8
FIXING
  6
Continuous
 62
    15
100
AcDbLine
 10
1.219600293902694
 20
11.91189822405744
 30
0.0
 11
2.147600293902578
 21
11.54789822405743
 31
0.0
  0
LINE
  5
46D
330
3B9
100
AcDbEntity
  8
FIXING
  6
Continuous
 62
    15
100
AcDbLine
 10
2.147600293902578
 20
11.54789822405743
 30
0.0
 11
4.491700293902831
 21
12.40109822405742
 31
0.0
  0
LINE
  5
46E
330
3B9
100
AcDbEntity
  8
FIXING
  6
Continuous
 62
    15
100
AcDbLine
 10
4.491700293902831
 20
12.40109822405742
 30
0.0
 11
4.491800293902578
 21
12.40109822405742
 31
0.0
  0
LINE
  5
46F
330
3B9
100
AcDbEntity
  8
FIXING
  6
Continuous
 62
    15
100
AcDbLine
 10
4.492600293902839
 20
19.72709822405744
 30
0.0
 11
4.492500293902637
 21
19.72709822405744
 31
0.0
  0
LINE
  5
470
330
3B9
100
AcDbEntity
  8
FIXING
  6
Continuous
 62
    15
100
AcDbLine
 10
4.492500293902637
 20
19.72709822405744
 30
0.0
 11
4.492500293902637
 21
18.02379822405743
 31
0.0
  0
LINE
  5
471
330
3B9
100
AcDbEntity
  8
FIXING
  6
Continuous
 62
    15
100
AcDbLine
 10
4.492500293902637
 20
18.02379822405743
 30
0.0
 11
4.492500293902637
 21
19.72709822405744
 31
0.0
  0
LINE
  5
472
330
3B9
100
AcDbEntity
  8
FIXING
  6
Continuous
 62
    15
100
AcDbLine
 10
4.492500293902637
 20
19.72709822405744
 30
0.0
 11
5.420500293902521
 21
20.09109822405742
 31
0.0
  0
LINE
  5
473
330
3B9
100
AcDbEntity
  8
FIXING
  6
Continuous
 62
    15
100
AcDbLine
 10
4.492500293902637
 20
18.02359822405742
 30
0.0
 11
5.420200293902823
 21
17.64909822405744
 31
0.0
  0
LINE
  5
474
330
3B9
100
AcDbEntity
  8
FIXING
  6
Continuous
 62
    15
100
AcDbLine
 10
5.420200293902823
 20
17.64909822405744
 30
0.0
 11
4.492200293902485
 21
17.28509822405744
 31
0.0
  0
LINE
  5
475
330
3B9
100
AcDbEntity
  8
FIXING
  6
Continuous
 62
    15
100
AcDbLine
 10
4.492200293902485
 20
17.28509822405744
 30
0.0
 11
4.492300293902687
 21
17.28509822405744
 31
0.0
  0
LINE
  5
476
330
3B9
100
AcDbEntity
  8
FIXING
  6
Continuous
 62
    15
100
AcDbLine
 10
4.492300293902687
 20
17.28509822405744
 30
0.0
 11
4.492200293902485
 21
17.28509822405744
 31
0.0
  0
LINE
  5
477
330
3B9
100
AcDbEntity
  8
FIXING
  6
Continuous
 62
    15
100
AcDbLine
 10
4.492200293902485
 20
17.28509822405744
 30
0.0
 11
5.420200293902823
 21
17.64909822405744
 31
0.0
  0
LINE
  5
478
330
3B9
100
AcDbEntity
  8
FIXING
  6
Continuous
 62
    15
100
AcDbLine
 10
5.420200293902823
 20
17.64909822405744
 30
0.0
 11
4.492500293902637
 21
18.02359822405742
 31
0.0
  0
LINE
  5
479
330
3B9
100
AcDbEntity
  8
FIXING
  6
Continuous
 62
    15
100
AcDbLine
 10
4.49210029390273
 20
14.84309822405743
 30
0.0
 11
4.492000293902528
 21
14.84299822405742
 31
0.0
  0
LINE
  5
47A
330
3B9
100
AcDbEntity
  8
FIXING
  6
Continuous
 62
    15
100
AcDbLine
 10
4.492000293902528
 20
14.84299822405742
 30
0.0
 11
2.14790029390273
 21
13.98989822405741
 31
0.0
  0
LINE
  5
47B
330
3B9
100
AcDbEntity
  8
FIXING
  6
Continuous
 62
    15
100
AcDbLine
 10
2.14790029390273
 20
13.98989822405741
 30
0.0
 11
1.219900293902846
 21
14.35389822405745
 31
0.0
  0
LINE
  5
47C
330
3B9
100
AcDbEntity
  8
FIXING
  6
Continuous
 62
    15
100
AcDbLine
 10
1.219900293902846
 20
14.35389822405745
 30
0.0
 11
5.420000293902866
 21
15.20709822405743
 31
0.0
  0
LINE
  5
47D
330
3B9
100
AcDbEntity
  8
FIXING
  6
Continuous
 62
    15
100
AcDbLine
 10
5.420000293902866
 20
15.20709822405743
 30
0.0
 11
4.492200293902485
 21
15.58159822405742
 31
0.0
  0
LINE
  5
47E
330
3B9
100
AcDbEntity
  8
FIXING
  6
Continuous
 62
    15
100
AcDbLine
 10
4.492200293902485
 20
15.58159822405742
 30
0.0
 11
5.420000293902866
 21
15.20709822405743
 31
0.0
  0
LINE
  5
47F
330
3B9
100
AcDbEntity
  8
FIXING
  6
Continuous
 62
    15
100
AcDbLine
 10
2.148100293902687
 20
16.43189822405742
 30
0.0
 11
2.148100293902679
 21
14.72859822405744
 31
0.0
  0
LINE
  5
480
330
3B9
100
AcDbEntity
  8
FIXING
  6
Continuous
 62
    15
100
AcDbLine
 10
2.148100293902679
 20
14.72859822405744
 30
0.0
 11
1.219900293902846
 21
14.35389822405745
 31
0.0
  0
LINE
  5
481
330
3B9
100
AcDbEntity
  8
FIXING
  6
Continuous
 62
    15
100
AcDbLine
 10
1.219900293902846
 20
14.35389822405745
 30
0.0
 11
5.420000293902866
 21
15.20709822405743
 31
0.0
  0
LINE
  5
482
330
3B9
100
AcDbEntity
  8
FIXING
  6
Continuous
 62
    15
100
AcDbLine
 10
5.420000293902866
 20
15.20709822405743
 30
0.0
 11
4.492000293902528
 21
14.84299822405742
 31
0.0
  0
LINE
  5
483
330
3B9
100
AcDbEntity
  8
FIXING
  6
Continuous
 62
    15
100
AcDbLine
 10
4.492000293902528
 20
14.84299822405742
 30
0.0
 11
2.14790029390273
 21
13.98989822405741
 31
0.0
  0
LINE
  5
484
330
3B9
100
AcDbEntity
  8
FIXING
  6
Continuous
 62
    15
100
AcDbLine
 10
2.148100293902679
 20
14.72859822405744
 30
0.0
 11
1.219900293902846
 21
14.35389822405745
 31
0.0
  0
LINE
  5
485
330
3B9
100
AcDbEntity
  8
FIXING
  6
Continuous
 62
    15
100
AcDbLine
 10
1.219900293902846
 20
14.35389822405745
 30
0.0
 11
2.14790029390273
 21
13.98989822405741
 31
0.0
  0
LINE
  5
486
330
3B9
100
AcDbEntity
  8
FIXING
  6
Continuous
 62
    15
100
AcDbLine
 10
2.14790029390273
 20
13.98989822405741
 30
0.0
 11
4.492000293902528
 21
14.84299822405742
 31
0.0
  0
LINE
  5
487
330
3B9
100
AcDbEntity
  8
FIXING
  6
Continuous
 62
    15
100
AcDbLine
 10
4.492000293902528
 20
14.84299822405742
 30
0.0
 11
5.420000293902866
 21
15.20709822405743
 31
0.0
  0
LINE
  5
488
330
3B9
100
AcDbEntity
  8
FIXING
  6
Continuous
 62
    15
100
AcDbLine
 10
5.420000293902866
 20
15.20709822405743
 30
0.0
 11
1.219900293902846
 21
14.35389822405745
 31
0.0
  0
LINE
  5
489
330
3B9
100
AcDbEntity
  8
FIXING
  6
Continuous
 62
    15
100
AcDbLine
 10
1.219900293902846
 20
14.35389822405745
 30
0.0
 11
2.14790029390273
 21
13.98989822405741
 31
0.0
  0
LINE
  5
48A
330
3B9
100
AcDbEntity
  8
FIXING
  6
Continuous
 62
    15
100
AcDbLine
 10
2.14790029390273
 20
13.98989822405741
 30
0.0
 11
4.492000293902528
 21
14.84299822405742
 31
0.0
  0
LINE
  5
48B
330
3B9
100
AcDbEntity
  8
FIXING
  6
Continuous
 62
    15
100
AcDbLine
 10
4.492000293902528
 20
14.84299822405742
 30
0.0
 11
4.49210029390273
 21
14.84309822405743
 31
0.0
  0
LINE
  5
48C
330
3B9
100
AcDbEntity
  8
FIXING
  6
Continuous
 62
    15
100
AcDbLine
 10
4.492800293902789
 20
20.46559822405743
 30
0.0
 11
5.420500293902521
 21
20.09109822405742
 31
0.0
  0
LINE
  5
48D
330
3B9
100
AcDbEntity
  8
FIXING
  6
Continuous
 62
    15
100
AcDbLine
 10
5.420500293902521
 20
20.09109822405742
 30
0.0
 11
1.2204002939025
 21
19.23799822405743
 31
0.0
  0
LINE
  5
48E
330
3B9
100
AcDbEntity
  8
FIXING
  6
Continuous
 62
    15
100
AcDbLine
 10
1.2204002939025
 20
19.23799822405743
 30
0.0
 11
2.148400293902839
 21
18.87389822405743
 31
0.0
  0
LINE
  5
48F
330
3B9
100
AcDbEntity
  8
FIXING
  6
Continuous
 62
    15
100
AcDbLine
 10
2.148400293902839
 20
18.87389822405743
 30
0.0
 11
4.492500293902637
 21
19.72709822405744
 31
0.0
  0
LINE
  5
490
330
3B9
100
AcDbEntity
  8
FIXING
  6
Continuous
 62
    15
100
AcDbLine
 10
4.492500293902637
 20
19.72709822405744
 30
0.0
 11
4.492500293902637
 21
18.02379822405743
 31
0.0
  0
LINE
  5
491
330
3B9
100
AcDbEntity
  8
FIXING
  6
Continuous
 62
    15
100
AcDbLine
 10
2.148100293902687
 20
16.43189822405742
 30
0.0
 11
4.492200293902485
 21
17.28509822405744
 31
0.0
  0
LINE
  5
492
330
3B9
100
AcDbEntity
  8
FIXING
  6
Continuous
 62
    15
100
AcDbLine
 10
4.492200293902485
 20
17.28509822405744
 30
0.0
 11
5.420200293902823
 21
17.64909822405744
 31
0.0
  0
LINE
  5
493
330
3B9
100
AcDbEntity
  8
FIXING
  6
Continuous
 62
    15
100
AcDbLine
 10
5.420200293902823
 20
17.64909822405744
 30
0.0
 11
1.220100293902803
 21
16.79589822405742
 31
0.0
  0
LINE
  5
494
330
3B9
100
AcDbEntity
  8
FIXING
  6
Continuous
 62
    15
100
AcDbLine
 10
1.220100293902803
 20
16.79589822405742
 30
0.0
 11
2.148300293902636
 21
17.17059822405741
 31
0.0
  0
LINE
  5
495
330
3B9
100
AcDbEntity
  8
FIXING
  6
Continuous
 62
    15
100
AcDbLine
 10
2.148300293902636
 20
17.17059822405741
 30
0.0
 11
2.148300293902636
 21
18.02359822405742
 31
0.0
  0
LINE
  5
496
330
3B9
100
AcDbEntity
  8
FIXING
  6
Continuous
 62
    15
100
AcDbLine
 10
2.148300293902636
 20
18.02359822405742
 30
0.0
 11
2.148300293902636
 21
17.17059822405741
 31
0.0
  0
LINE
  5
497
330
3B9
100
AcDbEntity
  8
FIXING
  6
Continuous
 62
    15
100
AcDbLine
 10
2.148300293902636
 20
17.17059822405741
 30
0.0
 11
1.220100293902803
 21
16.79589822405742
 31
0.0
  0
LINE
  5
498
330
3B9
100
AcDbEntity
  8
FIXING
  6
Continuous
 62
    15
100
AcDbLine
 10
1.220100293902803
 20
16.79589822405742
 30
0.0
 11
5.420200293902823
 21
17.64909822405744
 31
0.0
  0
LINE
  5
499
330
3B9
100
AcDbEntity
  8
FIXING
  6
Continuous
 62
    15
100
AcDbLine
 10
5.420200293902823
 20
17.64909822405744
 30
0.0
 11
4.492200293902485
 21
17.28509822405744
 31
0.0
  0
LINE
  5
49A
330
3B9
100
AcDbEntity
  8
FIXING
  6
Continuous
 62
    15
100
AcDbLine
 10
4.492200293902485
 20
17.28509822405744
 30
0.0
 11
2.148100293902687
 21
16.43189822405742
 31
0.0
  0
LINE
  5
49B
330
3B9
100
AcDbEntity
  8
FIXING
  6
Continuous
 62
    15
100
AcDbLine
 10
2.148100293902687
 20
16.43189822405742
 30
0.0
 11
1.220100293902803
 21
16.79589822405742
 31
0.0
  0
LINE
  5
49C
330
3B9
100
AcDbEntity
  8
FIXING
  6
Continuous
 62
    15
100
AcDbLine
 10
1.220100293902803
 20
16.79589822405742
 30
0.0
 11
2.148300293902636
 21
17.17059822405741
 31
0.0
  0
LINE
  5
49D
330
3B9
100
AcDbEntity
  8
FIXING
  6
Continuous
 62
    15
100
AcDbLine
 10
2.148300293902636
 20
17.17059822405741
 30
0.0
 11
2.148300293902636
 21
18.87389822405743
 31
0.0
  0
LINE
  5
49E
330
3B9
100
AcDbEntity
  8
FIXING
  6
Continuous
 62
    15
100
AcDbLine
 10
4.492200293902485
 20
17.28509822405744
 30
0.0
 11
4.492300293902687
 21
17.28509822405744
 31
0.0
  0
LINE
  5
49F
330
3B9
100
AcDbEntity
  8
FIXING
  6
Continuous
 62
    15
100
AcDbLine
 10
4.492300293902687
 20
17.28509822405744
 30
0.0
 11
4.492200293902485
 21
17.28509822405744
 31
0.0
  0
LINE
  5
4A0
330
3B9
100
AcDbEntity
  8
FIXING
  6
Continuous
 62
    15
100
AcDbLine
 10
4.492200293902485
 20
17.28509822405744
 30
0.0
 11
2.148100293902687
 21
16.43189822405742
 31
0.0
  0
LINE
  5
4A1
330
3B9
100
AcDbEntity
  8
FIXING
  6
Continuous
 62
    15
100
AcDbLine
 10
2.148100293902687
 20
16.43189822405742
 30
0.0
 11
1.220100293902803
 21
16.79589822405742
 31
0.0
  0
LINE
  5
4A2
330
3B9
100
AcDbEntity
  8
FIXING
  6
Continuous
 62
    15
100
AcDbLine
 10
1.220100293902803
 20
16.79589822405742
 30
0.0
 11
5.420200293902823
 21
17.64909822405744
 31
0.0
  0
LINE
  5
4A3
330
3B9
100
AcDbEntity
  8
FIXING
  6
Continuous
 62
    15
100
AcDbLine
 10
5.420200293902823
 20
17.64909822405744
 30
0.0
 11
4.492200293902485
 21
17.28509822405744
 31
0.0
  0
LINE
  5
4A4
330
3B9
100
AcDbEntity
  8
FIXING
  6
Continuous
 62
    15
100
AcDbLine
 10
4.492200293902485
 20
17.28509822405744
 30
0.0
 11
2.148100293902687
 21
16.43189822405742
 31
0.0
  0
LINE
  5
4A5
330
3B9
100
AcDbEntity
  8
FIXING
  6
Continuous
 62
    15
100
AcDbLine
 10
2.148100293902687
 20
16.43189822405742
 30
0.0
 11
1.220100293902803
 21
16.79589822405742
 31
0.0
  0
LINE
  5
4A6
330
3B9
100
AcDbEntity
  8
FIXING
  6
Continuous
 62
    15
100
AcDbLine
 10
1.220100293902803
 20
16.79589822405742
 30
0.0
 11
2.148300293902636
 21
17.17059822405741
 31
0.0
  0
LINE
  5
4A7
330
3B9
100
AcDbEntity
  8
FIXING
  6
Continuous
 62
    15
100
AcDbLine
 10
2.148300293902636
 20
17.17059822405741
 30
0.0
 11
2.148300293902636
 21
18.87389822405743
 31
0.0
  0
LINE
  5
4A8
330
3B9
100
AcDbEntity
  8
FIXING
  6
Continuous
 62
    15
100
AcDbLine
 10
2.148300293902636
 20
18.87389822405743
 30
0.0
 11
2.148300293902636
 21
17.17059822405741
 31
0.0
  0
LINE
  5
4A9
330
3B9
100
AcDbEntity
  8
FIXING
  6
Continuous
 62
    15
100
AcDbLine
 10
4.492200293902485
 20
15.58179822405742
 30
0.0
 11
4.492200293902485
 21
17.28509822405744
 31
0.0
  0
LINE
  5
4AA
330
3B9
100
AcDbEntity
  8
FIXING
  6
Continuous
 62
    15
100
AcDbLine
 10
4.492200293902485
 20
17.28509822405744
 30
0.0
 11
4.492200293902485
 21
15.58179822405742
 31
0.0
  0
LINE
  5
4AB
330
3B9
100
AcDbEntity
  8
FIXING
  6
Continuous
 62
    15
100
AcDbLine
 10
4.492200293902485
 20
15.58179822405742
 30
0.0
 11
4.492200293902485
 21
17.28509822405744
 31
0.0
  0
LINE
  5
4AC
330
3B9
100
AcDbEntity
  8
FIXING
  6
Continuous
 62
    15
100
AcDbLine
 10
4.492200293902485
 20
17.28509822405744
 30
0.0
 11
5.420200293902823
 21
17.64909822405744
 31
0.0
  0
LINE
  5
4AD
330
3B9
100
AcDbEntity
  8
FIXING
  6
Continuous
 62
    15
100
AcDbLine
 10
5.420200293902823
 20
17.64909822405744
 30
0.0
 11
4.492500293902637
 21
18.02359822405742
 31
0.0
  0
LINE
  5
4AE
330
3B9
100
AcDbEntity
  8
FIXING
  6
Continuous
 62
    15
100
AcDbLine
 10
4.492500293902637
 20
18.02359822405742
 30
0.0
 11
5.420200293902823
 21
17.64909822405744
 31
0.0
  0
LINE
  5
4AF
330
3B9
100
AcDbEntity
  8
FIXING
  6
Continuous
 62
    15
100
AcDbLine
 10
5.420200293902823
 20
17.64909822405744
 30
0.0
 11
1.220100293902803
 21
16.79589822405742
 31
0.0
  0
LINE
  5
4B0
330
3B9
100
AcDbEntity
  8
FIXING
  6
Continuous
 62
    15
100
AcDbLine
 10
1.220100293902803
 20
16.79589822405742
 30
0.0
 11
2.148100293902687
 21
16.43189822405742
 31
0.0
  0
LINE
  5
4B1
330
3B9
100
AcDbEntity
  8
FIXING
  6
Continuous
 62
    15
100
AcDbLine
 10
2.148100293902687
 20
16.43189822405742
 30
0.0
 11
4.492200293902485
 21
17.28509822405744
 31
0.0
  0
LINE
  5
4B2
330
3B9
100
AcDbEntity
  8
FIXING
  6
Continuous
 62
    15
100
AcDbLine
 10
4.492200293902485
 20
17.28509822405744
 30
0.0
 11
4.492300293902687
 21
17.28509822405744
 31
0.0
  0
LINE
  5
4B3
330
3B9
100
AcDbEntity
  8
FIXING
  6
Continuous
 62
    15
100
AcDbLine
 10
2.148100293902687
 20
15.58159822405742
 30
0.0
 11
2.148100293902679
 21
14.72859822405744
 31
0.0
  0
LINE
  5
4B4
330
3B9
100
AcDbEntity
  8
FIXING
  6
Continuous
 62
    15
100
AcDbLine
 10
2.148100293902679
 20
14.72859822405744
 30
0.0
 11
2.148100293902687
 21
16.43189822405742
 31
0.0
  0
LINE
  5
4B5
330
3B9
100
AcDbEntity
  8
FIXING
  6
Continuous
 62
    15
100
AcDbLine
 10
2.148100293902687
 20
16.43189822405742
 30
0.0
 11
2.148100293902679
 21
14.72859822405744
 31
0.0
  0
LINE
  5
4B6
330
3B9
100
AcDbEntity
  8
FIXING
  6
Continuous
 62
    15
100
AcDbLine
 10
2.148100293902679
 20
14.72859822405744
 30
0.0
 11
2.148100293902687
 21
15.58159822405742
 31
0.0
  0
LINE
  5
4B7
330
3B9
100
AcDbEntity
  8
FIXING
  6
Continuous
 62
    15
100
AcDbLine
 10
2.147800293902527
 20
13.13959822405744
 30
0.0
 11
2.147800293902527
 21
12.28659822405743
 31
0.0
  0
LINE
  5
4B8
330
3B9
100
AcDbEntity
  8
FIXING
  6
Continuous
 62
    15
100
AcDbLine
 10
2.147800293902527
 20
12.28659822405743
 30
0.0
 11
2.147800293902527
 21
13.98989822405741
 31
0.0
  0
LINE
  5
4B9
330
3B9
100
AcDbEntity
  8
FIXING
  6
Continuous
 62
    15
100
AcDbLine
 10
2.147800293902527
 20
13.98989822405741
 30
0.0
 11
2.147800293902527
 21
12.28659822405743
 31
0.0
  0
LINE
  5
4BA
330
3B9
100
AcDbEntity
  8
FIXING
  6
Continuous
 62
    15
100
AcDbLine
 10
2.147800293902527
 20
12.28659822405743
 30
0.0
 11
2.147800293902527
 21
13.13959822405744
 31
0.0
  0
LINE
  5
4BB
330
3B9
100
AcDbEntity
  8
FIXING
  6
Continuous
 62
    15
100
AcDbLine
 10
2.147600293902578
 20
12.28639822405742
 30
0.0
 11
4.491800293902578
 21
13.13969822405744
 31
0.0
  0
LINE
  5
4BC
330
3B9
100
AcDbEntity
  8
FIXING
  6
Continuous
 62
    15
100
AcDbLine
 10
4.491800293902578
 20
13.13969822405744
 30
0.0
 11
2.147600293902578
 21
12.28639822405742
 31
0.0
  0
LINE
  5
4BD
330
3B9
100
AcDbEntity
  8
FIXING
  6
Continuous
 62
    15
100
AcDbLine
 10
2.147600293902578
 20
12.28639822405742
 30
0.0
 11
4.491800293902578
 21
13.13969822405744
 31
0.0
  0
LINE
  5
4BE
330
3B9
100
AcDbEntity
  8
FIXING
  6
Continuous
 62
    15
100
AcDbLine
 10
1.220700293902645
 20
14.27489822405744
 30
0.0
 11
1.220700293902645
 21
14.27489822405744
 31
0.0
  0
LINE
  5
4BF
330
3B9
100
AcDbEntity
  8
FIXING
  6
Continuous
 62
    15
100
AcDbLine
 10
1.220700293902645
 20
14.27489822405744
 30
0.0
 11
1.220700293902645
 21
14.27489822405744
 31
0.0
  0
LINE
  5
4C0
330
3B9
100
AcDbEntity
  8
FIXING
  6
Continuous
 62
    15
100
AcDbLine
 10
2.14790029390273
 20
14.72839822405743
 30
0.0
 11
4.492100293902737
 21
15.58159822405742
 31
0.0
  0
LINE
  5
4C1
330
3B9
100
AcDbEntity
  8
FIXING
  6
Continuous
 62
    15
100
AcDbLine
 10
4.492100293902737
 20
15.58159822405742
 30
0.0
 11
2.14790029390273
 21
14.72839822405743
 31
0.0
  0
LINE
  5
4C2
330
3B9
100
AcDbEntity
  8
FIXING
  6
Continuous
 62
    15
100
AcDbLine
 10
1.220600293902905
 20
21.67989822405744
 30
0.0
 11
2.148800293902738
 21
22.05459822405743
 31
0.0
  0
LINE
  5
4C3
330
3B9
100
AcDbEntity
  8
FIXING
  6
Continuous
 62
    15
100
AcDbLine
 10
1.2204002939025
 20
19.23799822405743
 30
0.0
 11
2.148600293902788
 21
19.61259822405742
 31
0.0
  0
LINE
  5
4C4
330
3B9
100
AcDbEntity
  8
FIXING
  6
Continuous
 62
    15
100
AcDbLine
 10
2.148300293902636
 20
18.02359822405742
 30
0.0
 11
2.148300293902636
 21
17.17059822405741
 31
0.0
  0
LINE
  5
4C5
330
3B9
100
AcDbEntity
  8
FIXING
  6
Continuous
 62
    15
100
AcDbLine
 10
2.148300293902636
 20
17.17059822405741
 30
0.0
 11
2.148300293902636
 21
18.87389822405743
 31
0.0
  0
LINE
  5
4C6
330
3B9
100
AcDbEntity
  8
FIXING
  6
Continuous
 62
    15
100
AcDbLine
 10
2.148300293902636
 20
18.87389822405743
 30
0.0
 11
2.148300293902636
 21
17.17059822405741
 31
0.0
  0
LINE
  5
4C7
330
3B9
100
AcDbEntity
  8
FIXING
  6
Continuous
 62
    15
100
AcDbLine
 10
2.148300293902636
 20
17.17059822405741
 30
0.0
 11
2.148300293902636
 21
18.02359822405742
 31
0.0
  0
LINE
  5
4C8
330
3B9
100
AcDbEntity
  8
FIXING
  6
Continuous
 62
    15
100
AcDbLine
 10
2.148400293902839
 20
19.61249822405745
 30
0.0
 11
4.492600293902839
 21
20.46569822405743
 31
0.0
  0
LINE
  5
4C9
330
3B9
100
AcDbEntity
  8
FIXING
  6
Continuous
 62
    15
100
AcDbLine
 10
2.148100293902687
 20
17.17039822405744
 30
0.0
 11
4.492300293902687
 21
18.02369822405743
 31
0.0
  0
LINE
  5
4CA
330
3B9
100
AcDbEntity
  8
FIXING
  6
Continuous
 62
    15
100
AcDbLine
 10
4.492300293902687
 20
18.02369822405743
 30
0.0
 11
2.148100293902687
 21
17.17039822405744
 31
0.0
  0
LINE
  5
4CB
330
3B9
100
AcDbEntity
  8
FIXING
  6
Continuous
 62
    15
100
AcDbLine
 10
2.148100293902687
 20
17.17039822405744
 30
0.0
 11
4.492300293902687
 21
18.02369822405743
 31
0.0
  0
LINE
  5
4CC
330
3B9
100
AcDbEntity
  8
FIXING
  6
Continuous
 62
    15
100
AcDbLine
 10
2.148600293902788
 20
21.31589822405743
 30
0.0
 11
2.148600293902788
 21
19.61259822405742
 31
0.0
  0
LINE
  5
4CD
330
3B9
100
AcDbEntity
  8
FIXING
  6
Continuous
 62
    15
100
AcDbLine
 10
2.148600293902788
 20
19.61259822405742
 30
0.0
 11
2.148600293902788
 21
20.46559822405743
 31
0.0
  0
LINE
  5
4CE
330
3B9
100
AcDbEntity
  8
FIXING
  6
Continuous
 62
    15
100
AcDbLine
 10
5.420600293902723
 20
22.53299822405745
 30
0.0
 11
4.492900293902537
 21
22.90749822405743
 31
0.0
  0
LINE
  5
4CF
330
3B9
100
AcDbEntity
  8
FIXING
  6
Continuous
 62
    15
100
AcDbLine
 10
5.420800293902673
 20
24.97499822405743
 30
0.0
 11
4.493100293902486
 21
25.34949822405741
 31
0.0
  0
LINE
  5
4D0
330
3B9
100
AcDbEntity
  8
FIXING
  6
Continuous
 62
    15
100
AcDbLine
 10
4.492800293902789
 20
22.90769822405741
 30
0.0
 11
4.492800293902789
 21
24.61089822405745
 31
0.0
  0
LINE
  5
4D1
330
3B9
100
AcDbEntity
  8
FIXING
  6
Continuous
 62
    15
100
AcDbLine
 10
4.492800293902789
 20
24.61089822405745
 30
0.0
 11
4.492800293902789
 21
22.90769822405741
 31
0.0
  0
LINE
  5
4D2
330
3B9
100
AcDbEntity
  8
FIXING
  6
Continuous
 62
    15
100
AcDbLine
 10
4.492800293902789
 20
22.90769822405741
 30
0.0
 11
4.492800293902789
 21
24.61089822405745
 31
0.0
  0
LINE
  5
4D3
330
3B9
100
AcDbEntity
  8
FIXING
  6
Continuous
 62
    15
100
AcDbLine
 10
4.492800293902789
 20
24.61089822405745
 30
0.0
 11
5.420800293902673
 21
24.97499822405743
 31
0.0
  0
LINE
  5
4D4
330
3B9
100
AcDbEntity
  8
FIXING
  6
Continuous
 62
    15
100
AcDbLine
 10
5.420800293902673
 20
24.97499822405743
 30
0.0
 11
4.493100293902486
 21
25.34949822405741
 31
0.0
  0
LINE
  5
4D5
330
3B9
100
AcDbEntity
  8
FIXING
  6
Continuous
 62
    15
100
AcDbLine
 10
1.725400293902609
 20
28.23219822405741
 30
0.0
 11
0.9553002939028801
 21
28.67669822405742
 31
0.0
  0
LINE
  5
4D6
330
3B9
100
AcDbEntity
  8
FIXING
  6
Continuous
 62
    15
100
AcDbLine
 10
0.9553002939028801
 20
28.67669822405742
 30
0.0
 11
5.686500293902597
 21
28.67659822405744
 31
0.0
  0
LINE
  5
4D7
330
3B9
100
AcDbEntity
  8
FIXING
  6
Continuous
 62
    15
100
AcDbLine
 10
5.686500293902597
 20
28.67659822405744
 30
0.0
 11
6.641800293902676
 21
29.63199822405744
 31
0.0
  0
LINE
  5
4D8
330
3B9
100
AcDbEntity
  8
FIXING
  6
Continuous
 62
    15
100
AcDbLine
 10
6.641800293902676
 20
29.63199822405744
 30
0.0
 11
0.0000002939028008
 21
29.63209822405742
 31
0.0
  0
LINE
  5
4D9
330
3B9
100
AcDbEntity
  8
FIXING
  6
Continuous
 62
    15
100
AcDbLine
 10
0.9553002939028801
 20
30.38599822405743
 30
0.0
 11
5.686500293902597
 21
30.38589822405743
 31
0.0
  0
LINE
  5
4DA
330
3B9
100
AcDbEntity
  8
FIXING
  6
Continuous
 62
    15
100
AcDbLine
 10
5.686500293902597
 20
30.38589822405743
 30
0.0
 11
6.641800293902676
 21
29.99989822405743
 31
0.0
  0
LINE
  5
4DB
330
3B9
100
AcDbEntity
  8
FIXING
  6
Continuous
 62
    15
100
AcDbLine
 10
6.641800293902676
 20
29.99989822405743
 30
0.0
 11
0.0000002939028008
 21
29.99999822405744
 31
0.0
  0
LINE
  5
4DC
330
3B9
100
AcDbEntity
  8
FIXING
  6
Continuous
 62
    15
100
AcDbLine
 10
5.686500293902597
 20
30.38589822405743
 30
0.0
 11
0.9553002939028801
 21
30.38599822405743
 31
0.0
  0
LINE
  5
4DD
330
3B9
100
AcDbEntity
  8
FIXING
  6
Continuous
 62
    15
100
AcDbLine
 10
0.9553002939028801
 20
30.38599822405743
 30
0.0
 11
0.0000002939028008
 21
29.99999822405744
 31
0.0
  0
LINE
  5
4DE
330
3B9
100
AcDbEntity
  8
FIXING
  6
Continuous
 62
    15
100
AcDbLine
 10
0.0000002939028008
 20
29.99999822405744
 30
0.0
 11
0.0000002939028008
 21
29.63209822405742
 31
0.0
  0
LINE
  5
4DF
330
3B9
100
AcDbEntity
  8
FIXING
  6
Continuous
 62
    15
100
AcDbLine
 10
0.0000002939028008
 20
29.63209822405742
 30
0.0
 11
0.9553002939028801
 21
28.67669822405742
 31
0.0
  0
LINE
  5
4E0
330
3B9
100
AcDbEntity
  8
FIXING
  6
Continuous
 62
    15
100
AcDbLine
 10
0.9553002939028801
 20
28.67669822405742
 30
0.0
 11
5.686500293902597
 21
28.67659822405744
 31
0.0
  0
LINE
  5
4E1
330
3B9
100
AcDbEntity
  8
FIXING
  6
Continuous
 62
    15
100
AcDbLine
 10
5.686500293902597
 20
28.67659822405744
 30
0.0
 11
4.916600293902817
 21
28.23219822405741
 31
0.0
  0
LINE
  5
4E2
330
3B9
100
AcDbEntity
  8
FIXING
  6
Continuous
 62
    15
100
AcDbLine
 10
2.148800293902738
 20
23.75789822405744
 30
0.0
 11
1.220800293902855
 21
24.12189822405742
 31
0.0
  0
LINE
  5
4E3
330
3B9
100
AcDbEntity
  8
FIXING
  6
Continuous
 62
    15
100
AcDbLine
 10
1.220800293902855
 20
24.12189822405742
 30
0.0
 11
5.420900293902875
 21
24.97509822405743
 31
0.0
  0
LINE
  5
4E4
330
3B9
100
AcDbEntity
  8
FIXING
  6
Continuous
 62
    15
100
AcDbLine
 10
5.420900293902875
 20
24.97509822405743
 30
0.0
 11
4.492900293902537
 21
24.61099822405743
 31
0.0
  0
LINE
  5
4E5
330
3B9
100
AcDbEntity
  8
FIXING
  6
Continuous
 62
    15
100
AcDbLine
 10
4.492900293902537
 20
24.61099822405743
 30
0.0
 11
2.148800293902738
 21
23.75789822405744
 31
0.0
  0
ARC
  5
4E6
330
3B9
100
AcDbEntity
  8
FIXING
  6
Continuous
 62
    15
100
AcDbCircle
 10
5.111900293902679
 20
27.89379822405743
 30
0.0
 40
0.3907
100
AcDbArc
 50
120.0004000000002
 51
180.0
  0
ARC
  5
4E7
330
3B9
100
AcDbEntity
  8
FIXING
  6
Continuous
 62
    15
100
AcDbCircle
 10
1.530000293902546
 20
27.89379822405743
 30
0.0
 40
0.3907
100
AcDbArc
 50
0.0
 51
59.99950000000186
  0
LINE
  5
4E8
330
3B9
100
AcDbEntity
  8
FIXING
  6
Continuous
 62
    15
100
AcDbLine
 10
3.446400293902613
 20
22.64529822405743
 30
0.0
 11
3.446400293902613
 21
22.64529822405743
 31
0.0
  0
LINE
  5
4E9
330
3B9
100
AcDbEntity
  8
FIXING
  6
Continuous
 62
    15
100
AcDbLine
 10
4.492600293902839
 20
22.16899822405742
 30
0.0
 11
4.492700293902587
 21
22.16899822405742
 31
0.0
  0
LINE
  5
4EA
330
3B9
100
AcDbEntity
  8
FIXING
  6
Continuous
 62
    15
100
AcDbLine
 10
4.492700293902587
 20
22.16899822405742
 30
0.0
 11
4.492800293902789
 21
22.16909822405745
 31
0.0
  0
LINE
  5
4EB
330
3B9
100
AcDbEntity
  8
FIXING
  6
Continuous
 62
    15
100
AcDbLine
 10
4.492900293902537
 20
24.61099822405743
 30
0.0
 11
4.493000293902739
 21
24.61109822405743
 31
0.0
  0
LINE
  5
4EC
330
3B9
100
AcDbEntity
  8
FIXING
  6
Continuous
 62
    15
100
AcDbLine
 10
4.492800293902789
 20
24.61099822405743
 30
0.0
 11
4.492900293902537
 21
24.61099822405743
 31
0.0
  0
LINE
  5
4ED
330
3B9
100
AcDbEntity
  8
FIXING
  6
Continuous
 62
    15
100
AcDbLine
 10
3.446600293902563
 20
25.08729822405743
 30
0.0
 11
3.446600293902563
 21
25.08729822405743
 31
0.0
  0
LINE
  5
4EE
330
3B9
100
AcDbEntity
  8
FIXING
  6
Continuous
 62
    15
100
AcDbLine
 10
1.220800293902855
 20
24.12189822405742
 30
0.0
 11
2.149000293902688
 21
24.49659822405744
 31
0.0
  0
LINE
  5
4EF
330
3B9
100
AcDbEntity
  8
FIXING
  6
Continuous
 62
    15
100
AcDbLine
 10
2.148900293902486
 20
25.34949822405741
 30
0.0
 11
2.148900293902486
 21
24.49649822405743
 31
0.0
  0
LINE
  5
4F0
330
3B9
100
AcDbEntity
  8
FIXING
  6
Continuous
 62
    15
100
AcDbLine
 10
2.148900293902486
 20
24.49649822405743
 30
0.0
 11
1.220700293902652
 21
24.12179822405744
 31
0.0
  0
LINE
  5
4F1
330
3B9
100
AcDbEntity
  8
FIXING
  6
Continuous
 62
    15
100
AcDbLine
 10
4.721200293902754
 20
27.89379822405743
 30
0.0
 11
4.721200293902754
 21
27.63099822405744
 31
0.0
  0
LINE
  5
4F2
330
3B9
100
AcDbEntity
  8
FIXING
  6
Continuous
 62
    15
100
AcDbLine
 10
4.721200293902754
 20
27.63099822405744
 30
0.0
 11
4.068600293902861
 21
27.63099822405744
 31
0.0
  0
LINE
  5
4F3
330
3B9
100
AcDbEntity
  8
FIXING
  6
Continuous
 62
    15
100
AcDbLine
 10
4.068600293902861
 20
27.63099822405744
 30
0.0
 11
1.996200293902845
 21
26.87669822405744
 31
0.0
  0
LINE
  5
4F4
330
3B9
100
AcDbEntity
  8
FIXING
  6
Continuous
 62
    15
100
AcDbLine
 10
1.920800293902673
 20
27.89379822405743
 30
0.0
 11
1.920800293902673
 21
27.63099822405744
 31
0.0
  0
LINE
  5
4F5
330
3B9
100
AcDbEntity
  8
FIXING
  6
Continuous
 62
    15
100
AcDbLine
 10
1.920800293902673
 20
27.63099822405744
 30
0.0
 11
1.996200293902845
 21
26.87669822405744
 31
0.0
  0
LINE
  5
4F6
330
3B9
100
AcDbEntity
  8
FIXING
  6
Continuous
 62
    15
100
AcDbLine
 10
1.996200293902845
 20
26.87669822405744
 30
0.0
 11
1.462800293902589
 21
26.66139822405745
 31
0.0
  0
LINE
  5
4F7
330
3B9
100
AcDbEntity
  8
FIXING
  6
Continuous
 62
    15
100
AcDbLine
 10
1.462800293902589
 20
26.66139822405745
 30
0.0
 11
1.462800293902589
 21
26.46869822405745
 31
0.0
  0
LINE
  5
4F8
330
3B9
100
AcDbEntity
  8
FIXING
  6
Continuous
 62
    15
100
AcDbLine
 10
1.462800293902589
 20
26.46869822405745
 30
0.0
 11
4.883400293902511
 21
27.26169822405743
 31
0.0
  0
LINE
  5
4F9
330
3B9
100
AcDbEntity
  8
FIXING
  6
Continuous
 62
    15
100
AcDbLine
 10
4.883400293902511
 20
27.26169822405743
 30
0.0
 11
4.883400293902511
 21
27.57199822405744
 31
0.0
  0
LINE
  5
4FA
330
3B9
100
AcDbEntity
  8
FIXING
  6
Continuous
 62
    15
100
AcDbLine
 10
4.883400293902511
 20
27.57199822405744
 30
0.0
 11
4.721200293902754
 21
27.63099822405744
 31
0.0
  0
LINE
  5
4FB
330
3B9
100
AcDbEntity
  8
FIXING
  6
Continuous
 62
    15
100
AcDbLine
 10
4.493100293902486
 20
25.34949822405741
 30
0.0
 11
2.148900293902486
 21
25.34949822405741
 31
0.0
  0
LINE
  5
4FC
330
3B9
100
AcDbEntity
  8
FIXING
  6
Continuous
 62
    15
100
AcDbLine
 10
2.148900293902486
 20
25.34949822405741
 30
0.0
 11
2.060400293902646
 21
26.23429822405743
 31
0.0
  0
LINE
  5
4FD
330
3B9
100
AcDbEntity
  8
FIXING
  6
Continuous
 62
    15
100
AcDbLine
 10
2.060400293902646
 20
26.23429822405743
 30
0.0
 11
1.462800293902589
 21
26.46869822405745
 31
0.0
  0
LINE
  5
4FE
330
3B9
100
AcDbEntity
  8
FIXING
  6
Continuous
 62
    15
100
AcDbLine
 10
1.462800293902589
 20
26.46869822405745
 30
0.0
 11
1.462800293902589
 21
26.66139822405745
 31
0.0
  0
LINE
  5
4FF
330
3B9
100
AcDbEntity
  8
FIXING
  6
Continuous
 62
    15
100
AcDbLine
 10
1.462800293902589
 20
26.66139822405745
 30
0.0
 11
4.883400293902511
 21
27.57199822405744
 31
0.0
  0
LINE
  5
500
330
3B9
100
AcDbEntity
  8
FIXING
  6
Continuous
 62
    15
100
AcDbLine
 10
4.883400293902511
 20
27.57199822405744
 30
0.0
 11
4.883400293902511
 21
27.26169822405743
 31
0.0
  0
LINE
  5
501
330
3B9
100
AcDbEntity
  8
FIXING
  6
Continuous
 62
    15
100
AcDbLine
 10
4.883400293902511
 20
27.26169822405743
 30
0.0
 11
2.060400293902646
 21
26.23429822405743
 31
0.0
  0
LINE
  5
502
330
3B9
100
AcDbEntity
  8
FIXING
  6
Continuous
 62
    15
100
AcDbLine
 10
2.060200293902696
 20
27.63099822405744
 30
0.0
 11
3.779200293902747
 21
27.63099822405744
 31
0.0
  0
LINE
  5
503
330
3B9
100
AcDbEntity
  8
FIXING
  6
Continuous
 62
    15
100
AcDbLine
 10
2.148900293902486
 20
24.49629822405743
 30
0.0
 11
4.493100293902486
 21
25.34949822405741
 31
0.0
  0
LINE
  5
504
330
3B9
100
AcDbEntity
  8
FIXING
  6
Continuous
 62
    15
100
AcDbLine
 10
4.493100293902486
 20
25.34949822405741
 30
0.0
 11
4.676800293902531
 21
27.18659822405743
 31
0.0
  0
LINE
  5
505
330
3B9
100
AcDbEntity
  8
FIXING
  6
Continuous
 62
    15
100
AcDbLine
 10
1.920800293902673
 20
28.11939822405742
 30
0.0
 11
4.721200293902754
 21
28.11939822405742
 31
0.0
  0
LINE
  5
506
330
3B9
100
AcDbEntity
  8
FIXING
  6
Continuous
 62
    15
100
AcDbLine
 10
6.641800293902676
 20
29.99989822405743
 30
0.0
 11
6.641800293902676
 21
29.63199822405744
 31
0.0
  0
ENDBLK
  5
3BB
330
3B9
100
AcDbEntity
  8
0
100
AcDbBlockEnd
  0
BLOCK
  5
508
330
507
100
AcDbEntity
  8
0
100
AcDbBlockBegin
  2
8569S00011
 70
     0
 71
     0
 10
0.0
 20
0.0
 30
0.0
  3
8569S00011
  1

  0
LINE
  5
50B
330
507
100
AcDbEntity
  8
FIXING
  6
Continuous
 62
    15
100
AcDbLine
 10
2.14879987871835
 20
9.404000215279758
 30
0.0
 11
2.148699878718148
 21
7.700600215279742
 31
0.0
  0
LINE
  5
50C
330
507
100
AcDbEntity
  8
FIXING
  6
Continuous
 62
    15
100
AcDbLine
 10
2.148699878718148
 20
7.700600215279742
 30
0.0
 11
1.220499878718314
 21
7.325900215279752
 31
0.0
  0
LINE
  5
50D
330
507
100
AcDbEntity
  8
FIXING
  6
Continuous
 62
    15
100
AcDbLine
 10
2.1485998787184
 20
6.962000215279751
 30
0.0
 11
1.220599878718517
 21
7.326000215279755
 31
0.0
  0
LINE
  5
50E
330
507
100
AcDbEntity
  8
FIXING
  6
Continuous
 62
    15
100
AcDbLine
 10
1.220599878718517
 20
7.326000215279755
 30
0.0
 11
5.420699878718537
 21
8.179200215279742
 31
0.0
  0
LINE
  5
50F
330
507
100
AcDbEntity
  8
FIXING
  6
Continuous
 62
    15
100
AcDbLine
 10
5.420699878718537
 20
8.179200215279742
 30
0.0
 11
4.492699878718199
 21
7.815100215279735
 31
0.0
  0
LINE
  5
510
330
507
100
AcDbEntity
  8
FIXING
  6
Continuous
 62
    15
100
AcDbLine
 10
4.492699878718199
 20
7.815100215279735
 30
0.0
 11
2.1485998787184
 21
6.962000215279751
 31
0.0
  0
LINE
  5
511
330
507
100
AcDbEntity
  8
FIXING
  6
Continuous
 62
    15
100
AcDbLine
 10
2.148499878718198
 20
7.700500215279739
 30
0.0
 11
4.492699878718199
 21
8.553700215279754
 31
0.0
  0
LINE
  5
512
330
507
100
AcDbEntity
  8
FIXING
  6
Continuous
 62
    15
100
AcDbLine
 10
4.492699878718199
 20
6.111900215279753
 30
0.0
 11
4.492699878718199
 21
7.815100215279735
 31
0.0
  0
LINE
  5
513
330
507
100
AcDbEntity
  8
FIXING
  6
Continuous
 62
    15
100
AcDbLine
 10
4.492699878718199
 20
7.815100215279735
 30
0.0
 11
4.492699878718199
 21
6.111900215279753
 31
0.0
  0
LINE
  5
514
330
507
100
AcDbEntity
  8
FIXING
  6
Continuous
 62
    15
100
AcDbLine
 10
4.492699878718199
 20
6.111900215279753
 30
0.0
 11
4.492699878718199
 21
7.815100215279735
 31
0.0
  0
LINE
  5
515
330
507
100
AcDbEntity
  8
FIXING
  6
Continuous
 62
    15
100
AcDbLine
 10
4.492699878718199
 20
7.815100215279735
 30
0.0
 11
5.420699878718537
 21
8.179200215279742
 31
0.0
  0
LINE
  5
516
330
507
100
AcDbEntity
  8
FIXING
  6
Continuous
 62
    15
100
AcDbLine
 10
5.420699878718537
 20
8.179200215279742
 30
0.0
 11
4.492999878718351
 21
8.553700215279754
 31
0.0
  0
LINE
  5
517
330
507
100
AcDbEntity
  8
FIXING
  6
Continuous
 62
    15
100
AcDbLine
 10
4.492299878718299
 20
1.227700215279732
 30
0.0
 11
5.419999878718471
 21
0.8532002152797489
 31
0.0
  0
LINE
  5
518
330
507
100
AcDbEntity
  8
FIXING
  6
Continuous
 62
    15
100
AcDbLine
 10
5.419999878718471
 20
0.8532002152797489
 30
0.0
 11
1.219899878718451
 21
0.0001002152797369
 31
0.0
  0
LINE
  5
519
330
507
100
AcDbEntity
  8
FIXING
  6
Continuous
 62
    15
100
AcDbLine
 10
4.492099878718335
 20
0.4892002152797446
 30
0.0
 11
4.491999878718133
 21
0.4892002152797446
 31
0.0
  0
LINE
  5
51A
330
507
100
AcDbEntity
  8
FIXING
  6
Continuous
 62
    15
100
AcDbLine
 10
4.491999878718133
 20
0.4892002152797446
 30
0.0
 11
5.419999878718471
 21
0.8532002152797489
 31
0.0
  0
LINE
  5
51B
330
507
100
AcDbEntity
  8
FIXING
  6
Continuous
 62
    15
100
AcDbLine
 10
4.492599878718451
 20
5.373200215279759
 30
0.0
 11
4.492499878718249
 21
5.373200215279759
 31
0.0
  0
LINE
  5
51C
330
507
100
AcDbEntity
  8
FIXING
  6
Continuous
 62
    15
100
AcDbLine
 10
4.492499878718249
 20
5.373200215279759
 30
0.0
 11
4.492499878718249
 21
3.669900215279746
 31
0.0
  0
LINE
  5
51D
330
507
100
AcDbEntity
  8
FIXING
  6
Continuous
 62
    15
100
AcDbLine
 10
4.492499878718249
 20
3.669900215279746
 30
0.0
 11
4.492499878718249
 21
5.373200215279759
 31
0.0
  0
LINE
  5
51E
330
507
100
AcDbEntity
  8
FIXING
  6
Continuous
 62
    15
100
AcDbLine
 10
4.492499878718249
 20
5.373200215279759
 30
0.0
 11
5.420499878718132
 21
5.737200215279735
 31
0.0
  0
LINE
  5
51F
330
507
100
AcDbEntity
  8
FIXING
  6
Continuous
 62
    15
100
AcDbLine
 10
4.492499878718249
 20
3.66970021527974
 30
0.0
 11
5.420199878718435
 21
3.295200215279756
 31
0.0
  0
LINE
  5
520
330
507
100
AcDbEntity
  8
FIXING
  6
Continuous
 62
    15
100
AcDbLine
 10
5.420199878718435
 20
3.295200215279756
 30
0.0
 11
4.492199878718097
 21
2.931200215279752
 31
0.0
  0
LINE
  5
521
330
507
100
AcDbEntity
  8
FIXING
  6
Continuous
 62
    15
100
AcDbLine
 10
4.492199878718097
 20
2.931200215279752
 30
0.0
 11
4.492299878718299
 21
2.931200215279752
 31
0.0
  0
LINE
  5
522
330
507
100
AcDbEntity
  8
FIXING
  6
Continuous
 62
    15
100
AcDbLine
 10
4.492299878718299
 20
2.931200215279752
 30
0.0
 11
4.492199878718097
 21
2.931200215279752
 31
0.0
  0
LINE
  5
523
330
507
100
AcDbEntity
  8
FIXING
  6
Continuous
 62
    15
100
AcDbLine
 10
4.492199878718097
 20
2.931200215279752
 30
0.0
 11
5.420199878718435
 21
3.295200215279756
 31
0.0
  0
LINE
  5
524
330
507
100
AcDbEntity
  8
FIXING
  6
Continuous
 62
    15
100
AcDbLine
 10
5.420199878718435
 20
3.295200215279756
 30
0.0
 11
4.492499878718249
 21
3.66970021527974
 31
0.0
  0
LINE
  5
525
330
507
100
AcDbEntity
  8
FIXING
  6
Continuous
 62
    15
100
AcDbLine
 10
4.492099878718335
 20
0.4892002152797446
 30
0.0
 11
4.491999878718133
 21
0.4891002152797412
 31
0.0
  0
LINE
  5
526
330
507
100
AcDbEntity
  8
FIXING
  6
Continuous
 62
    15
100
AcDbLine
 10
1.219899878718451
 20
0.000000215279762
 30
0.0
 11
5.419999878718471
 21
0.8532002152797489
 31
0.0
  0
LINE
  5
527
330
507
100
AcDbEntity
  8
FIXING
  6
Continuous
 62
    15
100
AcDbLine
 10
5.419999878718471
 20
0.8532002152797489
 30
0.0
 11
4.492199878718097
 21
1.227700215279732
 31
0.0
  0
LINE
  5
528
330
507
100
AcDbEntity
  8
FIXING
  6
Continuous
 62
    15
100
AcDbLine
 10
4.492199878718097
 20
1.227700215279732
 30
0.0
 11
5.419999878718471
 21
0.8532002152797489
 31
0.0
  0
LINE
  5
529
330
507
100
AcDbEntity
  8
FIXING
  6
Continuous
 62
    15
100
AcDbLine
 10
2.148099878718298
 20
2.078000215279737
 30
0.0
 11
2.148099878718284
 21
0.3747002152797521
 31
0.0
  0
LINE
  5
52A
330
507
100
AcDbEntity
  8
FIXING
  6
Continuous
 62
    15
100
AcDbLine
 10
2.148099878718284
 20
0.3747002152797521
 30
0.0
 11
1.219899878718451
 21
0.000000215279762
 31
0.0
  0
LINE
  5
52B
330
507
100
AcDbEntity
  8
FIXING
  6
Continuous
 62
    15
100
AcDbLine
 10
1.219899878718451
 20
0.000000215279762
 30
0.0
 11
5.419999878718471
 21
0.8532002152797489
 31
0.0
  0
LINE
  5
52C
330
507
100
AcDbEntity
  8
FIXING
  6
Continuous
 62
    15
100
AcDbLine
 10
5.419999878718471
 20
0.8532002152797489
 30
0.0
 11
4.491999878718133
 21
0.4891002152797412
 31
0.0
  0
LINE
  5
52D
330
507
100
AcDbEntity
  8
FIXING
  6
Continuous
 62
    15
100
AcDbLine
 10
2.148099878718284
 20
0.3747002152797521
 30
0.0
 11
1.219899878718451
 21
0.000000215279762
 31
0.0
  0
LINE
  5
52E
330
507
100
AcDbEntity
  8
FIXING
  6
Continuous
 62
    15
100
AcDbLine
 10
4.491999878718133
 20
0.4891002152797412
 30
0.0
 11
5.419999878718471
 21
0.8532002152797489
 31
0.0
  0
LINE
  5
52F
330
507
100
AcDbEntity
  8
FIXING
  6
Continuous
 62
    15
100
AcDbLine
 10
5.419999878718471
 20
0.8532002152797489
 30
0.0
 11
1.219899878718451
 21
0.000000215279762
 31
0.0
  0
LINE
  5
530
330
507
100
AcDbEntity
  8
FIXING
  6
Continuous
 62
    15
100
AcDbLine
 10
4.491999878718133
 20
0.4891002152797412
 30
0.0
 11
4.492099878718335
 21
0.4892002152797446
 31
0.0
  0
LINE
  5
531
330
507
100
AcDbEntity
  8
FIXING
  6
Continuous
 62
    15
100
AcDbLine
 10
4.492799878718401
 20
6.111700215279747
 30
0.0
 11
5.420499878718132
 21
5.737200215279735
 31
0.0
  0
LINE
  5
532
330
507
100
AcDbEntity
  8
FIXING
  6
Continuous
 62
    15
100
AcDbLine
 10
5.420499878718132
 20
5.737200215279735
 30
0.0
 11
1.220399878718112
 21
4.884100215279751
 31
0.0
  0
LINE
  5
533
330
507
100
AcDbEntity
  8
FIXING
  6
Continuous
 62
    15
100
AcDbLine
 10
1.220399878718112
 20
4.884100215279751
 30
0.0
 11
2.14839987871845
 21
4.520000215279744
 31
0.0
  0
LINE
  5
534
330
507
100
AcDbEntity
  8
FIXING
  6
Continuous
 62
    15
100
AcDbLine
 10
2.14839987871845
 20
4.520000215279744
 30
0.0
 11
4.492499878718249
 21
5.373200215279759
 31
0.0
  0
LINE
  5
535
330
507
100
AcDbEntity
  8
FIXING
  6
Continuous
 62
    15
100
AcDbLine
 10
4.492499878718249
 20
5.373200215279759
 30
0.0
 11
4.492499878718249
 21
3.669900215279746
 31
0.0
  0
LINE
  5
536
330
507
100
AcDbEntity
  8
FIXING
  6
Continuous
 62
    15
100
AcDbLine
 10
2.148099878718298
 20
2.078000215279737
 30
0.0
 11
4.492199878718097
 21
2.931200215279752
 31
0.0
  0
LINE
  5
537
330
507
100
AcDbEntity
  8
FIXING
  6
Continuous
 62
    15
100
AcDbLine
 10
4.492199878718097
 20
2.931200215279752
 30
0.0
 11
5.420199878718435
 21
3.295200215279756
 31
0.0
  0
LINE
  5
538
330
507
100
AcDbEntity
  8
FIXING
  6
Continuous
 62
    15
100
AcDbLine
 10
5.420199878718435
 20
3.295200215279756
 30
0.0
 11
1.220099878718415
 21
2.442000215279741
 31
0.0
  0
LINE
  5
539
330
507
100
AcDbEntity
  8
FIXING
  6
Continuous
 62
    15
100
AcDbLine
 10
1.220099878718415
 20
2.442000215279741
 30
0.0
 11
2.148299878718248
 21
2.816700215279731
 31
0.0
  0
LINE
  5
53A
330
507
100
AcDbEntity
  8
FIXING
  6
Continuous
 62
    15
100
AcDbLine
 10
2.148299878718248
 20
2.816700215279731
 30
0.0
 11
2.148299878718248
 21
3.66970021527974
 31
0.0
  0
LINE
  5
53B
330
507
100
AcDbEntity
  8
FIXING
  6
Continuous
 62
    15
100
AcDbLine
 10
2.148299878718248
 20
3.66970021527974
 30
0.0
 11
2.148299878718248
 21
2.816700215279731
 31
0.0
  0
LINE
  5
53C
330
507
100
AcDbEntity
  8
FIXING
  6
Continuous
 62
    15
100
AcDbLine
 10
2.148299878718248
 20
2.816700215279731
 30
0.0
 11
1.220099878718415
 21
2.442000215279741
 31
0.0
  0
LINE
  5
53D
330
507
100
AcDbEntity
  8
FIXING
  6
Continuous
 62
    15
100
AcDbLine
 10
1.220099878718415
 20
2.442000215279741
 30
0.0
 11
5.420199878718435
 21
3.295200215279756
 31
0.0
  0
LINE
  5
53E
330
507
100
AcDbEntity
  8
FIXING
  6
Continuous
 62
    15
100
AcDbLine
 10
5.420199878718435
 20
3.295200215279756
 30
0.0
 11
4.492199878718097
 21
2.931200215279752
 31
0.0
  0
LINE
  5
53F
330
507
100
AcDbEntity
  8
FIXING
  6
Continuous
 62
    15
100
AcDbLine
 10
4.492199878718097
 20
2.931200215279752
 30
0.0
 11
2.148099878718298
 21
2.078000215279737
 31
0.0
  0
LINE
  5
540
330
507
100
AcDbEntity
  8
FIXING
  6
Continuous
 62
    15
100
AcDbLine
 10
2.148099878718298
 20
2.078000215279737
 30
0.0
 11
1.220099878718415
 21
2.442000215279741
 31
0.0
  0
LINE
  5
541
330
507
100
AcDbEntity
  8
FIXING
  6
Continuous
 62
    15
100
AcDbLine
 10
1.220099878718415
 20
2.442000215279741
 30
0.0
 11
2.148299878718248
 21
2.816700215279731
 31
0.0
  0
LINE
  5
542
330
507
100
AcDbEntity
  8
FIXING
  6
Continuous
 62
    15
100
AcDbLine
 10
2.148299878718248
 20
2.816700215279731
 30
0.0
 11
2.148299878718248
 21
4.520000215279744
 31
0.0
  0
LINE
  5
543
330
507
100
AcDbEntity
  8
FIXING
  6
Continuous
 62
    15
100
AcDbLine
 10
4.492199878718097
 20
2.931200215279752
 30
0.0
 11
4.492299878718299
 21
2.931200215279752
 31
0.0
  0
LINE
  5
544
330
507
100
AcDbEntity
  8
FIXING
  6
Continuous
 62
    15
100
AcDbLine
 10
4.492299878718299
 20
2.931200215279752
 30
0.0
 11
4.492199878718097
 21
2.931200215279752
 31
0.0
  0
LINE
  5
545
330
507
100
AcDbEntity
  8
FIXING
  6
Continuous
 62
    15
100
AcDbLine
 10
4.492199878718097
 20
2.931200215279752
 30
0.0
 11
2.148099878718298
 21
2.078000215279737
 31
0.0
  0
LINE
  5
546
330
507
100
AcDbEntity
  8
FIXING
  6
Continuous
 62
    15
100
AcDbLine
 10
2.148099878718298
 20
2.078000215279737
 30
0.0
 11
1.220099878718415
 21
2.442000215279741
 31
0.0
  0
LINE
  5
547
330
507
100
AcDbEntity
  8
FIXING
  6
Continuous
 62
    15
100
AcDbLine
 10
1.220099878718415
 20
2.442000215279741
 30
0.0
 11
5.420199878718435
 21
3.295200215279756
 31
0.0
  0
LINE
  5
548
330
507
100
AcDbEntity
  8
FIXING
  6
Continuous
 62
    15
100
AcDbLine
 10
5.420199878718435
 20
3.295200215279756
 30
0.0
 11
4.492199878718097
 21
2.931200215279752
 31
0.0
  0
LINE
  5
549
330
507
100
AcDbEntity
  8
FIXING
  6
Continuous
 62
    15
100
AcDbLine
 10
4.492199878718097
 20
2.931200215279752
 30
0.0
 11
2.148099878718298
 21
2.078000215279737
 31
0.0
  0
LINE
  5
54A
330
507
100
AcDbEntity
  8
FIXING
  6
Continuous
 62
    15
100
AcDbLine
 10
2.148099878718298
 20
2.078000215279737
 30
0.0
 11
1.220099878718415
 21
2.442000215279741
 31
0.0
  0
LINE
  5
54B
330
507
100
AcDbEntity
  8
FIXING
  6
Continuous
 62
    15
100
AcDbLine
 10
1.220099878718415
 20
2.442000215279741
 30
0.0
 11
2.148299878718248
 21
2.816700215279731
 31
0.0
  0
LINE
  5
54C
330
507
100
AcDbEntity
  8
FIXING
  6
Continuous
 62
    15
100
AcDbLine
 10
2.148299878718248
 20
2.816700215279731
 30
0.0
 11
2.148299878718248
 21
4.520000215279744
 31
0.0
  0
LINE
  5
54D
330
507
100
AcDbEntity
  8
FIXING
  6
Continuous
 62
    15
100
AcDbLine
 10
2.148299878718248
 20
4.520000215279744
 30
0.0
 11
2.148299878718248
 21
2.816700215279731
 31
0.0
  0
LINE
  5
54E
330
507
100
AcDbEntity
  8
FIXING
  6
Continuous
 62
    15
100
AcDbLine
 10
4.492199878718097
 20
1.227900215279739
 30
0.0
 11
4.492199878718097
 21
2.931200215279752
 31
0.0
  0
LINE
  5
54F
330
507
100
AcDbEntity
  8
FIXING
  6
Continuous
 62
    15
100
AcDbLine
 10
4.492199878718097
 20
2.931200215279752
 30
0.0
 11
4.492199878718097
 21
1.227900215279739
 31
0.0
  0
LINE
  5
550
330
507
100
AcDbEntity
  8
FIXING
  6
Continuous
 62
    15
100
AcDbLine
 10
4.492199878718097
 20
1.227900215279739
 30
0.0
 11
4.492199878718097
 21
2.931200215279752
 31
0.0
  0
LINE
  5
551
330
507
100
AcDbEntity
  8
FIXING
  6
Continuous
 62
    15
100
AcDbLine
 10
4.492199878718097
 20
2.931200215279752
 30
0.0
 11
5.420199878718435
 21
3.295200215279756
 31
0.0
  0
LINE
  5
552
330
507
100
AcDbEntity
  8
FIXING
  6
Continuous
 62
    15
100
AcDbLine
 10
5.420199878718435
 20
3.295200215279756
 30
0.0
 11
4.492499878718249
 21
3.66970021527974
 31
0.0
  0
LINE
  5
553
330
507
100
AcDbEntity
  8
FIXING
  6
Continuous
 62
    15
100
AcDbLine
 10
4.492499878718249
 20
3.66970021527974
 30
0.0
 11
5.420199878718435
 21
3.295200215279756
 31
0.0
  0
LINE
  5
554
330
507
100
AcDbEntity
  8
FIXING
  6
Continuous
 62
    15
100
AcDbLine
 10
5.420199878718435
 20
3.295200215279756
 30
0.0
 11
1.220099878718415
 21
2.442000215279741
 31
0.0
  0
LINE
  5
555
330
507
100
AcDbEntity
  8
FIXING
  6
Continuous
 62
    15
100
AcDbLine
 10
1.220099878718415
 20
2.442000215279741
 30
0.0
 11
2.148099878718298
 21
2.078000215279737
 31
0.0
  0
LINE
  5
556
330
507
100
AcDbEntity
  8
FIXING
  6
Continuous
 62
    15
100
AcDbLine
 10
2.148099878718298
 20
2.078000215279737
 30
0.0
 11
4.492199878718097
 21
2.931200215279752
 31
0.0
  0
LINE
  5
557
330
507
100
AcDbEntity
  8
FIXING
  6
Continuous
 62
    15
100
AcDbLine
 10
4.492199878718097
 20
2.931200215279752
 30
0.0
 11
4.492299878718299
 21
2.931200215279752
 31
0.0
  0
LINE
  5
558
330
507
100
AcDbEntity
  8
FIXING
  6
Continuous
 62
    15
100
AcDbLine
 10
2.148099878718298
 20
1.227700215279732
 30
0.0
 11
2.148099878718284
 21
0.3747002152797521
 31
0.0
  0
LINE
  5
559
330
507
100
AcDbEntity
  8
FIXING
  6
Continuous
 62
    15
100
AcDbLine
 10
2.148099878718284
 20
0.3747002152797521
 30
0.0
 11
2.148099878718298
 21
2.078000215279737
 31
0.0
  0
LINE
  5
55A
330
507
100
AcDbEntity
  8
FIXING
  6
Continuous
 62
    15
100
AcDbLine
 10
2.148099878718298
 20
2.078000215279737
 30
0.0
 11
2.148099878718284
 21
0.3747002152797521
 31
0.0
  0
LINE
  5
55B
330
507
100
AcDbEntity
  8
FIXING
  6
Continuous
 62
    15
100
AcDbLine
 10
2.148099878718284
 20
0.3747002152797521
 30
0.0
 11
2.148099878718298
 21
1.227700215279732
 31
0.0
  0
LINE
  5
55C
330
507
100
AcDbEntity
  8
FIXING
  6
Continuous
 62
    15
100
AcDbLine
 10
2.147899878718334
 20
0.3745002152797454
 30
0.0
 11
4.492099878718349
 21
1.227700215279732
 31
0.0
  0
LINE
  5
55D
330
507
100
AcDbEntity
  8
FIXING
  6
Continuous
 62
    15
100
AcDbLine
 10
4.492099878718349
 20
1.227700215279732
 30
0.0
 11
2.147899878718334
 21
0.3745002152797454
 31
0.0
  0
LINE
  5
55E
330
507
100
AcDbEntity
  8
FIXING
  6
Continuous
 62
    15
100
AcDbLine
 10
1.220599878718517
 20
7.326000215279755
 30
0.0
 11
2.14879987871835
 21
7.700700215279745
 31
0.0
  0
LINE
  5
55F
330
507
100
AcDbEntity
  8
FIXING
  6
Continuous
 62
    15
100
AcDbLine
 10
1.220399878718112
 20
4.884100215279751
 30
0.0
 11
2.1485998787184
 21
5.258700215279738
 31
0.0
  0
LINE
  5
560
330
507
100
AcDbEntity
  8
FIXING
  6
Continuous
 62
    15
100
AcDbLine
 10
2.148299878718248
 20
3.66970021527974
 30
0.0
 11
2.148299878718248
 21
2.816700215279731
 31
0.0
  0
LINE
  5
561
330
507
100
AcDbEntity
  8
FIXING
  6
Continuous
 62
    15
100
AcDbLine
 10
2.148299878718248
 20
2.816700215279731
 30
0.0
 11
2.148299878718248
 21
4.520000215279744
 31
0.0
  0
LINE
  5
562
330
507
100
AcDbEntity
  8
FIXING
  6
Continuous
 62
    15
100
AcDbLine
 10
2.148299878718248
 20
4.520000215279744
 30
0.0
 11
2.148299878718248
 21
2.816700215279731
 31
0.0
  0
LINE
  5
563
330
507
100
AcDbEntity
  8
FIXING
  6
Continuous
 62
    15
100
AcDbLine
 10
2.148299878718248
 20
2.816700215279731
 30
0.0
 11
2.148299878718248
 21
3.66970021527974
 31
0.0
  0
LINE
  5
564
330
507
100
AcDbEntity
  8
FIXING
  6
Continuous
 62
    15
100
AcDbLine
 10
2.14839987871845
 20
5.258600215279763
 30
0.0
 11
4.492599878718451
 21
6.11180021527975
 31
0.0
  0
LINE
  5
565
330
507
100
AcDbEntity
  8
FIXING
  6
Continuous
 62
    15
100
AcDbLine
 10
2.148099878718298
 20
2.816500215279753
 30
0.0
 11
4.492299878718299
 21
3.669800215279743
 31
0.0
  0
LINE
  5
566
330
507
100
AcDbEntity
  8
FIXING
  6
Continuous
 62
    15
100
AcDbLine
 10
4.492299878718299
 20
3.669800215279743
 30
0.0
 11
2.148099878718298
 21
2.816500215279753
 31
0.0
  0
LINE
  5
567
330
507
100
AcDbEntity
  8
FIXING
  6
Continuous
 62
    15
100
AcDbLine
 10
2.148099878718298
 20
2.816500215279753
 30
0.0
 11
4.492299878718299
 21
3.669800215279743
 31
0.0
  0
LINE
  5
568
330
507
100
AcDbEntity
  8
FIXING
  6
Continuous
 62
    15
100
AcDbLine
 10
2.1485998787184
 20
6.962000215279751
 30
0.0
 11
2.1485998787184
 21
5.258700215279738
 31
0.0
  0
LINE
  5
569
330
507
100
AcDbEntity
  8
FIXING
  6
Continuous
 62
    15
100
AcDbLine
 10
2.1485998787184
 20
5.258700215279738
 30
0.0
 11
2.1485998787184
 21
6.111700215279747
 31
0.0
  0
LINE
  5
56A
330
507
100
AcDbEntity
  8
FIXING
  6
Continuous
 62
    15
100
AcDbLine
 10
5.420599878718335
 20
8.179100215279767
 30
0.0
 11
4.492899878718148
 21
8.55360021527975
 31
0.0
  0
LINE
  5
56B
330
507
100
AcDbEntity
  8
FIXING
  6
Continuous
 62
    15
100
AcDbLine
 10
5.420799878718285
 20
10.62110021527975
 30
0.0
 11
4.493099878718098
 21
10.99560021527973
 31
0.0
  0
LINE
  5
56C
330
507
100
AcDbEntity
  8
FIXING
  6
Continuous
 62
    15
100
AcDbLine
 10
4.492799878718401
 20
8.553800215279729
 30
0.0
 11
4.492799878718401
 21
10.25700021527977
 31
0.0
  0
LINE
  5
56D
330
507
100
AcDbEntity
  8
FIXING
  6
Continuous
 62
    15
100
AcDbLine
 10
4.492799878718401
 20
10.25700021527977
 30
0.0
 11
4.492799878718401
 21
8.553800215279729
 31
0.0
  0
LINE
  5
56E
330
507
100
AcDbEntity
  8
FIXING
  6
Continuous
 62
    15
100
AcDbLine
 10
4.492799878718401
 20
8.553800215279729
 30
0.0
 11
4.492799878718401
 21
10.25700021527977
 31
0.0
  0
LINE
  5
56F
330
507
100
AcDbEntity
  8
FIXING
  6
Continuous
 62
    15
100
AcDbLine
 10
4.492799878718401
 20
10.25700021527977
 30
0.0
 11
5.420799878718285
 21
10.62110021527975
 31
0.0
  0
LINE
  5
570
330
507
100
AcDbEntity
  8
FIXING
  6
Continuous
 62
    15
100
AcDbLine
 10
5.420799878718285
 20
10.62110021527975
 30
0.0
 11
4.493099878718098
 21
10.99560021527973
 31
0.0
  0
LINE
  5
571
330
507
100
AcDbEntity
  8
FIXING
  6
Continuous
 62
    15
100
AcDbLine
 10
1.725399878718221
 20
13.87830021527973
 30
0.0
 11
0.9552998787184919
 21
14.32280021527973
 31
0.0
  0
LINE
  5
572
330
507
100
AcDbEntity
  8
FIXING
  6
Continuous
 62
    15
100
AcDbLine
 10
0.9552998787184919
 20
14.32280021527973
 30
0.0
 11
5.686499878718209
 21
14.32270021527976
 31
0.0
  0
LINE
  5
573
330
507
100
AcDbEntity
  8
FIXING
  6
Continuous
 62
    15
100
AcDbLine
 10
5.686499878718209
 20
14.32270021527976
 30
0.0
 11
6.641799878718288
 21
15.27810021527976
 31
0.0
  0
LINE
  5
574
330
507
100
AcDbEntity
  8
FIXING
  6
Continuous
 62
    15
100
AcDbLine
 10
6.641799878718288
 20
15.27810021527976
 30
0.0
 11
-0.0000001212815874
 21
15.27820021527973
 31
0.0
  0
LINE
  5
575
330
507
100
AcDbEntity
  8
FIXING
  6
Continuous
 62
    15
100
AcDbLine
 10
0.9552998787184919
 20
16.03210021527975
 30
0.0
 11
5.686499878718209
 21
16.03200021527974
 31
0.0
  0
LINE
  5
576
330
507
100
AcDbEntity
  8
FIXING
  6
Continuous
 62
    15
100
AcDbLine
 10
5.686499878718209
 20
16.03200021527974
 30
0.0
 11
6.641799878718288
 21
15.64600021527975
 31
0.0
  0
LINE
  5
577
330
507
100
AcDbEntity
  8
FIXING
  6
Continuous
 62
    15
100
AcDbLine
 10
6.641799878718288
 20
15.64600021527975
 30
0.0
 11
-0.0000001212815874
 21
15.64610021527975
 31
0.0
  0
LINE
  5
578
330
507
100
AcDbEntity
  8
FIXING
  6
Continuous
 62
    15
100
AcDbLine
 10
5.686499878718209
 20
16.03200021527974
 30
0.0
 11
0.9552998787184919
 21
16.03210021527975
 31
0.0
  0
LINE
  5
579
330
507
100
AcDbEntity
  8
FIXING
  6
Continuous
 62
    15
100
AcDbLine
 10
0.9552998787184919
 20
16.03210021527975
 30
0.0
 11
-0.0000001212815874
 21
15.64610021527975
 31
0.0
  0
LINE
  5
57A
330
507
100
AcDbEntity
  8
FIXING
  6
Continuous
 62
    15
100
AcDbLine
 10
-0.0000001212815874
 20
15.64610021527975
 30
0.0
 11
-0.0000001212815874
 21
15.27820021527973
 31
0.0
  0
LINE
  5
57B
330
507
100
AcDbEntity
  8
FIXING
  6
Continuous
 62
    15
100
AcDbLine
 10
-0.0000001212815874
 20
15.27820021527973
 30
0.0
 11
0.9552998787184919
 21
14.32280021527973
 31
0.0
  0
LINE
  5
57C
330
507
100
AcDbEntity
  8
FIXING
  6
Continuous
 62
    15
100
AcDbLine
 10
0.9552998787184919
 20
14.32280021527973
 30
0.0
 11
5.686499878718209
 21
14.32270021527976
 31
0.0
  0
LINE
  5
57D
330
507
100
AcDbEntity
  8
FIXING
  6
Continuous
 62
    15
100
AcDbLine
 10
5.686499878718209
 20
14.32270021527976
 30
0.0
 11
4.916599878718429
 21
13.87830021527973
 31
0.0
  0
LINE
  5
57E
330
507
100
AcDbEntity
  8
FIXING
  6
Continuous
 62
    15
100
AcDbLine
 10
2.14879987871835
 20
9.404000215279758
 30
0.0
 11
1.220799878718466
 21
9.768000215279734
 31
0.0
  0
LINE
  5
57F
330
507
100
AcDbEntity
  8
FIXING
  6
Continuous
 62
    15
100
AcDbLine
 10
1.220799878718466
 20
9.768000215279734
 30
0.0
 11
5.420899878718487
 21
10.62120021527975
 31
0.0
  0
LINE
  5
580
330
507
100
AcDbEntity
  8
FIXING
  6
Continuous
 62
    15
100
AcDbLine
 10
5.420899878718487
 20
10.62120021527975
 30
0.0
 11
4.492899878718148
 21
10.25710021527974
 31
0.0
  0
LINE
  5
581
330
507
100
AcDbEntity
  8
FIXING
  6
Continuous
 62
    15
100
AcDbLine
 10
4.492899878718148
 20
10.25710021527974
 30
0.0
 11
2.14879987871835
 21
9.404000215279758
 31
0.0
  0
ARC
  5
582
330
507
100
AcDbEntity
  8
FIXING
  6
Continuous
 62
    15
100
AcDbCircle
 10
5.11189987871829
 20
13.53990021527975
 30
0.0
 40
0.3907
100
AcDbArc
 50
120.0004000000002
 51
180.0
  0
ARC
  5
583
330
507
100
AcDbEntity
  8
FIXING
  6
Continuous
 62
    15
100
AcDbCircle
 10
1.529999878718158
 20
13.53990021527975
 30
0.0
 40
0.3907
100
AcDbArc
 50
0.0
 51
59.99950000000186
  0
LINE
  5
584
330
507
100
AcDbEntity
  8
FIXING
  6
Continuous
 62
    15
100
AcDbLine
 10
3.446399878718225
 20
8.291400215279744
 30
0.0
 11
3.446399878718225
 21
8.291400215279744
 31
0.0
  0
LINE
  5
585
330
507
100
AcDbEntity
  8
FIXING
  6
Continuous
 62
    15
100
AcDbLine
 10
4.492599878718451
 20
7.815100215279735
 30
0.0
 11
4.492699878718199
 21
7.815100215279735
 31
0.0
  0
LINE
  5
586
330
507
100
AcDbEntity
  8
FIXING
  6
Continuous
 62
    15
100
AcDbLine
 10
4.492699878718199
 20
7.815100215279735
 30
0.0
 11
4.492799878718401
 21
7.815200215279766
 31
0.0
  0
LINE
  5
587
330
507
100
AcDbEntity
  8
FIXING
  6
Continuous
 62
    15
100
AcDbLine
 10
4.492899878718148
 20
10.25710021527974
 30
0.0
 11
4.492999878718351
 21
10.25720021527975
 31
0.0
  0
LINE
  5
588
330
507
100
AcDbEntity
  8
FIXING
  6
Continuous
 62
    15
100
AcDbLine
 10
4.492799878718401
 20
10.25710021527974
 30
0.0
 11
4.492899878718148
 21
10.25710021527974
 31
0.0
  0
LINE
  5
589
330
507
100
AcDbEntity
  8
FIXING
  6
Continuous
 62
    15
100
AcDbLine
 10
3.446599878718175
 20
10.73340021527975
 30
0.0
 11
3.446599878718175
 21
10.73340021527975
 31
0.0
  0
LINE
  5
58A
330
507
100
AcDbEntity
  8
FIXING
  6
Continuous
 62
    15
100
AcDbLine
 10
1.220799878718466
 20
9.768000215279734
 30
0.0
 11
2.1489998787183
 21
10.14270021527975
 31
0.0
  0
LINE
  5
58B
330
507
100
AcDbEntity
  8
FIXING
  6
Continuous
 62
    15
100
AcDbLine
 10
2.148899878718098
 20
10.99560021527973
 30
0.0
 11
2.148899878718098
 21
10.14260021527975
 31
0.0
  0
LINE
  5
58C
330
507
100
AcDbEntity
  8
FIXING
  6
Continuous
 62
    15
100
AcDbLine
 10
2.148899878718098
 20
10.14260021527975
 30
0.0
 11
1.220699878718264
 21
9.76790021527976
 31
0.0
  0
LINE
  5
58D
330
507
100
AcDbEntity
  8
FIXING
  6
Continuous
 62
    15
100
AcDbLine
 10
4.721199878718366
 20
13.53990021527975
 30
0.0
 11
4.721199878718366
 21
13.27710021527975
 31
0.0
  0
LINE
  5
58E
330
507
100
AcDbEntity
  8
FIXING
  6
Continuous
 62
    15
100
AcDbLine
 10
4.721199878718366
 20
13.27710021527975
 30
0.0
 11
4.068599878718473
 21
13.27710021527975
 31
0.0
  0
LINE
  5
58F
330
507
100
AcDbEntity
  8
FIXING
  6
Continuous
 62
    15
100
AcDbLine
 10
4.068599878718473
 20
13.27710021527975
 30
0.0
 11
1.996199878718457
 21
12.52280021527975
 31
0.0
  0
LINE
  5
590
330
507
100
AcDbEntity
  8
FIXING
  6
Continuous
 62
    15
100
AcDbLine
 10
1.920799878718285
 20
13.53990021527975
 30
0.0
 11
1.920799878718285
 21
13.27710021527975
 31
0.0
  0
LINE
  5
591
330
507
100
AcDbEntity
  8
FIXING
  6
Continuous
 62
    15
100
AcDbLine
 10
1.920799878718285
 20
13.27710021527975
 30
0.0
 11
1.996199878718457
 21
12.52280021527975
 31
0.0
  0
LINE
  5
592
330
507
100
AcDbEntity
  8
FIXING
  6
Continuous
 62
    15
100
AcDbLine
 10
1.996199878718457
 20
12.52280021527975
 30
0.0
 11
1.462799878718201
 21
12.30750021527977
 31
0.0
  0
LINE
  5
593
330
507
100
AcDbEntity
  8
FIXING
  6
Continuous
 62
    15
100
AcDbLine
 10
1.462799878718201
 20
12.30750021527977
 30
0.0
 11
1.462799878718201
 21
12.11480021527976
 31
0.0
  0
LINE
  5
594
330
507
100
AcDbEntity
  8
FIXING
  6
Continuous
 62
    15
100
AcDbLine
 10
1.462799878718201
 20
12.11480021527976
 30
0.0
 11
4.883399878718123
 21
12.90780021527974
 31
0.0
  0
LINE
  5
595
330
507
100
AcDbEntity
  8
FIXING
  6
Continuous
 62
    15
100
AcDbLine
 10
4.883399878718123
 20
12.90780021527974
 30
0.0
 11
4.883399878718123
 21
13.21810021527975
 31
0.0
  0
LINE
  5
596
330
507
100
AcDbEntity
  8
FIXING
  6
Continuous
 62
    15
100
AcDbLine
 10
4.883399878718123
 20
13.21810021527975
 30
0.0
 11
4.721199878718366
 21
13.27710021527975
 31
0.0
  0
LINE
  5
597
330
507
100
AcDbEntity
  8
FIXING
  6
Continuous
 62
    15
100
AcDbLine
 10
4.493099878718098
 20
10.99560021527973
 30
0.0
 11
2.148899878718098
 21
10.99560021527973
 31
0.0
  0
LINE
  5
598
330
507
100
AcDbEntity
  8
FIXING
  6
Continuous
 62
    15
100
AcDbLine
 10
2.148899878718098
 20
10.99560021527973
 30
0.0
 11
2.060399878718258
 21
11.88040021527974
 31
0.0
  0
LINE
  5
599
330
507
100
AcDbEntity
  8
FIXING
  6
Continuous
 62
    15
100
AcDbLine
 10
2.060399878718258
 20
11.88040021527974
 30
0.0
 11
1.462799878718201
 21
12.11480021527976
 31
0.0
  0
LINE
  5
59A
330
507
100
AcDbEntity
  8
FIXING
  6
Continuous
 62
    15
100
AcDbLine
 10
1.462799878718201
 20
12.11480021527976
 30
0.0
 11
1.462799878718201
 21
12.30750021527977
 31
0.0
  0
LINE
  5
59B
330
507
100
AcDbEntity
  8
FIXING
  6
Continuous
 62
    15
100
AcDbLine
 10
1.462799878718201
 20
12.30750021527977
 30
0.0
 11
4.883399878718123
 21
13.21810021527975
 31
0.0
  0
LINE
  5
59C
330
507
100
AcDbEntity
  8
FIXING
  6
Continuous
 62
    15
100
AcDbLine
 10
4.883399878718123
 20
13.21810021527975
 30
0.0
 11
4.883399878718123
 21
12.90780021527974
 31
0.0
  0
LINE
  5
59D
330
507
100
AcDbEntity
  8
FIXING
  6
Continuous
 62
    15
100
AcDbLine
 10
4.883399878718123
 20
12.90780021527974
 30
0.0
 11
2.060399878718258
 21
11.88040021527974
 31
0.0
  0
LINE
  5
59E
330
507
100
AcDbEntity
  8
FIXING
  6
Continuous
 62
    15
100
AcDbLine
 10
2.060199878718308
 20
13.27710021527975
 30
0.0
 11
3.779199878718359
 21
13.27710021527975
 31
0.0
  0
LINE
  5
59F
330
507
100
AcDbEntity
  8
FIXING
  6
Continuous
 62
    15
100
AcDbLine
 10
2.148899878718098
 20
10.14240021527974
 30
0.0
 11
4.493099878718098
 21
10.99560021527973
 31
0.0
  0
LINE
  5
5A0
330
507
100
AcDbEntity
  8
FIXING
  6
Continuous
 62
    15
100
AcDbLine
 10
4.493099878718098
 20
10.99560021527973
 30
0.0
 11
4.676799878718143
 21
12.83270021527975
 31
0.0
  0
LINE
  5
5A1
330
507
100
AcDbEntity
  8
FIXING
  6
Continuous
 62
    15
100
AcDbLine
 10
1.920799878718285
 20
13.76550021527974
 30
0.0
 11
4.721199878718366
 21
13.76550021527974
 31
0.0
  0
LINE
  5
5A2
330
507
100
AcDbEntity
  8
FIXING
  6
Continuous
 62
    15
100
AcDbLine
 10
6.641799878718288
 20
15.64600021527975
 30
0.0
 11
6.641799878718288
 21
15.27810021527976
 31
0.0
  0
ENDBLK
  5
509
330
507
100
AcDbEntity
  8
0
100
AcDbBlockEnd
  0
BLOCK
  5
5A4
330
5A3
100
AcDbEntity
  8
0
100
AcDbBlockBegin
  2
GEN_BLOCK00012
 70
     0
 71
     0
 10
0.0
 20
0.0
 30
0.0
  3
GEN_BLOCK00012
  1

  0
LINE
  5
5A7
330
5A3
100
AcDbEntity
  8
1
  6
Continuous
 62
    15
100
AcDbLine
 10
2.999999541248954
 20
152.326974029541
 30
0.0
 11
3.000000226766907
 21
136.6441519648863
 31
0.0
  0
LINE
  5
5A8
330
5A3
100
AcDbEntity
  8
1
  6
Continuous
 62
    15
100
AcDbLine
 10
3.00000105728332
 20
117.6441518599791
 30
0.0
 11
3.00000088243776
 21
121.6441518599791
 31
0.0
  0
LINE
  5
5A9
330
5A3
100
AcDbEntity
  8
1
  6
Continuous
 62
    15
100
AcDbLine
 10
3.625000139344124
 20
138.6441519922059
 30
0.0
 11
3.000000226766907
 21
136.6441519648863
 31
0.0
  0
LINE
  5
5AA
330
5A3
100
AcDbEntity
  8
1
  6
Continuous
 62
    15
100
AcDbLine
 10
3.000000226766907
 20
136.6441519648863
 30
0.0
 11
2.375000139344124
 21
138.6441519375667
 31
0.0
  0
LINE
  5
5AB
330
5A3
100
AcDbEntity
  8
1
  6
Continuous
 62
    15
100
AcDbLine
 10
2.375000969860537
 20
119.6441518326595
 30
0.0
 11
3.00000088243776
 21
121.6441518599791
 31
0.0
  0
LINE
  5
5AC
330
5A3
100
AcDbEntity
  8
1
  6
Continuous
 62
    15
100
AcDbLine
 10
3.00000088243776
 20
121.6441518599791
 30
0.0
 11
3.625000969860537
 21
119.6441518872987
 31
0.0
  0
LINE
  5
5AD
330
5A3
100
AcDbEntity
  8
1
  6
Continuous
 62
    15
100
AcDbLine
 10
37.79198265075684
 20
136.6441534856922
 30
0.0
 11
0.4000002267669203
 21
136.6441518512367
 31
0.0
  0
LINE
  5
5AE
330
5A3
100
AcDbEntity
  8
1
  6
Continuous
 62
    15
100
AcDbLine
 10
40.19198036193848
 20
121.6441534856922
 30
0.0
 11
0.400000882437773
 21
121.6441517463295
 31
0.0
  0
TEXT
  5
5AF
330
5A3
100
AcDbEntity
  8
1
  6
Continuous
 62
    15
100
AcDbText
 10
2.499968396522533
 20
143.920671618676
 30
0.0
 40
2.5
  1
15.0
 50
89.71352388012032
100
AcDbText
  0
LINE
  5
5B0
330
5A3
100
AcDbEntity
  8
1
  6
Continuous
 62
    15
100
AcDbLine
 10
103.9725424131757
 20
117.6441539267745
 30
0.0
 11
103.9725422383302
 21
121.6441539267745
 31
0.0
  0
LINE
  5
5B1
330
5A3
100
AcDbEntity
  8
1
  6
Continuous
 62
    15
100
AcDbLine
 10
103.9725414421249
 20
139.8592066955566
 30
0.0
 11
103.9725419391524
 21
128.4885428776387
 31
0.0
  0
LINE
  5
5B2
330
5A3
100
AcDbEntity
  8
1
  6
Continuous
 62
    15
100
AcDbLine
 10
103.347542325753
 20
119.6441538994549
 30
0.0
 11
103.9725422383302
 21
121.6441539267745
 31
0.0
  0
LINE
  5
5B3
330
5A3
100
AcDbEntity
  8
1
  6
Continuous
 62
    15
100
AcDbLine
 10
103.9725422383302
 20
121.6441539267745
 30
0.0
 11
104.597542325753
 21
119.6441539540942
 31
0.0
  0
LINE
  5
5B4
330
5A3
100
AcDbEntity
  8
1
  6
Continuous
 62
    15
100
AcDbLine
 10
104.5975418517297
 20
130.4885429049583
 30
0.0
 11
103.9725419391524
 21
128.4885428776387
 31
0.0
  0
LINE
  5
5B5
330
5A3
100
AcDbEntity
  8
1
  6
Continuous
 62
    15
100
AcDbLine
 10
103.9725419391524
 20
128.4885428776387
 30
0.0
 11
103.3475418517297
 21
130.488542850319
 31
0.0
  0
LINE
  5
5B6
330
5A3
100
AcDbEntity
  8
1
  6
Continuous
 62
    15
100
AcDbLine
 10
98.88175582885742
 20
121.6441537042492
 30
0.0
 11
106.5725422383302
 21
121.6441540404241
 31
0.0
  0
LINE
  5
5B7
330
5A3
100
AcDbEntity
  8
1
  6
Continuous
 62
    15
100
AcDbLine
 10
99.13175582885742
 20
128.4885426660412
 30
0.0
 11
106.5725419391524
 21
128.4885429912883
 31
0.0
  0
TEXT
  5
5B8
330
5A3
100
AcDbEntity
  8
1
  6
Continuous
 62
    15
100
AcDbText
 10
103.4725102712284
 20
133.5529174094752
 30
0.0
 40
2.5
  1
6.8
 50
89.71352388012032
100
AcDbText
  0
LINE
  5
5B9
330
5A3
100
AcDbEntity
  8
1
  6
Continuous
 62
    15
100
AcDbLine
 10
8.175774262363156
 20
1.250003565524921
 30
0.0
 11
18.15191554323674
 21
24.04220955759379
 31
0.0
  0
LINE
  5
5BA
330
5A3
100
AcDbEntity
  8
1
  6
Continuous
 62
    15
100
AcDbLine
 10
17.20692318859309
 20
22.8184389705698
 30
0.0
 11
18.15191554323674
 21
24.04220955759379
 31
0.0
  0
LINE
  5
5BB
330
5A3
100
AcDbEntity
  8
1
  6
Continuous
 62
    15
100
AcDbLine
 10
18.15191554323674
 20
24.04220955759379
 30
0.0
 11
17.89399080068011
 21
22.51770969626973
 31
0.0
  0
ENDBLK
  5
5A5
330
5A3
100
AcDbEntity
  8
0
100
AcDbBlockEnd
  0
BLOCK
  5
5BD
330
5BC
100
AcDbEntity
  8
0
100
AcDbBlockBegin
  2
GEN_BLOCK00013
 70
     0
 71
     0
 10
0.0
 20
0.0
 30
0.0
  3
GEN_BLOCK00013
  1

  0
LINE
  5
5C0
330
5BC
100
AcDbEntity
  8
GEN_LAYER
  6
Continuous
 62
    15
100
AcDbLine
 10
33.50511264801025
 20
2.599999994039536
 30
0.0
 11
0.0
 21
2.599999994039536
 31
0.0
  0
LINE
  5
5C1
330
5BC
100
AcDbEntity
  8
GEN_LAYER
  6
Continuous
 62
    15
100
AcDbLine
 10
33.50511264801025
 20
2.599999994039536
 30
0.0
 11
67.01022529602051
 21
2.599999994039536
 31
0.0
  0
LINE
  5
5C2
330
5BC
100
AcDbEntity
  8
GEN_LAYER
  6
Continuous
 62
    15
100
AcDbLine
 10
2.0
 20
1.974999994039535
 30
0.0
 11
0.0
 21
2.599999994039536
 31
0.0
  0
LINE
  5
5C3
330
5BC
100
AcDbEntity
  8
GEN_LAYER
  6
Continuous
 62
    15
100
AcDbLine
 10
0.0
 20
2.599999994039536
 30
0.0
 11
2.0
 21
3.224999994039535
 31
0.0
  0
LINE
  5
5C4
330
5BC
100
AcDbEntity
  8
GEN_LAYER
  6
Continuous
 62
    15
100
AcDbLine
 10
65.01022529602051
 20
3.224999994039536
 30
0.0
 11
67.01022529602051
 21
2.599999994039536
 31
0.0
  0
LINE
  5
5C5
330
5BC
100
AcDbEntity
  8
GEN_LAYER
  6
Continuous
 62
    15
100
AcDbLine
 10
67.01022529602051
 20
2.599999994039536
 30
0.0
 11
65.01022529602051
 21
1.974999994039536
 31
0.0
  0
LINE
  5
5C6
330
5BC
100
AcDbEntity
  8
GEN_LAYER
  6
Continuous
 62
    15
100
AcDbLine
 10
0.0
 20
21.0283497273922
 30
0.0
 11
0.0
 21
-0.0000000059604659
 31
0.0
  0
LINE
  5
5C7
330
5BC
100
AcDbEntity
  8
GEN_LAYER
  6
Continuous
 62
    15
100
AcDbLine
 10
67.01022529602051
 20
17.02836689352989
 30
0.0
 11
67.01022529602051
 21
-0.0000000059604659
 31
0.0
  0
TEXT
  5
5C8
330
5BC
100
AcDbEntity
  8
GEN_LAYER
  6
Continuous
 62
    15
100
AcDbText
 10
29.30511264801026
 20
3.099999994039536
 30
0.0
 40
2.5
  1
67.0
100
AcDbText
  0
ENDBLK
  5
5BE
330
5BC
100
AcDbEntity
  8
0
100
AcDbBlockEnd
  0
BLOCK
  5
5CA
330
5C9
100
AcDbEntity
  8
0
100
AcDbBlockBegin
  2
GEN_BLOCK00014
 70
     0
 71
     0
 10
0.0
 20
0.0
 30
0.0
  3
GEN_BLOCK00014
  1

  0
LINE
  5
5CD
330
5C9
100
AcDbEntity
  8
1
  6
HIDDEN
 62
    15
100
AcDbLine
 10
15.76869532035952
 20
12.05432782429565
 30
0.0
 11
15.76869532035952
 21
12.05432782429565
 31
0.0
  0
LINE
  5
5CE
330
5C9
100
AcDbEntity
  8
1
  6
Continuous
 62
    15
100
AcDbLine
 10
17.80029185405387
 20
9.362253105339214
 30
0.0
 11
18.63198019502597
 21
6.822950554082496
 31
0.0
  0
ARC
  5
5CF
330
5C9
100
AcDbEntity
  8
1
  6
Continuous
 62
    15
100
AcDbCircle
 10
20.0574690029706
 20
7.289835613197262
 30
0.0
 40
1.5
100
AcDbArc
 50
198.1349817577629
 51
320.7856996351533
  0
ARC
  5
5D0
330
5C9
100
AcDbEntity
  8
1
  6
Continuous
 62
    15
100
AcDbCircle
 10
23.66022723866647
 20
4.350000057400706
 30
0.0
 40
3.15
100
AcDbArc
 50
100.2221793905766
 51
140.7856996351533
  0
LINE
  5
5D1
330
5C9
100
AcDbEntity
  8
1
  6
Continuous
 62
    15
100
AcDbLine
 10
25.31022723866646
 20
0.4000000574007032
 30
0.0
 11
48.65295333292341
 21
1.730342403993419
 31
0.0
  0
LINE
  5
5D2
330
5C9
100
AcDbEntity
  8
1
  6
Continuous
 62
    15
100
AcDbLine
 10
15.91022723866647
 20
5.500000057400712
 30
0.0
 11
17.55140819356393
 21
3.607360348519421
 31
0.0
  0
LINE
  5
5D3
330
5C9
100
AcDbEntity
  8
1
  6
Continuous
 62
    15
100
AcDbLine
 10
35.55796096211796
 20
2.615988291775167
 30
0.0
 11
35.80000027612184
 21
2.373948977771278
 31
0.0
  0
LINE
  5
5D4
330
5C9
100
AcDbEntity
  8
1
  6
Continuous
 62
    15
100
AcDbLine
 10
35.80000027612184
 20
2.373948977771278
 30
0.0
 11
36.05880192499848
 21
2.632750626647919
 31
0.0
  0
LINE
  5
5D5
330
5C9
100
AcDbEntity
  8
1
  6
Continuous
 62
    15
100
AcDbLine
 10
25.90033064061455
 20
6.200000057400715
 30
0.0
 11
28.28522723866647
 21
6.200000057400715
 31
0.0
  0
ARC
  5
5D6
330
5C9
100
AcDbEntity
  8
1
  6
Continuous
 62
    15
100
AcDbCircle
 10
28.28522723866647
 20
6.825000057400715
 30
0.0
 40
0.625
100
AcDbArc
 50
270.0
 51
90.0
  0
LINE
  5
5D7
330
5C9
100
AcDbEntity
  8
1
  6
Continuous
 62
    15
100
AcDbLine
 10
28.28522723866647
 20
7.450000057400715
 30
0.0
 11
23.66022723866647
 21
7.4500000574007
 31
0.0
  0
LINE
  5
5D8
330
5C9
100
AcDbEntity
  8
1
  6
Continuous
 62
    15
100
AcDbLine
 10
17.55140819356394
 20
3.607360348519407
 30
0.0
 11
18.16378062925973
 21
3.25380695792613
 31
0.0
  0
LINE
  5
5D9
330
5C9
100
AcDbEntity
  8
1
  6
Continuous
 62
    15
100
AcDbLine
 10
18.16378062925973
 20
3.25380695792613
 30
0.0
 11
17.86468891318829
 21
2.735764909567393
 31
0.0
  0
LINE
  5
5DA
330
5C9
100
AcDbEntity
  8
1
  6
Continuous
 62
    15
100
AcDbLine
 10
17.86468891318829
 20
2.735764909567393
 30
0.0
 11
17.81022723866646
 21
2.641434522230313
 31
0.0
  0
LINE
  5
5DB
330
5C9
100
AcDbEntity
  8
1
  6
Continuous
 62
    15
100
AcDbLine
 10
17.81022723866646
 20
2.641434522230313
 30
0.0
 11
17.81022723866646
 21
0.0000000574007117
 31
0.0
  0
LINE
  5
5DC
330
5C9
100
AcDbEntity
  8
1
  6
Continuous
 62
    15
100
AcDbLine
 10
51.88658038677455
 20
0.1507685054359484
 30
0.0
 11
55.65077228946792
 21
1.520822314082196
 31
0.0
  0
LINE
  5
5DD
330
5C9
100
AcDbEntity
  8
1
  6
Continuous
 62
    15
100
AcDbLine
 10
56.2224170585229
 20
1.350127870214422
 30
0.0
 11
56.24019836972659
 21
1.326314513085578
 31
0.0
  0
ARC
  5
5DE
330
5C9
100
AcDbEntity
  8
1
  6
Continuous
 62
    15
100
AcDbCircle
 10
56.71498628587845
 20
1.735037716178084
 30
0.0
 40
0.6264808233857041
100
AcDbArc
 50
220.7236554207954
 51
40.7236554207955
  0
ARC
  5
5DF
330
5C9
100
AcDbEntity
  8
1
  6
Continuous
 62
    15
100
AcDbCircle
 10
58.59098598164143
 20
3.350000057400706
 30
0.0
 40
1.85
100
AcDbArc
 50
319.2517007137775
 51
220.7236554207953
  0
ARC
  5
5E0
330
5C9
100
AcDbEntity
  8
1
  6
Continuous
 62
    15
100
AcDbCircle
 10
60.46603462917613
 20
1.734451755122322
 30
0.0
 40
0.6251429817379978
100
AcDbArc
 50
139.2517007137774
 51
319.2517007137775
  0
ARC
  5
5E1
330
5C9
100
AcDbEntity
  8
1
  6
Continuous
 62
    15
100
AcDbCircle
 10
58.59098598164143
 20
3.350000057400706
 30
0.0
 40
3.1
100
AcDbArc
 50
319.2517007137775
 51
13.97489179347239
  0
ARC
  5
5E2
330
5C9
100
AcDbEntity
  8
1
  6
Continuous
 62
    15
100
AcDbCircle
 10
56.18812243986964
 20
6.323186391456801
 30
0.0
 40
0.7228923319537902
100
AcDbArc
 50
234.5799295400786
 51
308.9443781271985
  0
ARC
  5
5E3
330
5C9
100
AcDbEntity
  8
1
  6
Continuous
 62
    15
100
AcDbCircle
 10
56.18812243986964
 20
6.323186391456801
 30
0.0
 40
0.7228923319537902
100
AcDbArc
 50
308.9443781271986
 51
0.0
  0
LINE
  5
5E4
330
5C9
100
AcDbEntity
  8
1
  6
Continuous
 62
    15
100
AcDbLine
 10
56.91101477182342
 20
6.323186391456801
 30
0.0
 11
56.91101477182342
 21
6.344388077196996
 31
0.0
  0
LINE
  5
5E5
330
5C9
100
AcDbEntity
  8
1
  6
Continuous
 62
    15
100
AcDbLine
 10
57.41101477182342
 20
6.844388077196996
 30
0.0
 11
57.41022710455601
 21
6.844388077196996
 31
0.0
  0
ARC
  5
5E6
330
5C9
100
AcDbEntity
  8
1
  6
Continuous
 62
    15
100
AcDbCircle
 10
58.28522711759452
 20
7.58573621422785
 30
0.0
 40
1.146831322861616
100
AcDbArc
 50
220.2731054855313
 51
319.7268945144686
  0
ARC
  5
5E7
330
5C9
100
AcDbEntity
  8
1
  6
Continuous
 62
    15
100
AcDbCircle
 10
25.27581474457483
 20
6.224972250686946
 30
0.0
 40
0.6250149716957305
100
AcDbArc
 50
229.249857885374
 51
357.7101632768781
  0
ARC
  5
5E8
330
5C9
100
AcDbEntity
  8
1
  6
Continuous
 62
    15
100
AcDbCircle
 10
23.66022723866647
 20
4.350000057400706
 30
0.0
 40
1.85
100
AcDbArc
 50
49.24985788537405
 51
310.7486165669955
  0
ARC
  5
5E9
330
5C9
100
AcDbEntity
  8
1
  6
Continuous
 62
    15
100
AcDbCircle
 10
25.27576652837542
 20
2.474982867182234
 30
0.0
 40
0.6250253276533118
100
AcDbArc
 50
14.58992868082882
 51
130.7486165669953
  0
LINE
  5
5EA
330
5C9
100
AcDbEntity
  8
1
  6
Continuous
 62
    15
100
AcDbLine
 10
66.16022723494117
 20
6.844388077196996
 30
0.0
 11
65.91022723121588
 21
6.844388077196996
 31
0.0
  0
ARC
  5
5EB
330
5C9
100
AcDbEntity
  8
1
  6
Continuous
 62
    15
100
AcDbCircle
 10
65.03522721817737
 20
6.844388077196996
 30
0.0
 40
0.875000013038516
100
AcDbArc
 50
180.0
 51
0.0
  0
LINE
  5
5EC
330
5C9
100
AcDbEntity
  8
1
  6
Continuous
 62
    15
100
AcDbLine
 10
64.16022720513885
 20
6.844388077196996
 30
0.0
 11
63.66022719768826
 21
6.844388077196996
 31
0.0
  0
ARC
  5
5ED
330
5C9
100
AcDbEntity
  8
1
  6
Continuous
 62
    15
100
AcDbCircle
 10
62.78522718464975
 20
6.844388077196996
 30
0.0
 40
0.875000013038516
100
AcDbArc
 50
180.0
 51
0.0
  0
LINE
  5
5EE
330
5C9
100
AcDbEntity
  8
1
  6
Continuous
 62
    15
100
AcDbLine
 10
61.91022717161123
 20
6.844388077196996
 30
0.0
 11
61.41022716416065
 21
6.844388077196996
 31
0.0
  0
ARC
  5
5EF
330
5C9
100
AcDbEntity
  8
1
  6
Continuous
 62
    15
100
AcDbCircle
 10
67.2795611204912
 20
2.5373344197466
 30
0.0
 40
1.451970758583345
100
AcDbArc
 50
232.0129704852096
 51
232.0129704852108
  0
LINE
  5
5F0
330
5C9
100
AcDbEntity
  8
1
  6
Continuous
 62
    15
100
AcDbLine
 10
66.16022723494117
 20
6.844388077196996
 30
0.0
 11
65.91022723121588
 21
6.844388077196996
 31
0.0
  0
ARC
  5
5F1
330
5C9
100
AcDbEntity
  8
1
  6
Continuous
 62
    15
100
AcDbCircle
 10
67.2795611204912
 20
2.5373344197466
 30
0.0
 40
1.451970758583345
100
AcDbArc
 50
232.0129704852096
 51
232.0129704852108
  0
ARC
  5
5F2
330
5C9
100
AcDbEntity
  8
1
  6
Continuous
 62
    15
100
AcDbCircle
 10
60.53522715112214
 20
6.844388077196996
 30
0.0
 40
0.875000013038516
100
AcDbArc
 50
180.0
 51
0.0
  0
LINE
  5
5F3
330
5C9
100
AcDbEntity
  8
1
  6
Continuous
 62
    15
100
AcDbLine
 10
59.66022713808362
 20
6.844388077196996
 30
0.0
 11
59.16022713063304
 21
6.844388077196996
 31
0.0
  0
ARC
  5
5F4
330
5C9
100
AcDbEntity
  8
1
  6
Continuous
 62
    15
100
AcDbCircle
 10
66.16022723494117
 20
6.594388073471706
 30
0.0
 40
0.2500000037252903
100
AcDbArc
 50
0.0
 51
90.0
  0
ARC
  5
5F5
330
5C9
100
AcDbEntity
  8
1
  6
Continuous
 62
    15
100
AcDbCircle
 10
3.410227238666465
 20
7.800250784978033
 30
0.0
 40
0.5
100
AcDbArc
 50
39.11799697235669
 51
220.2639316620706
  0
ARC
  5
5F6
330
5C9
100
AcDbEntity
  8
1
  6
Continuous
 62
    15
100
AcDbCircle
 10
6.910227238666465
 20
10.23288010976978
 30
0.0
 40
0.5
100
AcDbArc
 50
29.33752438578988
 51
210.4834590755055
  0
ARC
  5
5F7
330
5C9
100
AcDbEntity
  8
1
  6
Continuous
 62
    15
100
AcDbCircle
 10
10.41022723866647
 20
11.89958035556138
 30
0.0
 40
0.5
100
AcDbArc
 50
20.44412722497315
 51
201.5900619146865
  0
ARC
  5
5F8
330
5C9
100
AcDbEntity
  8
1
  6
Continuous
 62
    15
100
AcDbCircle
 10
19.37638907379736
 20
-11.43725623267916
 30
0.0
 40
25.0
100
AcDbArc
 50
130.8368990069276
 51
139.9677811587691
  0
ARC
  5
5F9
330
5C9
100
AcDbEntity
  8
1
  6
Continuous
 62
    15
100
AcDbCircle
 10
19.37638907379736
 20
-11.43725623267916
 30
0.0
 40
25.0
100
AcDbArc
 50
121.0564264203621
 51
128.5450296274992
  0
ARC
  5
5FA
330
5C9
100
AcDbEntity
  8
1
  6
Continuous
 62
    15
100
AcDbCircle
 10
19.37638907379736
 20
-11.43725623267916
 30
0.0
 40
25.0
100
AcDbArc
 50
112.1630292595445
 51
118.7645570409336
  0
ARC
  5
5FB
330
5C9
100
AcDbEntity
  8
1
  6
Continuous
 62
    15
100
AcDbCircle
 10
19.37638907379736
 20
-11.43725623267916
 30
0.0
 40
25.0
100
AcDbArc
 50
103.5307464986789
 51
109.8711598801153
  0
ARC
  5
5FC
330
5C9
100
AcDbEntity
  8
1
  6
Continuous
 62
    15
100
AcDbCircle
 10
1.000000276121852
 20
3.999982340221962
 30
0.0
 40
1.0
100
AcDbArc
 50
139.9677811587691
 51
316.9560632782728
  0
ARC
  5
5FD
330
5C9
100
AcDbEntity
  8
1
  6
Continuous
 62
    15
100
AcDbCircle
 10
20.0015933463836
 20
-13.74655142815605
 30
0.0
 40
25.0
100
AcDbArc
 50
107.1859379357977
 51
136.9560632782728
  0
LINE
  5
5FE
330
5C9
100
AcDbEntity
  8
1
  6
Continuous
 62
    15
100
AcDbLine
 10
13.91022723866647
 20
9.181870382477157
 30
0.0
 11
13.91022723866647
 21
7.000000057400712
 31
0.0
  0
LINE
  5
5FF
330
5C9
100
AcDbEntity
  8
1
  6
Continuous
 62
    15
100
AcDbLine
 10
25.31022723866646
 20
0.0000000574007117
 30
0.0
 11
25.31022723866646
 21
0.4000000574007032
 31
0.0
  0
LINE
  5
600
330
5C9
100
AcDbEntity
  8
1
  6
Continuous
 62
    15
100
AcDbLine
 10
26.38123851078229
 20
2.25865570451343
 30
0.0
 11
35.55796096211796
 21
2.615988291775167
 31
0.0
  0
LINE
  5
601
330
5C9
100
AcDbEntity
  8
1
  6
Continuous
 62
    15
100
AcDbLine
 10
36.05880192499848
 20
2.632750626647919
 30
0.0
 11
48.32444362822242
 21
3.230342403993419
 31
0.0
  0
ARC
  5
602
330
5C9
100
AcDbEntity
  8
1
  6
Continuous
 62
    15
100
AcDbCircle
 10
51.03153002846037
 20
2.500000057400712
 30
0.0
 40
2.5
100
AcDbArc
 50
270.0
 51
290.0000000000001
  0
ARC
  5
603
330
5C9
100
AcDbEntity
  8
1
  6
Continuous
 62
    15
100
AcDbCircle
 10
51.03153002846037
 20
2.500000057400712
 30
0.0
 40
2.5
100
AcDbArc
 50
197.9304957389324
 51
270.0
  0
ARC
  5
604
330
5C9
100
AcDbEntity
  8
1
  6
Continuous
 62
    15
100
AcDbCircle
 10
17.61022723866645
 20
9.300000057400723
 30
0.0
 40
0.2
100
AcDbArc
 50
18.13549625590597
 51
180.0
  0
LINE
  5
605
330
5C9
100
AcDbEntity
  8
1
  6
Continuous
 62
    15
100
AcDbLine
 10
17.41022723866647
 20
9.300000057400723
 30
0.0
 11
17.41022723866647
 21
8.000000057400712
 31
0.0
  0
LINE
  5
606
330
5C9
100
AcDbEntity
  8
1
  6
Continuous
 62
    15
100
AcDbLine
 10
17.41022723866647
 20
8.000000057400712
 30
0.0
 11
15.91022723866647
 21
8.000000057400712
 31
0.0
  0
LINE
  5
607
330
5C9
100
AcDbEntity
  8
1
  6
Continuous
 62
    15
100
AcDbLine
 10
15.91022723866647
 20
8.000000057400712
 30
0.0
 11
15.91022723866647
 21
14.00000005740071
 31
0.0
  0
LINE
  5
608
330
5C9
100
AcDbEntity
  8
1
  6
Continuous
 62
    15
100
AcDbLine
 10
15.91022723866647
 20
14.00000005740071
 30
0.0
 11
17.41022723866647
 21
14.00000005740071
 31
0.0
  0
LINE
  5
609
330
5C9
100
AcDbEntity
  8
1
  6
Continuous
 62
    15
100
AcDbLine
 10
17.41022723866647
 20
14.00000005740071
 30
0.0
 11
17.41022723866647
 21
12.7000000574007
 31
0.0
  0
ARC
  5
60A
330
5C9
100
AcDbEntity
  8
1
  6
Continuous
 62
    15
100
AcDbCircle
 10
17.61022723866645
 20
12.7000000574007
 30
0.0
 40
0.2
100
AcDbArc
 50
180.0
 51
341.0753555839485
  0
LINE
  5
60B
330
5C9
100
AcDbEntity
  8
1
  6
Continuous
 62
    15
100
AcDbLine
 10
17.79941642785565
 20
12.63513519253584
 30
0.0
 11
18.41022723866647
 21
14.41666672406737
 31
0.0
  0
ARC
  5
60C
330
5C9
100
AcDbEntity
  8
1
  6
Continuous
 62
    15
100
AcDbCircle
 10
17.91022723866647
 20
14.50000005740071
 30
0.0
 40
0.5
100
AcDbArc
 50
0.0
 51
90.0
  0
ARC
  5
60D
330
5C9
100
AcDbEntity
  8
1
  6
Continuous
 62
    15
100
AcDbCircle
 10
17.91022723866647
 20
14.50000005740071
 30
0.0
 40
0.5
100
AcDbArc
 50
341.0753555839473
 51
0.0
  0
ARC
  5
60E
330
5C9
100
AcDbEntity
  8
1
  6
Continuous
 62
    15
100
AcDbCircle
 10
17.91022723866647
 20
14.50000005740071
 30
0.0
 40
0.5
100
AcDbArc
 50
0.0
 51
90.0
  0
LINE
  5
60F
330
5C9
100
AcDbEntity
  8
1
  6
Continuous
 62
    15
100
AcDbLine
 10
17.91022723866647
 20
15.00000005740071
 30
0.0
 11
15.41022723866647
 21
15.00000005740071
 31
0.0
  0
LINE
  5
610
330
5C9
100
AcDbEntity
  8
1
  6
Continuous
 62
    15
100
AcDbLine
 10
13.91022723866647
 20
13.50000005740071
 30
0.0
 11
13.91022723866647
 21
13.35497869999739
 31
0.0
  0
ARC
  5
611
330
5C9
100
AcDbEntity
  8
1
  6
Continuous
 62
    15
100
AcDbCircle
 10
15.41022723866647
 20
13.50000005740071
 30
0.0
 40
1.5
100
AcDbArc
 50
90.0
 51
180.0
  0
LINE
  5
612
330
5C9
100
AcDbEntity
  8
1
  6
Continuous
 62
    15
100
AcDbLine
 10
17.81022723866646
 20
0.0000000574007117
 30
0.0
 11
21.16022723866647
 21
0.0000000574007117
 31
0.0
  0
LINE
  5
613
330
5C9
100
AcDbEntity
  8
1
  6
Continuous
 62
    15
100
AcDbLine
 10
21.66022723866647
 20
0.0000000574007117
 30
0.0
 11
22.16022723866647
 21
0.0000000574007117
 31
0.0
  0
LINE
  5
614
330
5C9
100
AcDbEntity
  8
1
  6
Continuous
 62
    15
100
AcDbLine
 10
22.66022723866647
 20
0.0000000574007117
 30
0.0
 11
23.16022723866647
 21
0.0000000574007117
 31
0.0
  0
LINE
  5
615
330
5C9
100
AcDbEntity
  8
1
  6
Continuous
 62
    15
100
AcDbLine
 10
23.66022723866647
 20
0.0000000574007117
 30
0.0
 11
24.16022723866647
 21
0.0000000574007117
 31
0.0
  0
LINE
  5
616
330
5C9
100
AcDbEntity
  8
1
  6
Continuous
 62
    15
100
AcDbLine
 10
24.66022723866647
 20
0.0000000574007117
 30
0.0
 11
25.31022723866646
 21
0.0000000574007117
 31
0.0
  0
ARC
  5
617
330
5C9
100
AcDbEntity
  8
1
  6
Continuous
 62
    15
100
AcDbCircle
 10
24.41022723866647
 20
0.0000000574007117
 30
0.0
 40
0.25
100
AcDbArc
 50
0.0
 51
180.0
  0
ARC
  5
618
330
5C9
100
AcDbEntity
  8
1
  6
Continuous
 62
    15
100
AcDbCircle
 10
23.41022723866647
 20
0.0000000574007117
 30
0.0
 40
0.25
100
AcDbArc
 50
0.0
 51
180.0
  0
ARC
  5
619
330
5C9
100
AcDbEntity
  8
1
  6
Continuous
 62
    15
100
AcDbCircle
 10
22.41022723866647
 20
0.0000000574007117
 30
0.0
 40
0.25
100
AcDbArc
 50
0.0
 51
180.0
  0
ARC
  5
61A
330
5C9
100
AcDbEntity
  8
1
  6
Continuous
 62
    15
100
AcDbCircle
 10
21.41022723866647
 20
0.0000000574007117
 30
0.0
 40
0.25
100
AcDbArc
 50
0.0
 51
180.0
  0
ARC
  5
61B
330
5C9
100
AcDbEntity
  8
1
  6
Continuous
 62
    15
100
AcDbCircle
 10
54.32045420121106
 20
3.697070559040554
 30
0.0
 40
2.5
100
AcDbArc
 50
54.5799295400786
 51
93.6702573747949
  0
ARC
  5
61C
330
5C9
100
AcDbEntity
  8
1
  6
Continuous
 62
    15
100
AcDbCircle
 10
54.32045420121106
 20
3.697070559040554
 30
0.0
 40
2.5
100
AcDbArc
 50
93.6702573747949
 51
109.2360336359783
  0
ARC
  5
61D
330
5C9
100
AcDbEntity
  8
1
  6
Continuous
 62
    15
100
AcDbCircle
 10
54.32045420121106
 20
3.697070559040554
 30
0.0
 40
1.25
100
AcDbArc
 50
289.9999999999999
 51
109.236033635978
  0
ARC
  5
61E
330
5C9
100
AcDbEntity
  8
1
  6
Continuous
 62
    15
100
AcDbCircle
 10
51.03153002846037
 20
2.500000057400712
 30
0.0
 40
1.25
100
AcDbArc
 50
109.9999999999994
 51
290.0000000000007
  0
LINE
  5
61F
330
5C9
100
AcDbEntity
  8
1
  6
Continuous
 62
    15
100
AcDbLine
 10
51.45905520761747
 20
1.325384281418337
 30
0.0
 11
52.71348517699472
 21
1.781959451243111
 31
0.0
  0
ARC
  5
620
330
5C9
100
AcDbEntity
  8
1
  6
Continuous
 62
    15
100
AcDbCircle
 10
50.36680695009603
 20
4.253216595393042
 30
0.0
 40
0.625
100
AcDbArc
 50
290.7639663640226
 51
110.7639663640213
  0
ARC
  5
621
330
5C9
100
AcDbEntity
  8
1
  6
Continuous
 62
    15
100
AcDbCircle
 10
53.702715753886
 20
5.467388104199159
 30
0.0
 40
0.625
100
AcDbArc
 50
109.2360336359775
 51
289.2360336359785
  0
LINE
  5
622
330
5C9
100
AcDbEntity
  8
1
  6
Continuous
 62
    15
100
AcDbLine
 10
54.74797938036816
 20
2.52245478305818
 30
0.0
 11
52.71348517699472
 21
1.781959451243111
 31
0.0
  0
ARC
  5
623
330
5C9
100
AcDbEntity
  8
1
  6
Continuous
 62
    15
100
AcDbCircle
 10
51.03153002846037
 20
2.500000057400712
 30
0.0
 40
2.5
100
AcDbArc
 50
110.0
 51
155.8061175462502
  0
ARC
  5
624
330
5C9
100
AcDbEntity
  8
1
  6
Continuous
 62
    15
100
AcDbCircle
 10
48.29503839146579
 20
3.729476987098309
 30
0.0
 40
0.5
100
AcDbArc
 50
273.3715373382716
 51
335.8061175462503
  0
ARC
  5
625
330
5C9
100
AcDbEntity
  8
1
  6
Continuous
 62
    15
100
AcDbCircle
 10
54.32045420121106
 20
3.697070559040554
 30
0.0
 40
2.5
100
AcDbArc
 50
54.5799295400786
 51
93.6702573747949
  0
ARC
  5
626
330
5C9
100
AcDbEntity
  8
1
  6
Continuous
 62
    15
100
AcDbCircle
 10
54.32045420121106
 20
3.697070559040554
 30
0.0
 40
2.5
100
AcDbArc
 50
93.6702573747949
 51
109.2360336359783
  0
ARC
  5
627
330
5C9
100
AcDbEntity
  8
1
  6
Continuous
 62
    15
100
AcDbCircle
 10
54.32045420121106
 20
3.697070559040554
 30
0.0
 40
1.25
100
AcDbArc
 50
289.9999999999999
 51
109.236033635978
  0
ARC
  5
628
330
5C9
100
AcDbEntity
  8
1
  6
Continuous
 62
    15
100
AcDbCircle
 10
53.702715753886
 20
5.467388104199159
 30
0.0
 40
0.625
100
AcDbArc
 50
109.2360336359775
 51
289.2360336359785
  0
LINE
  5
629
330
5C9
100
AcDbEntity
  8
1
  6
Continuous
 62
    15
100
AcDbLine
 10
54.74797938036816
 20
2.52245478305818
 30
0.0
 11
52.71348517699472
 21
1.781959451243111
 31
0.0
  0
ARC
  5
62A
330
5C9
100
AcDbEntity
  8
1
  6
Continuous
 62
    15
100
AcDbCircle
 10
12.91022723866647
 20
9.181870382477157
 30
0.0
 40
1.0
100
AcDbArc
 50
0.0
 51
107.1859379357978
  0
ARC
  5
62B
330
5C9
100
AcDbEntity
  8
1
  6
Continuous
 62
    15
100
AcDbCircle
 10
13.41022723866647
 20
13.35497869999739
 30
0.0
 40
0.5
100
AcDbArc
 50
283.5307464986788
 51
0.0
  0
LINE
  5
62C
330
5C9
100
AcDbEntity
  8
1
  6
Continuous
 62
    15
100
AcDbLine
 10
66.41022723866647
 20
6.594388073471706
 30
0.0
 11
66.41022723866647
 21
0.5000000574007117
 31
0.0
  0
LINE
  5
62D
330
5C9
100
AcDbEntity
  8
1
  6
Continuous
 62
    15
100
AcDbLine
 10
65.91022723866647
 20
0.0000000574007117
 30
0.0
 11
65.66022723866647
 21
0.0000000574007117
 31
0.0
  0
LINE
  5
62E
330
5C9
100
AcDbEntity
  8
1
  6
Continuous
 62
    15
100
AcDbLine
 10
65.16022723866647
 20
1.71938806415848
 30
0.0
 11
65.16022723866647
 21
4.21938806415848
 31
0.0
  0
LINE
  5
62F
330
5C9
100
AcDbEntity
  8
1
  6
Continuous
 62
    15
100
AcDbLine
 10
64.66022723866647
 20
4.71938806415848
 30
0.0
 11
62.08443191563064
 21
4.71938806415848
 31
0.0
  0
ARC
  5
630
330
5C9
100
AcDbEntity
  8
1
  6
Continuous
 62
    15
100
AcDbCircle
 10
64.66022723866647
 20
4.21938806415848
 30
0.0
 40
0.5
100
AcDbArc
 50
0.0
 51
90.0
  0
ARC
  5
631
330
5C9
100
AcDbEntity
  8
1
  6
Continuous
 62
    15
100
AcDbCircle
 10
65.91022723866647
 20
0.5000000574007117
 30
0.0
 40
0.5
100
AcDbArc
 50
270.0
 51
0.0
  0
ARC
  5
632
330
5C9
100
AcDbEntity
  8
1
  6
Continuous
 62
    15
100
AcDbCircle
 10
65.66022723866647
 20
0.5000000574007117
 30
0.0
 40
0.5
100
AcDbArc
 50
214.1404868935876
 51
270.0
  0
ARC
  5
633
330
5C9
100
AcDbEntity
  8
1
  6
Continuous
 62
    15
100
AcDbCircle
 10
62.08443191563064
 20
4.21938806415848
 30
0.0
 40
0.5
100
AcDbArc
 50
90.0
 51
193.9748917934724
  0
ARC
  5
634
330
5C9
100
AcDbEntity
  8
1
  6
Continuous
 62
    15
100
AcDbCircle
 10
55.82178236113075
 20
1.050976003689243
 30
0.0
 40
0.5
100
AcDbArc
 50
36.74850782711038
 51
110.0000000000001
  0
ARC
  5
635
330
5C9
100
AcDbEntity
  8
1
  6
Continuous
 62
    15
100
AcDbCircle
 10
57.41101477182342
 20
6.344388077196996
 30
0.0
 40
0.5
100
AcDbArc
 50
90.0
 51
180.0
  0
LINE
  5
636
330
5C9
100
AcDbEntity
  8
1
  6
Continuous
 62
    15
100
AcDbLine
 10
15.41022723866647
 20
5.500000057400712
 30
0.0
 11
15.91022723866647
 21
5.500000057400712
 31
0.0
  0
ARC
  5
637
330
5C9
100
AcDbEntity
  8
1
  6
Continuous
 62
    15
100
AcDbCircle
 10
15.41022723866647
 20
7.000000057400712
 30
0.0
 40
1.5
100
AcDbArc
 50
180.0
 51
270.0
  0
LINE
  5
638
330
5C9
100
AcDbEntity
  8
1
  6
Continuous
 62
    15
100
AcDbLine
 10
18.41022723866647
 20
7.450000057400715
 30
0.0
 11
18.42660499825629
 21
7.450000057400715
 31
0.0
  0
LINE
  5
639
330
5C9
100
AcDbEntity
  8
1
  6
Continuous
 62
    15
100
AcDbLine
 10
23.10121024429156
 20
7.450000057400715
 30
0.0
 11
23.66022723866647
 21
7.450000057400715
 31
0.0
  0
ARC
  5
63A
330
5C9
100
AcDbEntity
  8
1
  6
Continuous
 62
    15
100
AcDbCircle
 10
26.36451368596055
 20
2.758375906461154
 30
0.0
 40
0.5
100
AcDbArc
 50
194.5899286808287
 51
271.9168813238778
  0
LINE
  5
63B
330
5C9
100
AcDbEntity
  8
1
  6
Continuous
 62
    15
100
AcDbLine
 10
64.66022723866647
 20
1.21938806415848
 30
0.0
 11
64.16022723866647
 21
1.21938806415848
 31
0.0
  0
ARC
  5
63C
330
5C9
100
AcDbEntity
  8
1
  6
Continuous
 62
    15
100
AcDbCircle
 10
64.16022723866647
 20
0.7193880641584798
 30
0.0
 40
0.5
100
AcDbArc
 50
90.0
 51
270.0
  0
LINE
  5
63D
330
5C9
100
AcDbEntity
  8
1
  6
Continuous
 62
    15
100
AcDbLine
 10
64.16022723866647
 20
0.2193880641584798
 30
0.0
 11
65.24639525676
 21
0.2193880641584798
 31
0.0
  0
ARC
  5
63E
330
5C9
100
AcDbEntity
  8
1
  6
Continuous
 62
    15
100
AcDbCircle
 10
64.66022723866647
 20
1.71938806415848
 30
0.0
 40
0.5
100
AcDbArc
 50
270.0
 51
0.0
  0
ENDBLK
  5
5CB
330
5C9
100
AcDbEntity
  8
0
100
AcDbBlockEnd
  0
BLOCK
  5
640
330
63F
100
AcDbEntity
  8
0
100
AcDbBlockBegin
  2
GEN_BLOCK00015
 70
     0
 71
     0
 10
0.0
 20
0.0
 30
0.0
  3
GEN_BLOCK00015
  1

  0
LINE
  5
643
330
63F
100
AcDbEntity
  8
1
  6
HIDDEN
 62
    15
100
AcDbLine
 10
15.7686944319541
 20
12.05432695310708
 30
0.0
 11
15.7686944319541
 21
12.05432695310708
 31
0.0
  0
LINE
  5
644
330
63F
100
AcDbEntity
  8
1
  6
Continuous
 62
    15
100
AcDbLine
 10
17.80029096564845
 20
9.362252234150645
 30
0.0
 11
18.63197930662054
 21
6.82294968289392
 31
0.0
  0
ARC
  5
645
330
63F
100
AcDbEntity
  8
1
  6
Continuous
 62
    15
100
AcDbCircle
 10
20.05746811456518
 20
7.289834742008679
 30
0.0
 40
1.5
100
AcDbArc
 50
198.1349817577629
 51
320.7856996351533
  0
ARC
  5
646
330
63F
100
AcDbEntity
  8
1
  6
Continuous
 62
    15
100
AcDbCircle
 10
23.66022635026104
 20
4.349999186212131
 30
0.0
 40
3.15
100
AcDbArc
 50
100.2221793905766
 51
140.7856996351533
  0
LINE
  5
647
330
63F
100
AcDbEntity
  8
1
  6
Continuous
 62
    15
100
AcDbLine
 10
25.31022635026104
 20
0.3999991862121277
 30
0.0
 11
48.65295244451799
 21
1.730341532804843
 31
0.0
  0
LINE
  5
648
330
63F
100
AcDbEntity
  8
1
  6
Continuous
 62
    15
100
AcDbLine
 10
15.91022635026104
 20
5.499999186212136
 30
0.0
 11
17.55140730515851
 21
3.607359477330846
 31
0.0
  0
LINE
  5
649
330
63F
100
AcDbEntity
  8
1
  6
Continuous
 62
    15
100
AcDbLine
 10
35.55796007371254
 20
2.615987420586592
 30
0.0
 11
35.79999938771642
 21
2.373948106582702
 31
0.0
  0
LINE
  5
64A
330
63F
100
AcDbEntity
  8
1
  6
Continuous
 62
    15
100
AcDbLine
 10
35.79999938771642
 20
2.373948106582702
 30
0.0
 11
36.05880103659306
 21
2.632749755459344
 31
0.0
  0
LINE
  5
64B
330
63F
100
AcDbEntity
  8
1
  6
Continuous
 62
    15
100
AcDbLine
 10
25.90032975220912
 20
6.199999186212139
 30
0.0
 11
28.28522635026104
 21
6.199999186212139
 31
0.0
  0
ARC
  5
64C
330
63F
100
AcDbEntity
  8
1
  6
Continuous
 62
    15
100
AcDbCircle
 10
28.28522635026104
 20
6.824999186212139
 30
0.0
 40
0.625
100
AcDbArc
 50
270.0
 51
90.0
  0
LINE
  5
64D
330
63F
100
AcDbEntity
  8
1
  6
Continuous
 62
    15
100
AcDbLine
 10
28.28522635026104
 20
7.449999186212139
 30
0.0
 11
23.66022635026104
 21
7.449999186212125
 31
0.0
  0
LINE
  5
64E
330
63F
100
AcDbEntity
  8
1
  6
Continuous
 62
    15
100
AcDbLine
 10
17.55140730515851
 20
3.607359477330832
 30
0.0
 11
18.16377974085431
 21
3.253806086737555
 31
0.0
  0
LINE
  5
64F
330
63F
100
AcDbEntity
  8
1
  6
Continuous
 62
    15
100
AcDbLine
 10
18.16377974085431
 20
3.253806086737555
 30
0.0
 11
17.86468802478286
 21
2.735764038378818
 31
0.0
  0
LINE
  5
650
330
63F
100
AcDbEntity
  8
1
  6
Continuous
 62
    15
100
AcDbLine
 10
17.86468802478286
 20
2.735764038378818
 30
0.0
 11
17.81022635026104
 21
2.641433651041737
 31
0.0
  0
LINE
  5
651
330
63F
100
AcDbEntity
  8
1
  6
Continuous
 62
    15
100
AcDbLine
 10
17.81022635026104
 20
2.641433651041737
 30
0.0
 11
17.81022635026103
 21
-0.0000008137878638
 31
0.0
  0
LINE
  5
652
330
63F
100
AcDbEntity
  8
1
  6
Continuous
 62
    15
100
AcDbLine
 10
51.88657949836912
 20
0.1507676342473729
 30
0.0
 11
55.65077140106249
 21
1.52082144289362
 31
0.0
  0
LINE
  5
653
330
63F
100
AcDbEntity
  8
1
  6
Continuous
 62
    15
100
AcDbLine
 10
56.22241617011748
 20
1.350126999025846
 30
0.0
 11
56.24019748132117
 21
1.326313641897002
 31
0.0
  0
ARC
  5
654
330
63F
100
AcDbEntity
  8
1
  6
Continuous
 62
    15
100
AcDbCircle
 10
56.71498539747302
 20
1.735036844989509
 30
0.0
 40
0.6264808233857041
100
AcDbArc
 50
220.7236554207954
 51
40.7236554207955
  0
ARC
  5
655
330
63F
100
AcDbEntity
  8
1
  6
Continuous
 62
    15
100
AcDbCircle
 10
58.59098509323601
 20
3.349999186212131
 30
0.0
 40
1.85
100
AcDbArc
 50
319.2517007137775
 51
220.7236554207953
  0
ARC
  5
656
330
63F
100
AcDbEntity
  8
1
  6
Continuous
 62
    15
100
AcDbCircle
 10
60.4660337407707
 20
1.734450883933746
 30
0.0
 40
0.6251429817379978
100
AcDbArc
 50
139.2517007137774
 51
319.2517007137775
  0
ARC
  5
657
330
63F
100
AcDbEntity
  8
1
  6
Continuous
 62
    15
100
AcDbCircle
 10
58.59098509323601
 20
3.349999186212131
 30
0.0
 40
3.1
100
AcDbArc
 50
319.2517007137775
 51
13.97489179347239
  0
ARC
  5
658
330
63F
100
AcDbEntity
  8
1
  6
Continuous
 62
    15
100
AcDbCircle
 10
56.18812155146421
 20
6.323185520268225
 30
0.0
 40
0.7228923319537902
100
AcDbArc
 50
234.5799295400786
 51
308.9443781271985
  0
ARC
  5
659
330
63F
100
AcDbEntity
  8
1
  6
Continuous
 62
    15
100
AcDbCircle
 10
56.18812155146421
 20
6.323185520268225
 30
0.0
 40
0.7228923319537902
100
AcDbArc
 50
308.9443781271986
 51
0.0
  0
LINE
  5
65A
330
63F
100
AcDbEntity
  8
1
  6
Continuous
 62
    15
100
AcDbLine
 10
56.911013883418
 20
6.323185520268225
 30
0.0
 11
56.911013883418
 21
6.34438720600842
 31
0.0
  0
LINE
  5
65B
330
63F
100
AcDbEntity
  8
1
  6
Continuous
 62
    15
100
AcDbLine
 10
57.411013883418
 20
6.84438720600842
 30
0.0
 11
57.41022621615058
 21
6.84438720600842
 31
0.0
  0
ARC
  5
65C
330
63F
100
AcDbEntity
  8
1
  6
Continuous
 62
    15
100
AcDbCircle
 10
58.2852262291891
 20
7.585735343039275
 30
0.0
 40
1.146831322861616
100
AcDbArc
 50
220.2731054855313
 51
319.7268945144686
  0
ARC
  5
65D
330
63F
100
AcDbEntity
  8
1
  6
Continuous
 62
    15
100
AcDbCircle
 10
25.27581385616941
 20
6.224971379498371
 30
0.0
 40
0.6250149716957305
100
AcDbArc
 50
229.249857885374
 51
357.7101632768781
  0
ARC
  5
65E
330
63F
100
AcDbEntity
  8
1
  6
Continuous
 62
    15
100
AcDbCircle
 10
23.66022635026104
 20
4.349999186212131
 30
0.0
 40
1.85
100
AcDbArc
 50
49.24985788537405
 51
310.7486165669955
  0
ARC
  5
65F
330
63F
100
AcDbEntity
  8
1
  6
Continuous
 62
    15
100
AcDbCircle
 10
25.27576563997
 20
2.474981995993659
 30
0.0
 40
0.6250253276533118
100
AcDbArc
 50
14.58992868082882
 51
130.7486165669953
  0
LINE
  5
660
330
63F
100
AcDbEntity
  8
1
  6
Continuous
 62
    15
100
AcDbLine
 10
66.16022634653575
 20
6.84438720600842
 30
0.0
 11
65.91022634281046
 21
6.84438720600842
 31
0.0
  0
ARC
  5
661
330
63F
100
AcDbEntity
  8
1
  6
Continuous
 62
    15
100
AcDbCircle
 10
65.03522632977194
 20
6.84438720600842
 30
0.0
 40
0.875000013038516
100
AcDbArc
 50
180.0
 51
0.0
  0
LINE
  5
662
330
63F
100
AcDbEntity
  8
1
  6
Continuous
 62
    15
100
AcDbLine
 10
64.16022631673343
 20
6.84438720600842
 30
0.0
 11
63.66022630928284
 21
6.84438720600842
 31
0.0
  0
ARC
  5
663
330
63F
100
AcDbEntity
  8
1
  6
Continuous
 62
    15
100
AcDbCircle
 10
62.78522629624432
 20
6.84438720600842
 30
0.0
 40
0.875000013038516
100
AcDbArc
 50
180.0
 51
0.0
  0
LINE
  5
664
330
63F
100
AcDbEntity
  8
1
  6
Continuous
 62
    15
100
AcDbLine
 10
61.91022628320581
 20
6.84438720600842
 30
0.0
 11
61.41022627575523
 21
6.84438720600842
 31
0.0
  0
ARC
  5
665
330
63F
100
AcDbEntity
  8
1
  6
Continuous
 62
    15
100
AcDbCircle
 10
67.27956023208577
 20
2.537333548558024
 30
0.0
 40
1.451970758583345
100
AcDbArc
 50
232.0129704852096
 51
232.0129704852108
  0
LINE
  5
666
330
63F
100
AcDbEntity
  8
1
  6
Continuous
 62
    15
100
AcDbLine
 10
66.16022634653575
 20
6.84438720600842
 30
0.0
 11
65.91022634281046
 21
6.84438720600842
 31
0.0
  0
ARC
  5
667
330
63F
100
AcDbEntity
  8
1
  6
Continuous
 62
    15
100
AcDbCircle
 10
67.27956023208577
 20
2.537333548558024
 30
0.0
 40
1.451970758583345
100
AcDbArc
 50
232.0129704852096
 51
232.0129704852108
  0
ARC
  5
668
330
63F
100
AcDbEntity
  8
1
  6
Continuous
 62
    15
100
AcDbCircle
 10
60.53522626271671
 20
6.84438720600842
 30
0.0
 40
0.875000013038516
100
AcDbArc
 50
180.0
 51
0.0
  0
LINE
  5
669
330
63F
100
AcDbEntity
  8
1
  6
Continuous
 62
    15
100
AcDbLine
 10
59.6602262496782
 20
6.84438720600842
 30
0.0
 11
59.16022624222762
 21
6.84438720600842
 31
0.0
  0
ARC
  5
66A
330
63F
100
AcDbEntity
  8
1
  6
Continuous
 62
    15
100
AcDbCircle
 10
66.16022634653575
 20
6.59438720228313
 30
0.0
 40
0.2500000037252903
100
AcDbArc
 50
0.0
 51
90.0
  0
ARC
  5
66B
330
63F
100
AcDbEntity
  8
1
  6
Continuous
 62
    15
100
AcDbCircle
 10
3.410226350261041
 20
7.800249913789457
 30
0.0
 40
0.5
100
AcDbArc
 50
39.11799697235669
 51
220.2639316620706
  0
ARC
  5
66C
330
63F
100
AcDbEntity
  8
1
  6
Continuous
 62
    15
100
AcDbCircle
 10
6.910226350261041
 20
10.23287923858121
 30
0.0
 40
0.5
100
AcDbArc
 50
29.33752438578988
 51
210.4834590755055
  0
ARC
  5
66D
330
63F
100
AcDbEntity
  8
1
  6
Continuous
 62
    15
100
AcDbCircle
 10
10.41022635026104
 20
11.89957948437281
 30
0.0
 40
0.5
100
AcDbArc
 50
20.44412722497315
 51
201.5900619146865
  0
ARC
  5
66E
330
63F
100
AcDbEntity
  8
1
  6
Continuous
 62
    15
100
AcDbCircle
 10
19.37638818539193
 20
-11.43725710386774
 30
0.0
 40
25.0
100
AcDbArc
 50
130.8368990069276
 51
139.9677811587691
  0
ARC
  5
66F
330
63F
100
AcDbEntity
  8
1
  6
Continuous
 62
    15
100
AcDbCircle
 10
19.37638818539193
 20
-11.43725710386774
 30
0.0
 40
25.0
100
AcDbArc
 50
121.0564264203621
 51
128.5450296274992
  0
ARC
  5
670
330
63F
100
AcDbEntity
  8
1
  6
Continuous
 62
    15
100
AcDbCircle
 10
19.37638818539193
 20
-11.43725710386774
 30
0.0
 40
25.0
100
AcDbArc
 50
112.1630292595445
 51
118.7645570409336
  0
ARC
  5
671
330
63F
100
AcDbEntity
  8
1
  6
Continuous
 62
    15
100
AcDbCircle
 10
19.37638818539193
 20
-11.43725710386774
 30
0.0
 40
25.0
100
AcDbArc
 50
103.5307464986789
 51
109.8711598801153
  0
ARC
  5
672
330
63F
100
AcDbEntity
  8
1
  6
Continuous
 62
    15
100
AcDbCircle
 10
0.9999993877164286
 20
3.999981469033386
 30
0.0
 40
1.0
100
AcDbArc
 50
139.9677811587691
 51
316.9560632782728
  0
ARC
  5
673
330
63F
100
AcDbEntity
  8
1
  6
Continuous
 62
    15
100
AcDbCircle
 10
20.00159245797818
 20
-13.74655229934463
 30
0.0
 40
25.0
100
AcDbArc
 50
107.1859379357977
 51
136.9560632782728
  0
LINE
  5
674
330
63F
100
AcDbEntity
  8
1
  6
Continuous
 62
    15
100
AcDbLine
 10
13.91022635026104
 20
9.181869511288582
 30
0.0
 11
13.91022635026104
 21
6.999999186212136
 31
0.0
  0
LINE
  5
675
330
63F
100
AcDbEntity
  8
1
  6
Continuous
 62
    15
100
AcDbLine
 10
25.31022635026104
 20
-0.0000008137878638
 30
0.0
 11
25.31022635026104
 21
0.3999991862121277
 31
0.0
  0
LINE
  5
676
330
63F
100
AcDbEntity
  8
1
  6
Continuous
 62
    15
100
AcDbLine
 10
26.38123762237687
 20
2.258654833324854
 30
0.0
 11
35.55796007371254
 21
2.615987420586592
 31
0.0
  0
LINE
  5
677
330
63F
100
AcDbEntity
  8
1
  6
Continuous
 62
    15
100
AcDbLine
 10
36.05880103659306
 20
2.632749755459344
 30
0.0
 11
48.32444273981699
 21
3.230341532804843
 31
0.0
  0
ARC
  5
678
330
63F
100
AcDbEntity
  8
1
  6
Continuous
 62
    15
100
AcDbCircle
 10
51.03152914005495
 20
2.499999186212136
 30
0.0
 40
2.5
100
AcDbArc
 50
270.0
 51
290.0000000000001
  0
ARC
  5
679
330
63F
100
AcDbEntity
  8
1
  6
Continuous
 62
    15
100
AcDbCircle
 10
51.03152914005495
 20
2.499999186212136
 30
0.0
 40
2.5
100
AcDbArc
 50
197.9304957389324
 51
270.0
  0
ARC
  5
67A
330
63F
100
AcDbEntity
  8
1
  6
Continuous
 62
    15
100
AcDbCircle
 10
17.61022635026103
 20
9.299999186212148
 30
0.0
 40
0.2
100
AcDbArc
 50
18.13549625590597
 51
180.0
  0
LINE
  5
67B
330
63F
100
AcDbEntity
  8
1
  6
Continuous
 62
    15
100
AcDbLine
 10
17.41022635026104
 20
9.299999186212148
 30
0.0
 11
17.41022635026104
 21
7.999999186212136
 31
0.0
  0
LINE
  5
67C
330
63F
100
AcDbEntity
  8
1
  6
Continuous
 62
    15
100
AcDbLine
 10
17.41022635026104
 20
7.999999186212136
 30
0.0
 11
15.91022635026104
 21
7.999999186212136
 31
0.0
  0
LINE
  5
67D
330
63F
100
AcDbEntity
  8
1
  6
Continuous
 62
    15
100
AcDbLine
 10
15.91022635026104
 20
7.999999186212136
 30
0.0
 11
15.91022635026104
 21
13.99999918621214
 31
0.0
  0
LINE
  5
67E
330
63F
100
AcDbEntity
  8
1
  6
Continuous
 62
    15
100
AcDbLine
 10
15.91022635026104
 20
13.99999918621214
 30
0.0
 11
17.41022635026104
 21
13.99999918621214
 31
0.0
  0
LINE
  5
67F
330
63F
100
AcDbEntity
  8
1
  6
Continuous
 62
    15
100
AcDbLine
 10
17.41022635026104
 20
13.99999918621214
 30
0.0
 11
17.41022635026104
 21
12.69999918621212
 31
0.0
  0
ARC
  5
680
330
63F
100
AcDbEntity
  8
1
  6
Continuous
 62
    15
100
AcDbCircle
 10
17.61022635026103
 20
12.69999918621212
 30
0.0
 40
0.2
100
AcDbArc
 50
180.0
 51
341.0753555839485
  0
LINE
  5
681
330
63F
100
AcDbEntity
  8
1
  6
Continuous
 62
    15
100
AcDbLine
 10
17.79941553945022
 20
12.63513432134727
 30
0.0
 11
18.41022635026104
 21
14.41666585287879
 31
0.0
  0
ARC
  5
682
330
63F
100
AcDbEntity
  8
1
  6
Continuous
 62
    15
100
AcDbCircle
 10
17.91022635026104
 20
14.49999918621214
 30
0.0
 40
0.5
100
AcDbArc
 50
0.0
 51
90.0
  0
ARC
  5
683
330
63F
100
AcDbEntity
  8
1
  6
Continuous
 62
    15
100
AcDbCircle
 10
17.91022635026104
 20
14.49999918621214
 30
0.0
 40
0.5
100
AcDbArc
 50
341.0753555839473
 51
0.0
  0
ARC
  5
684
330
63F
100
AcDbEntity
  8
1
  6
Continuous
 62
    15
100
AcDbCircle
 10
17.91022635026104
 20
14.49999918621214
 30
0.0
 40
0.5
100
AcDbArc
 50
0.0
 51
90.0
  0
LINE
  5
685
330
63F
100
AcDbEntity
  8
1
  6
Continuous
 62
    15
100
AcDbLine
 10
17.91022635026104
 20
14.99999918621214
 30
0.0
 11
15.41022635026104
 21
14.99999918621214
 31
0.0
  0
LINE
  5
686
330
63F
100
AcDbEntity
  8
1
  6
Continuous
 62
    15
100
AcDbLine
 10
13.91022635026104
 20
13.49999918621214
 30
0.0
 11
13.91022635026104
 21
13.35497782880881
 31
0.0
  0
ARC
  5
687
330
63F
100
AcDbEntity
  8
1
  6
Continuous
 62
    15
100
AcDbCircle
 10
15.41022635026104
 20
13.49999918621214
 30
0.0
 40
1.5
100
AcDbArc
 50
90.0
 51
180.0
  0
LINE
  5
688
330
63F
100
AcDbEntity
  8
1
  6
Continuous
 62
    15
100
AcDbLine
 10
17.81022635026104
 20
-0.0000008137878638
 30
0.0
 11
21.16022635026104
 21
-0.0000008137878638
 31
0.0
  0
LINE
  5
689
330
63F
100
AcDbEntity
  8
1
  6
Continuous
 62
    15
100
AcDbLine
 10
21.66022635026104
 20
-0.0000008137878638
 30
0.0
 11
22.16022635026104
 21
-0.0000008137878638
 31
0.0
  0
LINE
  5
68A
330
63F
100
AcDbEntity
  8
1
  6
Continuous
 62
    15
100
AcDbLine
 10
22.66022635026104
 20
-0.0000008137878638
 30
0.0
 11
23.16022635026104
 21
-0.0000008137878638
 31
0.0
  0
LINE
  5
68B
330
63F
100
AcDbEntity
  8
1
  6
Continuous
 62
    15
100
AcDbLine
 10
23.66022635026104
 20
-0.0000008137878638
 30
0.0
 11
24.16022635026104
 21
-0.0000008137878638
 31
0.0
  0
LINE
  5
68C
330
63F
100
AcDbEntity
  8
1
  6
Continuous
 62
    15
100
AcDbLine
 10
24.66022635026104
 20
-0.0000008137878638
 30
0.0
 11
25.31022635026104
 21
-0.0000008137878638
 31
0.0
  0
ARC
  5
68D
330
63F
100
AcDbEntity
  8
1
  6
Continuous
 62
    15
100
AcDbCircle
 10
24.41022635026104
 20
-0.0000008137878638
 30
0.0
 40
0.25
100
AcDbArc
 50
0.0
 51
180.0
  0
ARC
  5
68E
330
63F
100
AcDbEntity
  8
1
  6
Continuous
 62
    15
100
AcDbCircle
 10
23.41022635026104
 20
-0.0000008137878638
 30
0.0
 40
0.25
100
AcDbArc
 50
0.0
 51
180.0
  0
ARC
  5
68F
330
63F
100
AcDbEntity
  8
1
  6
Continuous
 62
    15
100
AcDbCircle
 10
22.41022635026104
 20
-0.0000008137878638
 30
0.0
 40
0.25
100
AcDbArc
 50
0.0
 51
180.0
  0
ARC
  5
690
330
63F
100
AcDbEntity
  8
1
  6
Continuous
 62
    15
100
AcDbCircle
 10
21.41022635026104
 20
-0.0000008137878638
 30
0.0
 40
0.25
100
AcDbArc
 50
0.0
 51
180.0
  0
ARC
  5
691
330
63F
100
AcDbEntity
  8
1
  6
Continuous
 62
    15
100
AcDbCircle
 10
54.32045331280563
 20
3.697069687851979
 30
0.0
 40
2.5
100
AcDbArc
 50
54.5799295400786
 51
93.6702573747949
  0
ARC
  5
692
330
63F
100
AcDbEntity
  8
1
  6
Continuous
 62
    15
100
AcDbCircle
 10
54.32045331280563
 20
3.697069687851979
 30
0.0
 40
2.5
100
AcDbArc
 50
93.6702573747949
 51
109.2360336359783
  0
ARC
  5
693
330
63F
100
AcDbEntity
  8
1
  6
Continuous
 62
    15
100
AcDbCircle
 10
54.32045331280563
 20
3.697069687851979
 30
0.0
 40
1.25
100
AcDbArc
 50
289.9999999999999
 51
109.236033635978
  0
ARC
  5
694
330
63F
100
AcDbEntity
  8
1
  6
Continuous
 62
    15
100
AcDbCircle
 10
51.03152914005495
 20
2.499999186212136
 30
0.0
 40
1.25
100
AcDbArc
 50
109.9999999999994
 51
290.0000000000007
  0
LINE
  5
695
330
63F
100
AcDbEntity
  8
1
  6
Continuous
 62
    15
100
AcDbLine
 10
51.45905431921205
 20
1.325383410229762
 30
0.0
 11
52.71348428858929
 21
1.781958580054535
 31
0.0
  0
ARC
  5
696
330
63F
100
AcDbEntity
  8
1
  6
Continuous
 62
    15
100
AcDbCircle
 10
50.3668060616906
 20
4.253215724204466
 30
0.0
 40
0.625
100
AcDbArc
 50
290.7639663640226
 51
110.7639663640213
  0
ARC
  5
697
330
63F
100
AcDbEntity
  8
1
  6
Continuous
 62
    15
100
AcDbCircle
 10
53.70271486548058
 20
5.467387233010584
 30
0.0
 40
0.625
100
AcDbArc
 50
109.2360336359775
 51
289.2360336359785
  0
LINE
  5
698
330
63F
100
AcDbEntity
  8
1
  6
Continuous
 62
    15
100
AcDbLine
 10
54.74797849196273
 20
2.522453911869604
 30
0.0
 11
52.71348428858929
 21
1.781958580054535
 31
0.0
  0
ARC
  5
699
330
63F
100
AcDbEntity
  8
1
  6
Continuous
 62
    15
100
AcDbCircle
 10
51.03152914005495
 20
2.499999186212136
 30
0.0
 40
2.5
100
AcDbArc
 50
110.0
 51
155.8061175462502
  0
ARC
  5
69A
330
63F
100
AcDbEntity
  8
1
  6
Continuous
 62
    15
100
AcDbCircle
 10
48.29503750306036
 20
3.729476115909733
 30
0.0
 40
0.5
100
AcDbArc
 50
273.3715373382716
 51
335.8061175462503
  0
ARC
  5
69B
330
63F
100
AcDbEntity
  8
1
  6
Continuous
 62
    15
100
AcDbCircle
 10
54.32045331280563
 20
3.697069687851979
 30
0.0
 40
2.5
100
AcDbArc
 50
54.5799295400786
 51
93.6702573747949
  0
ARC
  5
69C
330
63F
100
AcDbEntity
  8
1
  6
Continuous
 62
    15
100
AcDbCircle
 10
54.32045331280563
 20
3.697069687851979
 30
0.0
 40
2.5
100
AcDbArc
 50
93.6702573747949
 51
109.2360336359783
  0
ARC
  5
69D
330
63F
100
AcDbEntity
  8
1
  6
Continuous
 62
    15
100
AcDbCircle
 10
54.32045331280563
 20
3.697069687851979
 30
0.0
 40
1.25
100
AcDbArc
 50
289.9999999999999
 51
109.236033635978
  0
ARC
  5
69E
330
63F
100
AcDbEntity
  8
1
  6
Continuous
 62
    15
100
AcDbCircle
 10
53.70271486548058
 20
5.467387233010584
 30
0.0
 40
0.625
100
AcDbArc
 50
109.2360336359775
 51
289.2360336359785
  0
LINE
  5
69F
330
63F
100
AcDbEntity
  8
1
  6
Continuous
 62
    15
100
AcDbLine
 10
54.74797849196273
 20
2.522453911869604
 30
0.0
 11
52.71348428858929
 21
1.781958580054535
 31
0.0
  0
ARC
  5
6A0
330
63F
100
AcDbEntity
  8
1
  6
Continuous
 62
    15
100
AcDbCircle
 10
12.91022635026104
 20
9.181869511288582
 30
0.0
 40
1.0
100
AcDbArc
 50
0.0
 51
107.1859379357978
  0
ARC
  5
6A1
330
63F
100
AcDbEntity
  8
1
  6
Continuous
 62
    15
100
AcDbCircle
 10
13.41022635026104
 20
13.35497782880881
 30
0.0
 40
0.5
100
AcDbArc
 50
283.5307464986788
 51
0.0
  0
LINE
  5
6A2
330
63F
100
AcDbEntity
  8
1
  6
Continuous
 62
    15
100
AcDbLine
 10
66.41022635026104
 20
6.59438720228313
 30
0.0
 11
66.41022635026104
 21
0.4999991862121362
 31
0.0
  0
LINE
  5
6A3
330
63F
100
AcDbEntity
  8
1
  6
Continuous
 62
    15
100
AcDbLine
 10
65.91022635026104
 20
-0.0000008137878638
 30
0.0
 11
65.66022635026104
 21
-0.0000008137878638
 31
0.0
  0
LINE
  5
6A4
330
63F
100
AcDbEntity
  8
1
  6
Continuous
 62
    15
100
AcDbLine
 10
65.16022635026104
 20
1.719387192969904
 30
0.0
 11
65.16022635026104
 21
4.219387192969904
 31
0.0
  0
LINE
  5
6A5
330
63F
100
AcDbEntity
  8
1
  6
Continuous
 62
    15
100
AcDbLine
 10
64.66022635026104
 20
4.719387192969904
 30
0.0
 11
62.08443102722521
 21
4.719387192969904
 31
0.0
  0
ARC
  5
6A6
330
63F
100
AcDbEntity
  8
1
  6
Continuous
 62
    15
100
AcDbCircle
 10
64.66022635026104
 20
4.219387192969904
 30
0.0
 40
0.5
100
AcDbArc
 50
0.0
 51
90.0
  0
ARC
  5
6A7
330
63F
100
AcDbEntity
  8
1
  6
Continuous
 62
    15
100
AcDbCircle
 10
65.91022635026104
 20
0.4999991862121362
 30
0.0
 40
0.5
100
AcDbArc
 50
270.0
 51
0.0
  0
ARC
  5
6A8
330
63F
100
AcDbEntity
  8
1
  6
Continuous
 62
    15
100
AcDbCircle
 10
65.66022635026104
 20
0.4999991862121362
 30
0.0
 40
0.5
100
AcDbArc
 50
214.1404868935876
 51
270.0
  0
ARC
  5
6A9
330
63F
100
AcDbEntity
  8
1
  6
Continuous
 62
    15
100
AcDbCircle
 10
62.08443102722521
 20
4.219387192969904
 30
0.0
 40
0.5
100
AcDbArc
 50
90.0
 51
193.9748917934724
  0
ARC
  5
6AA
330
63F
100
AcDbEntity
  8
1
  6
Continuous
 62
    15
100
AcDbCircle
 10
55.82178147272533
 20
1.050975132500668
 30
0.0
 40
0.5
100
AcDbArc
 50
36.74850782711038
 51
110.0000000000001
  0
ARC
  5
6AB
330
63F
100
AcDbEntity
  8
1
  6
Continuous
 62
    15
100
AcDbCircle
 10
57.411013883418
 20
6.34438720600842
 30
0.0
 40
0.5
100
AcDbArc
 50
90.0
 51
180.0
  0
LINE
  5
6AC
330
63F
100
AcDbEntity
  8
1
  6
Continuous
 62
    15
100
AcDbLine
 10
15.41022635026104
 20
5.499999186212136
 30
0.0
 11
15.91022635026104
 21
5.499999186212136
 31
0.0
  0
ARC
  5
6AD
330
63F
100
AcDbEntity
  8
1
  6
Continuous
 62
    15
100
AcDbCircle
 10
15.41022635026104
 20
6.999999186212136
 30
0.0
 40
1.5
100
AcDbArc
 50
180.0
 51
270.0
  0
LINE
  5
6AE
330
63F
100
AcDbEntity
  8
1
  6
Continuous
 62
    15
100
AcDbLine
 10
18.41022635026104
 20
7.449999186212139
 30
0.0
 11
18.42660410985086
 21
7.449999186212139
 31
0.0
  0
LINE
  5
6AF
330
63F
100
AcDbEntity
  8
1
  6
Continuous
 62
    15
100
AcDbLine
 10
23.10120935588613
 20
7.449999186212139
 30
0.0
 11
23.66022635026104
 21
7.449999186212139
 31
0.0
  0
ARC
  5
6B0
330
63F
100
AcDbEntity
  8
1
  6
Continuous
 62
    15
100
AcDbCircle
 10
26.36451279755512
 20
2.758375035272579
 30
0.0
 40
0.5
100
AcDbArc
 50
194.5899286808287
 51
271.9168813238778
  0
LINE
  5
6B1
330
63F
100
AcDbEntity
  8
1
  6
Continuous
 62
    15
100
AcDbLine
 10
64.66022635026104
 20
1.219387192969904
 30
0.0
 11
64.16022635026104
 21
1.219387192969904
 31
0.0
  0
ARC
  5
6B2
330
63F
100
AcDbEntity
  8
1
  6
Continuous
 62
    15
100
AcDbCircle
 10
64.16022635026104
 20
0.7193871929699043
 30
0.0
 40
0.5
100
AcDbArc
 50
90.0
 51
270.0
  0
LINE
  5
6B3
330
63F
100
AcDbEntity
  8
1
  6
Continuous
 62
    15
100
AcDbLine
 10
64.16022635026104
 20
0.2193871929699043
 30
0.0
 11
65.24639436835457
 21
0.2193871929699043
 31
0.0
  0
ARC
  5
6B4
330
63F
100
AcDbEntity
  8
1
  6
Continuous
 62
    15
100
AcDbCircle
 10
64.66022635026104
 20
1.719387192969904
 30
0.0
 40
0.5
100
AcDbArc
 50
270.0
 51
0.0
  0
ENDBLK
  5
641
330
63F
100
AcDbEntity
  8
0
100
AcDbBlockEnd
  0
BLOCK
  5
6B6
330
6B5
100
AcDbEntity
  8
0
100
AcDbBlockBegin
  2
GEN_BLOCK00016
 70
     0
 71
     0
 10
0.0
 20
0.0
 30
0.0
  3
GEN_BLOCK00016
  1

  0
LINE
  5
6B9
330
6B5
100
AcDbEntity
  8
1
  6
Continuous
 62
    15
100
AcDbLine
 10
2.442864634114919
 20
5.978810569733326
 30
0.0
 11
3.478736086114658
 21
5.927710717832227
 31
0.0
  0
LINE
  5
6BA
330
6B5
100
AcDbEntity
  8
1
  6
Continuous
 62
    15
100
AcDbLine
 10
3.97812882452682
 20
5.903075523065468
 30
0.0
 11
8.478736086114658
 21
5.681059206187356
 31
0.0
  0
LINE
  5
6BB
330
6B5
100
AcDbEntity
  8
1
  6
Continuous
 62
    15
100
AcDbLine
 10
8.97812882452682
 20
5.656424011420597
 30
0.0
 11
13.49534929787228
 21
5.433588159783824
 31
0.0
  0
LINE
  5
6BC
330
6B5
100
AcDbEntity
  8
1
  6
Continuous
 62
    15
100
AcDbLine
 10
13.99474203628445
 20
5.40895296501705
 30
0.0
 11
18.47873608611465
 21
5.187756182897601
 31
0.0
  0
LINE
  5
6BD
330
6B5
100
AcDbEntity
  8
1
  6
Continuous
 62
    15
100
AcDbLine
 10
18.97812882452682
 20
5.163120988130842
 30
0.0
 11
23.47873608611465
 21
4.941104671252731
 31
0.0
  0
LINE
  5
6BE
330
6B5
100
AcDbEntity
  8
1
  6
Continuous
 62
    15
100
AcDbLine
 10
23.97812882452682
 20
4.916469476485972
 30
0.0
 11
25.0472267000418
 21
4.863730555067548
 31
0.0
  0
ARC
  5
6BF
330
6B5
100
AcDbEntity
  8
1
  6
Continuous
 62
    15
100
AcDbCircle
 10
23.72843245532074
 20
4.928787073869358
 30
0.0
 40
0.25
100
AcDbArc
 50
0.0
 51
177.1758712088741
  0
ARC
  5
6C0
330
6B5
100
AcDbEntity
  8
1
  6
Continuous
 62
    15
100
AcDbCircle
 10
23.72843245532074
 20
4.928787073869358
 30
0.0
 40
0.25
100
AcDbArc
 50
357.175871208874
 51
0.0
  0
ARC
  5
6C1
330
6B5
100
AcDbEntity
  8
1
  6
Continuous
 62
    15
100
AcDbCircle
 10
18.72843245532074
 20
5.175438585514229
 30
0.0
 40
0.25
100
AcDbArc
 50
0.0
 51
177.1758712088742
  0
ARC
  5
6C2
330
6B5
100
AcDbEntity
  8
1
  6
Continuous
 62
    15
100
AcDbCircle
 10
18.72843245532074
 20
5.175438585514229
 30
0.0
 40
0.25
100
AcDbArc
 50
357.175871208874
 51
0.0
  0
ARC
  5
6C3
330
6B5
100
AcDbEntity
  8
1
  6
Continuous
 62
    15
100
AcDbCircle
 10
13.74504566707837
 20
5.421270562400451
 30
0.0
 40
0.25
100
AcDbArc
 50
0.0
 51
177.1758712088743
  0
ARC
  5
6C4
330
6B5
100
AcDbEntity
  8
1
  6
Continuous
 62
    15
100
AcDbCircle
 10
13.74504566707837
 20
5.421270562400451
 30
0.0
 40
0.25
100
AcDbArc
 50
357.1758712088738
 51
0.0
  0
ARC
  5
6C5
330
6B5
100
AcDbEntity
  8
1
  6
Continuous
 62
    15
100
AcDbCircle
 10
8.728432455320743
 20
5.66874160880397
 30
0.0
 40
0.25
100
AcDbArc
 50
357.1758712088738
 51
0.0
  0
ARC
  5
6C6
330
6B5
100
AcDbEntity
  8
1
  6
Continuous
 62
    15
100
AcDbCircle
 10
3.728432455320743
 20
5.91539312044884
 30
0.0
 40
0.25
100
AcDbArc
 50
0.0
 51
177.1758712088741
  0
ARC
  5
6C7
330
6B5
100
AcDbEntity
  8
1
  6
Continuous
 62
    15
100
AcDbCircle
 10
3.728432455320743
 20
5.91539312044884
 30
0.0
 40
0.25
100
AcDbArc
 50
357.175871208874
 51
0.0
  0
LINE
  5
6C8
330
6B5
100
AcDbEntity
  8
1
  6
Continuous
 62
    15
100
AcDbLine
 10
8.478736086114658
 20
5.681059206187356
 30
0.0
 11
8.740750052704122
 21
5.419045239597892
 31
0.0
  0
LINE
  5
6C9
330
6B5
100
AcDbEntity
  8
1
  6
Continuous
 62
    15
100
AcDbLine
 10
8.740750052704122
 20
5.419045239597892
 30
0.0
 11
8.978432455320743
 21
5.66874160880397
 31
0.0
  0
LINE
  5
6CA
330
6B5
100
AcDbEntity
  8
1
  6
Continuous
 62
    15
100
AcDbLine
 10
0.6015059977961528
 20
3.045951816971666
 30
0.0
 11
2.015110208843893
 21
3.045951816971666
 31
0.0
  0
LINE
  5
6CB
330
6B5
100
AcDbEntity
  8
1
  6
Continuous
 62
    15
100
AcDbLine
 10
0.6484916095988211
 20
4.295068445747205
 30
0.0
 11
1.591370327383771
 21
4.295068445747205
 31
0.0
  0
ARC
  5
6CC
330
6B5
100
AcDbEntity
  8
1
  6
Continuous
 62
    15
100
AcDbCircle
 10
24.11094394010119
 20
4.898948898401287
 30
0.0
 40
0.25
100
AcDbArc
 50
357.8458307244773
 51
0.0
  0
ARC
  5
6CD
330
6B5
100
AcDbEntity
  8
1
  6
Continuous
 62
    15
100
AcDbCircle
 10
18.11094394010119
 20
5.124639329800317
 30
0.0
 40
0.25
100
AcDbArc
 50
357.845830724474
 51
0.0
  0
ARC
  5
6CE
330
6B5
100
AcDbEntity
  8
1
  6
Continuous
 62
    15
100
AcDbCircle
 10
12.11094394010119
 20
5.350329761199333
 30
0.0
 40
0.25
100
AcDbArc
 50
357.845830724474
 51
0.0
  0
ARC
  5
6CF
330
6B5
100
AcDbEntity
  8
1
  6
Continuous
 62
    15
100
AcDbCircle
 10
13.15108229238587
 20
5.576020192598364
 30
0.0
 40
0.25
100
AcDbArc
 50
357.845830724474
 51
0.0
  0
ARC
  5
6D0
330
6B5
100
AcDbEntity
  8
1
  6
Continuous
 62
    15
100
AcDbCircle
 10
7.151082292385865
 20
5.80171062399738
 30
0.0
 40
0.25
100
AcDbArc
 50
357.845830724474
 51
0.0
  0
ARC
  5
6D1
330
6B5
100
AcDbEntity
  8
1
  6
Continuous
 62
    15
100
AcDbCircle
 10
25.02843245532074
 20
4.364083903557344
 30
0.0
 40
0.5
100
AcDbArc
 50
0.0
 51
87.84583072447506
  0
LINE
  5
6D2
330
6B5
100
AcDbEntity
  8
1
  6
Continuous
 62
    15
100
AcDbLine
 10
1.924070389393847
 20
5.479163918223122
 30
0.0
 11
1.924070389393847
 21
4.766248592557915
 31
0.0
  0
ARC
  5
6D3
330
6B5
100
AcDbEntity
  8
1
  6
Continuous
 62
    15
100
AcDbCircle
 10
0.624998803697494
 20
3.670510131359435
 30
0.0
 40
0.625
100
AcDbArc
 50
87.84583072447529
 51
267.8458307244746
  0
LINE
  5
6D4
330
6B5
100
AcDbEntity
  8
1
  6
Continuous
 62
    15
100
AcDbLine
 10
3.174070389393847
 20
4.506668025394603
 30
0.0
 11
3.174070389393847
 21
4.700422216733202
 31
0.0
  0
LINE
  5
6D5
330
6B5
100
AcDbEntity
  8
1
  6
Continuous
 62
    15
100
AcDbLine
 10
7.518793048418559
 20
4.536995161529134
 30
0.0
 11
12.66987653710693
 21
4.343236785740061
 31
0.0
  0
LINE
  5
6D6
330
6B5
100
AcDbEntity
  8
1
  6
Continuous
 62
    15
100
AcDbLine
 10
14.91987653710694
 20
4.25860287396543
 30
0.0
 11
23.79722670004182
 21
3.659865399000608
 31
0.0
  0
ARC
  5
6D7
330
6B5
100
AcDbEntity
  8
1
  6
Continuous
 62
    15
100
AcDbCircle
 10
2.424070389393847
 20
5.479163918223122
 30
0.0
 40
0.5
100
AcDbArc
 50
87.8458307244752
 51
180.0
  0
ARC
  5
6D8
330
6B5
100
AcDbEntity
  8
1
  6
Continuous
 62
    15
100
AcDbCircle
 10
1.424070389393847
 20
4.766248592557915
 30
0.0
 40
0.5
100
AcDbArc
 50
289.5482084529796
 51
0.0
  0
ARC
  5
6D9
330
6B5
100
AcDbEntity
  8
1
  6
Continuous
 62
    15
100
AcDbCircle
 10
1.674070389393847
 20
4.506668025394603
 30
0.0
 40
1.5
100
AcDbArc
 50
283.1416864875707
 51
0.0
  0
LINE
  5
6DA
330
6B5
100
AcDbEntity
  8
1
  6
Continuous
 62
    15
100
AcDbLine
 10
24.27843245532074
 20
3.160218747490404
 30
0.0
 11
24.27843245532074
 21
1.905585567096892
 31
0.0
  0
LINE
  5
6DB
330
6B5
100
AcDbEntity
  8
1
  6
Continuous
 62
    15
100
AcDbLine
 10
23.94944252698357
 20
1.43573925670394
 30
0.0
 11
23.33557297897789
 21
1.212309013507422
 31
0.0
  0
ARC
  5
6DC
330
6B5
100
AcDbEntity
  8
1
  6
Continuous
 62
    15
100
AcDbCircle
 10
23.54933556855644
 20
0.6250011255162349
 30
0.0
 40
0.6250000000000004
100
AcDbArc
 50
110.0000000000002
 51
290.0000000000002
  0
LINE
  5
6DD
330
6B5
100
AcDbEntity
  8
1
  6
Continuous
 62
    15
100
AcDbLine
 10
23.76309815813499
 20
0.0376932375250476
 30
0.0
 11
25.19944252698357
 21
0.5604798339418124
 31
0.0
  0
LINE
  5
6DE
330
6B5
100
AcDbEntity
  8
1
  6
Continuous
 62
    15
100
AcDbLine
 10
25.52843245532074
 20
1.030326144334765
 30
0.0
 11
25.52843245532074
 21
4.364083903557344
 31
0.0
  0
ARC
  5
6DF
330
6B5
100
AcDbEntity
  8
1
  6
Continuous
 62
    15
100
AcDbCircle
 10
23.77843245532074
 20
3.160218747490404
 30
0.0
 40
0.5
100
AcDbArc
 50
0.0
 51
87.84583072447506
  0
ARC
  5
6E0
330
6B5
100
AcDbEntity
  8
1
  6
Continuous
 62
    15
100
AcDbCircle
 10
25.02843245532074
 20
1.030326144334765
 30
0.0
 40
0.5
100
AcDbArc
 50
290.0000000000002
 51
0.0
  0
ARC
  5
6E1
330
6B5
100
AcDbEntity
  8
1
  6
Continuous
 62
    15
100
AcDbCircle
 10
23.77843245532074
 20
1.905585567096892
 30
0.0
 40
0.5
100
AcDbArc
 50
290.0000000000002
 51
0.0
  0
LINE
  5
6E2
330
6B5
100
AcDbEntity
  8
1
  6
Continuous
 62
    15
100
AcDbLine
 10
3.174070389393847
 20
4.506668025394603
 30
0.0
 11
3.174070389393847
 21
4.700422216733202
 31
0.0
  0
LINE
  5
6E3
330
6B5
100
AcDbEntity
  8
1
  6
Continuous
 62
    15
100
AcDbLine
 10
3.174070389393847
 20
4.700422216733202
 30
0.0
 11
5.41987653710693
 21
4.615946057013886
 31
0.0
  0
LINE
  5
6E4
330
6B5
100
AcDbEntity
  8
1
  6
Continuous
 62
    15
100
AcDbLine
 10
5.901082292385865
 20
4.116299405503682
 30
0.0
 11
5.901082292385865
 21
1.725451653476298
 31
0.0
  0
ARC
  5
6E5
330
6B5
100
AcDbEntity
  8
1
  6
Continuous
 62
    15
100
AcDbCircle
 10
6.526082292385865
 20
1.725451653476298
 30
0.0
 40
0.625
100
AcDbArc
 50
180.0
 51
0.0
  0
LINE
  5
6E6
330
6B5
100
AcDbEntity
  8
1
  6
Continuous
 62
    15
100
AcDbLine
 10
7.151082292385865
 20
1.725451653476298
 30
0.0
 11
7.151082292385865
 21
4.031665493729037
 31
0.0
  0
LINE
  5
6E7
330
6B5
100
AcDbEntity
  8
1
  6
Continuous
 62
    15
100
AcDbLine
 10
13.15108229238587
 20
3.843590134229856
 30
0.0
 11
13.15108229238587
 21
1.968097397004414
 31
0.0
  0
ARC
  5
6E8
330
6B5
100
AcDbEntity
  8
1
  6
Continuous
 62
    15
100
AcDbCircle
 10
13.77608229238587
 20
1.968097397004414
 30
0.0
 40
0.6249999999999964
100
AcDbArc
 50
180.0
 51
0.0
  0
LINE
  5
6E9
330
6B5
100
AcDbEntity
  8
1
  6
Continuous
 62
    15
100
AcDbLine
 10
14.40108229238587
 20
1.968097397004414
 30
0.0
 11
14.40108229238587
 21
3.758956222455225
 31
0.0
  0
ARC
  5
6EA
330
6B5
100
AcDbEntity
  8
1
  6
Continuous
 62
    15
100
AcDbCircle
 10
5.401082292385865
 20
4.116299405503682
 30
0.0
 40
0.5
100
AcDbArc
 50
0.0
 51
87.84583072447519
  0
ARC
  5
6EB
330
6B5
100
AcDbEntity
  8
1
  6
Continuous
 62
    15
100
AcDbCircle
 10
7.651082292385865
 20
4.031665493729037
 30
0.0
 40
0.5
100
AcDbArc
 50
87.84583072447519
 51
180.0
  0
ARC
  5
6EC
330
6B5
100
AcDbEntity
  8
1
  6
Continuous
 62
    15
100
AcDbCircle
 10
12.65108229238587
 20
3.843590134229856
 30
0.0
 40
0.5
100
AcDbArc
 50
0.0
 51
87.84583072447519
  0
ARC
  5
6ED
330
6B5
100
AcDbEntity
  8
1
  6
Continuous
 62
    15
100
AcDbCircle
 10
14.90108229238587
 20
3.758956222455225
 30
0.0
 40
0.5
100
AcDbArc
 50
87.84583072447498
 51
180.0
  0
ENDBLK
  5
6B7
330
6B5
100
AcDbEntity
  8
0
100
AcDbBlockEnd
  0
ENDSEC
  0
SECTION
  2
ENTITIES
  0
INSERT
  5
48
330
1F
100
AcDbEntity
  8
0
100
AcDbBlockReference
  2
GEN_BLOCK
 10
-96.5875473022461
 20
-133.7571105957031
 30
0.0
  0
INSERT
  5
234
330
1F
100
AcDbEntity
  8
0
100
AcDbBlockReference
  2
PROTO
 10
-97.70114135742188
 20
-131.8897857666016
 30
0.0
  0
INSERT
  5
24C
330
1F
100
AcDbEntity
  8
0
100
AcDbBlockReference
  2
GEN_BLOCK00000
 10
-98.93606567382812
 20
-133.7571105957031
 30
0.0
  0
INSERT
  5
25C
330
1F
100
AcDbEntity
  8
1
100
AcDbBlockReference
  2
GEN_BLOCK00001
 10
-6.587000370025635
 20
31.27243804931641
 30
0.0
  0
INSERT
  5
261
330
1F
100
AcDbEntity
  8
1
100
AcDbBlockReference
  2
GEN_BLOCK00002
 10
-10.12842845916748
 20
26.27243804931641
 30
0.0
  0
INSERT
  5
2D0
330
1F
100
AcDbEntity
  8
1
100
AcDbBlockReference
  2
GEN_BLOCK00003
 10
-31.09329032897949
 20
100.1811218261719
 30
0.0
  0
INSERT
  5
2D5
330
1F
100
AcDbEntity
  8
1
100
AcDbBlockReference
  2
GEN_BLOCK00004
 10
-47.45107269287109
 20
-76.76710510253906
 30
0.0
  0
INSERT
  5
344
330
1F
100
AcDbEntity
  8
0
100
AcDbBlockReference
  2
GEN_BLOCK00005
 10
22.69986534118652
 20
20.82114410400391
 30
0.0
  0
INSERT
  5
36F
330
1F
100
AcDbEntity
  8
1
100
AcDbBlockReference
  2
GEN_BLOCK00006
 10
-2.051173686981201
 20
33.92572021484375
 30
0.0
  0
INSERT
  5
380
330
1F
100
AcDbEntity
  8
GEN_LAYER
100
AcDbBlockReference
  2
GEN_BLOCK00007
 10
-65.94493865966797
 20
-84.75074005126953
 30
0.0
  0
INSERT
  5
386
330
1F
100
AcDbEntity
  8
1
100
AcDbBlockReference
  2
GEN_BLOCK00008
 10
-39.501953125
 20
-70.43294525146484
 30
0.0
  0
INSERT
  5
396
330
1F
100
AcDbEntity
  8
1
100
AcDbBlockReference
  2
GEN_BLOCK00009
 10
-28.5069408416748
 20
18.25294876098633
 30
0.0
  0
INSERT
  5
3A3
330
1F
100
AcDbEntity
  8
1
100
AcDbBlockReference
  2
GEN_BLOCK00010
 10
-65.94493865966797
 20
-132.5442504882812
 30
0.0
  0
INSERT
  5
3BC
330
1F
100
AcDbEntity
  8
FIXING
100
AcDbBlockReference
  2
8569S
 10
-28.09395217895508
 20
-106.0057754516602
 30
0.0
  0
INSERT
  5
50A
330
1F
100
AcDbEntity
  8
FIXING
100
AcDbBlockReference
  2
8569S00011
 10
8.391860961914062
 20
6.566125869750977
 30
0.0
  0
INSERT
  5
5A6
330
1F
100
AcDbEntity
  8
1
100
AcDbBlockReference
  2
GEN_BLOCK00012
 10
-49.34315490722656
 20
-102.3912048339844
 30
0.0
  0
INSERT
  5
5BF
330
1F
100
AcDbEntity
  8
GEN_LAYER
100
AcDbBlockReference
  2
GEN_BLOCK00013
 10
-24.76140022277832
 20
-0.2754181325435638
 30
0.0
  0
INSERT
  5
5CC
330
1F
100
AcDbEntity
  8
1
100
AcDbBlockReference
  2
GEN_BLOCK00014
 10
-24.46140098571777
 20
19.25294876098633
 30
0.0
  0
INSERT
  5
642
330
1F
100
AcDbEntity
  8
1
100
AcDbBlockReference
  2
GEN_BLOCK00015
 10
-61.8336296081543
 20
-83.75074005126953
 30
0.0
  0
INSERT
  5
6B8
330
1F
100
AcDbEntity
  8
1
100
AcDbBlockReference
  2
GEN_BLOCK00016
 10
-34.62346649169922
 20
-81.9662094116211
 30
0.0
  0
ENDSEC
  0
SECTION
  2
OBJECTS
  0
DICTIONARY
  5
C
330
0
100
AcDbDictionary
281
     1
  3
ACAD_GROUP
350
D
  3
ACAD_LAYOUT
350
1A
  3
ACAD_MLINESTYLE
350
17
  3
ACAD_PLOTSETTINGS
350
19
  3
ACAD_PLOTSTYLENAME
350
E
  3
ACAD_TABLESTYLE
350
6EE
  3
ACAD_VISUALSTYLE
350
2A
  0
DICTIONARY
  5
D
102
{ACAD_REACTORS
330
C
102
}
330
C
100
AcDbDictionary
281
     1
  0
DICTIONARY
  5
1A
102
{ACAD_REACTORS
330
C
102
}
330
C
100
AcDbDictionary
281
     1
  3
Layout1
350
1E
  3
Layout2
350
26
  3
Model
350
22
  0
DICTIONARY
  5
17
102
{ACAD_REACTORS
330
C
102
}
330
C
100
AcDbDictionary
281
     1
  3
Standard
350
18
  0
DICTIONARY
  5
19
102
{ACAD_REACTORS
330
C
102
}
330
C
100
AcDbDictionary
281
     1
  0
ACDBDICTIONARYWDFLT
  5
E
102
{ACAD_REACTORS
330
C
102
}
330
C
100
AcDbDictionary
281
     1
  3
Normal
350
F
100
AcDbDictionaryWithDefault
340
F
  0
DICTIONARY
  5
6EE
102
{ACAD_REACTORS
330
C
102
}
330
C
100
AcDbDictionary
281
     1
  0
DICTIONARY
  5
2A
102
{ACAD_REACTORS
330
C
102
}
330
C
100
AcDbDictionary
281
     1
  3
2dWireframe
350
2F
  3
3D Hidden
350
31
  3
3dWireframe
350
30
  3
Basic
350
32
  3
Brighten
350
36
  3
ColorChange
350
3A
  3
Conceptual
350
34
  3
Dim
350
35
  3
Facepattern
350
39
  3
Flat
350
2B
  3
FlatWithEdges
350
2C
  3
Gouraud
350
2D
  3
GouraudWithEdges
350
2E
  3
Linepattern
350
38
  3
Realistic
350
33
  3
Thicken
350
37
  0
LAYOUT
  5
1E
102
{ACAD_REACTORS
330
1A
102
}
330
1A
100
AcDbPlotSettings
  1

  2
none_device
  4

  6

 40
0.0
 41
0.0
 42
0.0
 43
0.0
 44
0.0
 45
0.0
 46
0.0
 47
0.0
 48
0.0
 49
0.0
140
0.0
141
0.0
142
1.0
143
1.0
 70
   688
 72
     0
 73
     0
 74
     5
  7

 75
    16
 76
     0
 77
     2
 78
   300
147
1.0
148
0.0
149
0.0
100
AcDbLayout
  1
Layout1
 70
     1
 71
     1
 10
0.0
 20
0.0
 11
420.0
 21
297.0
 12
0.0
 22
0.0
 32
0.0
 14
1.000000000000000E+20
 24
1.000000000000000E+20
 34
1.000000000000000E+20
 15
-1.000000000000000E+20
 25
-1.000000000000000E+20
 35
-1.000000000000000E+20
146
0.0
 13
0.0
 23
0.0
 33
0.0
 16
1.0
 26
0.0
 36
0.0
 17
0.0
 27
1.0
 37
0.0
 76
     0
330
1B
  0
LAYOUT
  5
26
102
{ACAD_REACTORS
330
1A
102
}
330
1A
100
AcDbPlotSettings
  1

  2
none_device
  4

  6

 40
0.0
 41
0.0
 42
0.0
 43
0.0
 44
0.0
 45
0.0
 46
0.0
 47
0.0
 48
0.0
 49
0.0
140
0.0
141
0.0
142
1.0
143
1.0
 70
   688
 72
     0
 73
     0
 74
     5
  7

 75
    16
 76
     0
 77
     2
 78
   300
147
1.0
148
0.0
149
0.0
100
AcDbLayout
  1
Layout2
 70
     1
 71
     2
 10
0.0
 20
0.0
 11
0.0
 21
0.0
 12
0.0
 22
0.0
 32
0.0
 14
0.0
 24
0.0
 34
0.0
 15
0.0
 25
0.0
 35
0.0
146
0.0
 13
0.0
 23
0.0
 33
0.0
 16
1.0
 26
0.0
 36
0.0
 17
0.0
 27
1.0
 37
0.0
 76
     0
330
23
  0
LAYOUT
  5
22
102
{ACAD_REACTORS
330
1A
102
}
330
1A
100
AcDbPlotSettings
  1

  2
none_device
  4

  6

 40
0.0
 41
0.0
 42
0.0
 43
0.0
 44
0.0
 45
0.0
 46
0.0
 47
0.0
 48
0.0
 49
0.0
140
0.0
141
0.0
142
1.0
143
1.0
 70
  1712
 72
     0
 73
     0
 74
     0
  7

 75
     0
 76
     0
 77
     2
 78
   300
147
1.0
148
0.0
149
0.0
100
AcDbLayout
  1
Model
 70
     1
 71
     0
 10
0.0
 20
0.0
 11
420.0
 21
297.0
 12
0.0
 22
0.0
 32
0.0
 14
-98.93606297498508
 24
-133.7571033549152
 34
0.0
 15
100.0839462901311
 25
144.302347929844
 35
0.0
146
0.0
 13
0.0
 23
0.0
 33
0.0
 16
1.0
 26
0.0
 36
0.0
 17
0.0
 27
1.0
 37
0.0
 76
     0
330
1F
331
29
  0
MLINESTYLE
  5
18
102
{ACAD_REACTORS
330
17
102
}
330
17
100
AcDbMlineStyle
  2
Standard
 70
     0
  3

 62
   256
 51
90.0
 52
90.0
 71
     2
 49
0.5
 62
   256
  6
BYLAYER
 49
-0.5
 62
   256
  6
BYLAYER
  0
ACDBPLACEHOLDER
  5
F
102
{ACAD_REACTORS
330
E
102
}
330
E
  0
VISUALSTYLE
  5
2F
102
{ACAD_REACTORS
330
2A
102
}
330
2A
100
AcDbVisualStyle
  2
2dWireframe
 70
     4
 71
     0
 72
     2
 73
     0
 90
        0
 40
-0.6
 41
-30.0
 62
     5
 63
     7
421
 16777215
 74
     1
 91
        4
 64
     7
 65
   257
 75
     1
175
     1
 42
1.0
 92
        0
 66
   257
 43
1.0
 76
     1
 77
     6
 78
     2
 67
     7
 79
     5
170
     0
171
     0
290
     0
174
     0
 93
        1
 44
0.0
173
     0
291
     0
 45
0.0
  0
VISUALSTYLE
  5
31
102
{ACAD_REACTORS
330
2A
102
}
330
2A
100
AcDbVisualStyle
  2
3D Hidden
 70
     6
 71
     1
 72
     2
 73
     2
 90
        0
 40
-0.6
 41
-30.0
 62
     5
 63
     7
421
 16777215
 74
     2
 91
        2
 64
     7
 65
   257
 75
     2
175
     1
 42
40.0
 92
        0
 66
   257
 43
1.0
 76
     1
 77
     6
 78
     2
 67
     7
 79
     3
170
     0
171
     0
290
     0
174
     0
 93
        1
 44
0.0
173
     0
291
     0
 45
0.0
  0
VISUALSTYLE
  5
30
102
{ACAD_REACTORS
330
2A
102
}
330
2A
100
AcDbVisualStyle
  2
3dWireframe
 70
     5
 71
     0
 72
     2
 73
     0
 90
        0
 40
-0.6
 41
-30.0
 62
     5
 63
     7
421
 16777215
 74
     1
 91
        4
 64
     7
 65
   257
 75
     1
175
     1
 42
1.0
 92
        0
 66
   257
 43
1.0
 76
     1
 77
     6
 78
     2
 67
     7
 79
     5
170
     0
171
     0
290
     0
174
     0
 93
        1
 44
0.0
173
     0
291
     0
 45
0.0
  0
VISUALSTYLE
  5
32
102
{ACAD_REACTORS
330
2A
102
}
330
2A
100
AcDbVisualStyle
  2
Basic
 70
     7
 71
     1
 72
     0
 73
     1
 90
        0
 40
-0.6
 41
-30.0
 62
     5
 63
     7
421
 16777215
 74
     0
 91
        4
 64
     7
 65
   257
 75
     1
175
     1
 42
1.0
 92
        8
 66
     7
 43
1.0
 76
     1
 77
     6
 78
     2
 67
     7
 79
     5
170
     0
171
     0
290
     0
174
     0
 93
        1
 44
0.0
173
     0
291
     1
 45
0.0
  0
VISUALSTYLE
  5
36
102
{ACAD_REACTORS
330
2A
102
}
330
2A
100
AcDbVisualStyle
  2
Brighten
 70
    12
 71
     2
 72
     2
 73
     0
 90
        0
 40
-0.6
 41
-30.0
 62
     5
 63
     7
421
 16777215
 74
     1
 91
        4
 64
     7
 65
   257
 75
     1
175
     1
 42
1.0
 92
        8
 66
     7
 43
1.0
 76
     1
 77
     6
 78
     2
 67
     7
 79
     5
170
     0
171
     0
290
     0
174
     0
 93
        1
 44
50.0
173
     0
291
     1
 45
0.0
  0
VISUALSTYLE
  5
3A
102
{ACAD_REACTORS
330
2A
102
}
330
2A
100
AcDbVisualStyle
  2
ColorChange
 70
    16
 71
     2
 72
     2
 73
     3
 90
        0
 40
-0.6
 41
-30.0
 62
     5
 63
     8
421
  8421504
 74
     1
 91
        4
 64
     7
 65
   257
 75
     1
175
     1
 42
1.0
 92
        8
 66
     8
424
  8421504
 43
1.0
 76
     1
 77
     6
 78
     2
 67
     7
 79
     5
170
     0
171
     0
290
     0
174
     0
 93
        1
 44
0.0
173
     0
291
     1
 45
0.0
  0
VISUALSTYLE
  5
34
102
{ACAD_REACTORS
330
2A
102
}
330
2A
100
AcDbVisualStyle
  2
Conceptual
 70
     9
 71
     3
 72
     2
 73
     0
 90
        0
 40
-0.6
 41
-30.0
 62
     5
 63
     7
421
 16777215
 74
     2
 91
        2
 64
     7
 65
   257
 75
     1
175
     1
 42
40.0
 92
        8
 66
     7
 43
1.0
 76
     1
 77
     6
 78
     2
 67
     7
 79
     3
170
     0
171
     0
290
     0
174
     0
 93
        1
 44
0.0
173
     0
291
     0
 45
0.0
  0
VISUALSTYLE
  5
35
102
{ACAD_REACTORS
330
2A
102
}
330
2A
100
AcDbVisualStyle
  2
Dim
 70
    11
 71
     2
 72
     2
 73
     0
 90
        0
 40
-0.6
 41
-30.0
 62
     5
 63
     7
421
 16777215
 74
     1
 91
        4
 64
     7
 65
   257
 75
     1
175
     1
 42
1.0
 92
        8
 66
     7
 43
1.0
 76
     1
 77
     6
 78
     2
 67
     7
 79
     5
170
     0
171
     0
290
     0
174
     0
 93
        1
 44
-50.0
173
     0
291
     1
 45
0.0
  0
VISUALSTYLE
  5
39
102
{ACAD_REACTORS
330
2A
102
}
330
2A
100
AcDbVisualStyle
  2
Facepattern
 70
    15
 71
     2
 72
     2
 73
     0
 90
        0
 40
-0.6
 41
-30.0
 62
     5
 63
     7
421
 16777215
 74
     1
 91
        4
 64
     7
 65
   257
 75
     1
175
     1
 42
1.0
 92
        8
 66
     7
 43
1.0
 76
     1
 77
     6
 78
     2
 67
     7
 79
     5
170
     0
171
     0
290
     0
174
     0
 93
        1
 44
0.0
173
     0
291
     1
 45
0.0
  0
VISUALSTYLE
  5
2B
102
{ACAD_REACTORS
330
2A
102
}
330
2A
100
AcDbVisualStyle
  2
Flat
 70
     0
 71
     2
 72
     1
 73
     1
 90
        2
 40
-0.6
 41
30.0
 62
     5
 63
     7
421
 16777215
 74
     0
 91
        4
 64
     7
 65
   257
 75
     1
175
     1
 42
1.0
 92
        8
 66
     7
 43
1.0
 76
     1
 77
     6
 78
     2
 67
     7
 79
     5
170
     0
171
     0
290
     0
174
     0
 93
       13
 44
0.0
173
     0
291
     1
 45
0.0
  0
VISUALSTYLE
  5
2C
102
{ACAD_REACTORS
330
2A
102
}
330
2A
100
AcDbVisualStyle
  2
FlatWithEdges
 70
     1
 71
     2
 72
     1
 73
     1
 90
        2
 40
-0.6
 41
30.0
 62
     5
 63
     7
421
 16777215
 74
     1
 91
        4
 64
     7
 65
   257
 75
     1
175
     1
 42
1.0
 92
        0
 66
   257
 43
1.0
 76
     1
 77
     6
 78
     2
 67
     7
 79
     5
170
     0
171
     0
290
     0
174
     0
 93
       13
 44
0.0
173
     0
291
     1
 45
0.0
  0
VISUALSTYLE
  5
2D
102
{ACAD_REACTORS
330
2A
102
}
330
2A
100
AcDbVisualStyle
  2
Gouraud
 70
     2
 71
     2
 72
     2
 73
     1
 90
        2
 40
-0.6
 41
30.0
 62
     5
 63
     7
421
 16777215
 74
     0
 91
        4
 64
     7
 65
   257
 75
     1
175
     1
 42
1.0
 92
        0
 66
     7
 43
1.0
 76
     1
 77
     6
 78
     2
 67
     7
 79
     5
170
     0
171
     0
290
     0
174
     0
 93
       13
 44
0.0
173
     0
291
     1
 45
0.0
  0
VISUALSTYLE
  5
2E
102
{ACAD_REACTORS
330
2A
102
}
330
2A
100
AcDbVisualStyle
  2
GouraudWithEdges
 70
     3
 71
     2
 72
     2
 73
     1
 90
        2
 40
-0.6
 41
30.0
 62
     5
 63
     7
421
 16777215
 74
     1
 91
        4
 64
     7
 65
   257
 75
     1
175
     1
 42
1.0
 92
        0
 66
   257
 43
1.0
 76
     1
 77
     6
 78
     2
 67
     7
 79
     5
170
     0
171
     0
290
     0
174
     0
 93
       13
 44
0.0
173
     0
291
     1
 45
0.0
  0
VISUALSTYLE
  5
38
102
{ACAD_REACTORS
330
2A
102
}
330
2A
100
AcDbVisualStyle
  2
Linepattern
 70
    14
 71
     2
 72
     2
 73
     0
 90
        0
 40
-0.6
 41
-30.0
 62
     5
 63
     7
421
 16777215
 74
     1
 91
        4
 64
     7
 65
   257
 75
     7
175
     7
 42
1.0
 92
        8
 66
     7
 43
1.0
 76
     1
 77
     6
 78
     2
 67
     7
 79
     5
170
     0
171
     0
290
     0
174
     0
 93
        1
 44
0.0
173
     0
291
     1
 45
0.0
  0
VISUALSTYLE
  5
33
102
{ACAD_REACTORS
330
2A
102
}
330
2A
100
AcDbVisualStyle
  2
Realistic
 70
     8
 71
     2
 72
     2
 73
     0
 90
        0
 40
-0.6
 41
-30.0
 62
     5
 63
     7
421
 16777215
 74
     1
 91
        0
 64
     7
 65
   257
 75
     1
175
     1
 42
1.0
 92
        8
 66
     8
424
  7895160
 43
1.0
 76
     1
 77
     6
 78
     2
 67
     7
 79
     5
170
     0
171
     0
290
     0
174
     0
 93
       13
 44
0.0
173
     0
291
     0
 45
0.0
  0
VISUALSTYLE
  5
37
102
{ACAD_REACTORS
330
2A
102
}
330
2A
100
AcDbVisualStyle
  2
Thicken
 70
    13
 71
     2
 72
     2
 73
     0
 90
        0
 40
-0.6
 41
-30.0
 62
     5
 63
     7
421
 16777215
 74
     1
 91
        4
 64
     7
 65
   257
 75
     1
175
     1
 42
1.0
 92
       12
 66
     7
 43
1.0
 76
     1
 77
     6
 78
     2
 67
     7
 79
     5
170
     0
171
     0
290
     0
174
     0
 93
        1
 44
0.0
173
     0
291
     1
 45
0.0
  0
ENDSEC
  0
EOF
