  0
SECTION
  2
HEADER
  9
$ACADVER
  1
AC1018
  9
$ACADMAINTVER
 70
     0
  9
$DWGCODEPAGE
  3
ANSI_1252
  9
$INSBASE
 10
0.0
 20
0.0
 30
0.0
  9
$EXTMIN
 10
-98.93606297498508
 20
-133.7571033549152
 30
0.0
  9
$EXTMAX
 10
100.0839462901311
 20
144.302347929844
 30
0.0
  9
$LIMMIN
 10
0.0
 20
0.0
  9
$LIMMAX
 10
420.0
 20
297.0
  9
$ORTHOMODE
 70
     0
  9
$REGENMODE
 70
     1
  9
$FILLMODE
 70
     1
  9
$QTEXTMODE
 70
     0
  9
$MIRRTEXT
 70
     1
  9
$LTSCALE
 40
1.0
  9
$ATTMODE
 70
     1
  9
$TEXTSIZE
 40
1.0
  9
$TRACEWID
 40
1.0
  9
$TEXTSTYLE
  7
Standard
  9
$CLAYER
  8
0
  9
$CELTYPE
  6
ByLayer
  9
$CECOLOR
 62
   256
  9
$CELTSCALE
 40
1.0
  9
$DISPSILH
 70
     0
  9
$DIMSCALE
 40
1.0
  9
$DIMASZ
 40
2.5
  9
$DIMEXO
 40
0.625
  9
$DIMDLI
 40
3.75
  9
$DIMRND
 40
0.0
  9
$DIMDLE
 40
0.0
  9
$DIMEXE
 40
1.25
  9
$DIMTP
 40
0.0
  9
$DIMTM
 40
0.0
  9
$DIMTXT
 40
2.5
  9
$DIMCEN
 40
2.5
  9
$DIMTSZ
 40
0.0
  9
$DIMTOL
 70
     0
  9
$DIMLIM
 70
     0
  9
$DIMTIH
 70
     0
  9
$DIMTOH
 70
     0
  9
$DIMSE1
 70
     0
  9
$DIMSE2
 70
     0
  9
$DIMTAD
 70
     1
  9
$DIMZIN
 70
     8
  9
$DIMBLK
  1

  9
$DIMASO
 70
     1
  9
$DIMSHO
 70
     1
  9
$DIMPOST
  1

  9
$DIMAPOST
  1

  9
$DIMALT
 70
     0
  9
$DIMALTD
 70
     3
  9
$DIMALTF
 40
0.03937007874016
  9
$DIMLFAC
 40
1.0
  9
$DIMTOFL
 70
     1
  9
$DIMTVP
 40
0.0
  9
$DIMTIX
 70
     0
  9
$DIMSOXD
 70
     0
  9
$DIMSAH
 70
     0
  9
$DIMBLK1
  1

  9
$DIMBLK2
  1

  9
$DIMSTYLE
  2
ISO-25
  9
$DIMCLRD
 70
     0
  9
$DIMCLRE
 70
     0
  9
$DIMCLRT
 70
     0
  9
$DIMTFAC
 40
1.0
  9
$DIMGAP
 40
0.625
  9
$DIMJUST
 70
     0
  9
$DIMSD1
 70
     0
  9
$DIMSD2
 70
     0
  9
$DIMTOLJ
 70
     0
  9
$DIMTZIN
 70
     8
  9
$DIMALTZ
 70
     0
  9
$DIMALTTZ
 70
     0
  9
$DIMUPT
 70
     0
  9
$DIMDEC
 70
     2
  9
$DIMTDEC
 70
     2
  9
$DIMALTU
 70
     2
  9
$DIMALTTD
 70
     3
  9
$DIMTXSTY
  7
Standard
  9
$DIMAUNIT
 70
     0
  9
$DIMADEC
 70
     0
  9
$DIMALTRND
 40
0.0
  9
$DIMAZIN
 70
     0
  9
$DIMDSEP
 70
    44
  9
$DIMATFIT
 70
     3
  9
$DIMFRAC
 70
     0
  9
$DIMLDRBLK
  1

  9
$DIMLUNIT
 70
     2
  9
$DIMLWD
 70
    -2
  9
$DIMLWE
 70
    -2
  9
$DIMTMOVE
 70
     0
  9
$LUNITS
 70
     2
  9
$LUPREC
 70
     4
  9
$SKETCHINC
 40
1.0
  9
$FILLETRAD
 40
10.0
  9
$AUNITS
 70
     0
  9
$AUPREC
 70
     0
  9
$MENU
  1
.
  9
$ELEVATION
 40
0.0
  9
$PELEVATION
 40
0.0
  9
$THICKNESS
 40
0.0
  9
$LIMCHECK
 70
     0
  9
$CHAMFERA
 40
10.0
  9
$CHAMFERB
 40
10.0
  9
$CHAMFERC
 40
20.0
  9
$CHAMFERD
 40
0.0
  9
$SKPOLY
 70
     0
  9
$TDCREATE
 40
2456463.601217014
  9
$TDUCREATE
 40
2456463.559550347
  9
$TDUPDATE
 40
2456463.601217025
  9
$TDUUPDATE
 40
2456463.559550359
  9
$TDINDWG
 40
0.0000000116
  9
$TDUSRTIMER
 40
0.0000000116
  9
$USRTIMER
 70
     1
  9
$ANGBASE
 50
0.0
  9
$ANGDIR
 70
     0
  9
$PDMODE
 70
     0
  9
$PDSIZE
 40
0.0
  9
$PLINEWID
 40
0.0
  9
$SPLFRAME
 70
     0
  9
$SPLINETYPE
 70
     6
  9
$SPLINESEGS
 70
     8
  9
$HANDSEED
  5
520
  9
$SURFTAB1
 70
     6
  9
$SURFTAB2
 70
     6
  9
$SURFTYPE
 70
     6
  9
$SURFU
 70
     6
  9
$SURFV
 70
     6
  9
$UCSBASE
  2

  9
$UCSNAME
  2

  9
$UCSORG
 10
0.0
 20
0.0
 30
0.0
  9
$UCSXDIR
 10
1.0
 20
0.0
 30
0.0
  9
$UCSYDIR
 10
0.0
 20
1.0
 30
0.0
  9
$UCSORTHOREF
  2

  9
$UCSORTHOVIEW
 70
     0
  9
$UCSORGTOP
 10
0.0
 20
0.0
 30
0.0
  9
$UCSORGBOTTOM
 10
0.0
 20
0.0
 30
0.0
  9
$UCSORGLEFT
 10
0.0
 20
0.0
 30
0.0
  9
$UCSORGRIGHT
 10
0.0
 20
0.0
 30
0.0
  9
$UCSORGFRONT
 10
0.0
 20
0.0
 30
0.0
  9
$UCSORGBACK
 10
0.0
 20
0.0
 30
0.0
  9
$PUCSBASE
  2

  9
$PUCSNAME
  2

  9
$PUCSORG
 10
0.0
 20
0.0
 30
0.0
  9
$PUCSXDIR
 10
1.0
 20
0.0
 30
0.0
  9
$PUCSYDIR
 10
0.0
 20
1.0
 30
0.0
  9
$PUCSORTHOREF
  2

  9
$PUCSORTHOVIEW
 70
     0
  9
$PUCSORGTOP
 10
0.0
 20
0.0
 30
0.0
  9
$PUCSORGBOTTOM
 10
0.0
 20
0.0
 30
0.0
  9
$PUCSORGLEFT
 10
0.0
 20
0.0
 30
0.0
  9
$PUCSORGRIGHT
 10
0.0
 20
0.0
 30
0.0
  9
$PUCSORGFRONT
 10
0.0
 20
0.0
 30
0.0
  9
$PUCSORGBACK
 10
0.0
 20
0.0
 30
0.0
  9
$USERI1
 70
     0
  9
$USERI2
 70
     0
  9
$USERI3
 70
     0
  9
$USERI4
 70
     0
  9
$USERI5
 70
     0
  9
$USERR1
 40
0.0
  9
$USERR2
 40
0.0
  9
$USERR3
 40
0.0
  9
$USERR4
 40
0.0
  9
$USERR5
 40
0.0
  9
$WORLDVIEW
 70
     1
  9
$SHADEDGE
 70
     3
  9
$SHADEDIF
 70
    70
  9
$TILEMODE
 70
     1
  9
$MAXACTVP
 70
    64
  9
$PINSBASE
 10
0.0
 20
0.0
 30
0.0
  9
$PLIMCHECK
 70
     0
  9
$PEXTMIN
 10
1.000000000000000E+20
 20
1.000000000000000E+20
 30
1.000000000000000E+20
  9
$PEXTMAX
 10
-1.000000000000000E+20
 20
-1.000000000000000E+20
 30
-1.000000000000000E+20
  9
$PLIMMIN
 10
0.0
 20
0.0
  9
$PLIMMAX
 10
420.0
 20
297.0
  9
$UNITMODE
 70
     0
  9
$VISRETAIN
 70
     1
  9
$PLINEGEN
 70
     0
  9
$PSLTSCALE
 70
     1
  9
$TREEDEPTH
 70
  3020
  9
$CMLSTYLE
  2
Standard
  9
$CMLJUST
 70
     0
  9
$CMLSCALE
 40
20.0
  9
$PROXYGRAPHICS
 70
     1
  9
$MEASUREMENT
 70
     1
  9
$CELWEIGHT
370
    -1
  9
$ENDCAPS
280
     0
  9
$JOINSTYLE
280
     0
  9
$LWDISPLAY
290
     0
  9
$INSUNITS
 70
     4
  9
$HYPERLINKBASE
  1

  9
$STYLESHEET
  1

  9
$XEDIT
290
     1
  9
$CEPSNTYPE
380
     0
  9
$PSTYLEMODE
290
     1
  9
$FINGERPRINTGUID
  2
{FE4FC8D4-BEBC-430D-B690-836F9ED5A1AA}
  9
$VERSIONGUID
  2
{FAEB1C32-E019-11D5-929B-00C0DF256EC4}
  9
$EXTNAMES
290
     1
  9
$PSVPSCALE
 40
0.0
  9
$OLESTARTUP
290
     0
  9
$SORTENTS
280
   127
  9
$INDEXCTL
280
     0
  9
$HIDETEXT
280
     1
  9
$XCLIPFRAME
290
     0
  9
$HALOGAP
280
     0
  9
$OBSCOLOR
 70
   257
  9
$OBSLTYPE
280
     0
  9
$INTERSECTIONDISPLAY
280
     0
  9
$INTERSECTIONCOLOR
 70
   257
  9
$DIMASSOC
280
     2
  9
$PROJECTNAME
  1

  0
ENDSEC
  0
SECTION
  2
CLASSES
  0
CLASS
  1
ACDBDICTIONARYWDFLT
  2
AcDbDictionaryWithDefault
  3
ObjectDBX Classes
 90
        0
 91
        3
280
     0
281
     0
  0
CLASS
  1
VISUALSTYLE
  2
AcDbVisualStyle
  3
ObjectDBX Classes
 90
     4095
 91
        3
280
     0
281
     0
  0
ENDSEC
  0
SECTION
  2
TABLES
  0
TABLE
  2
VPORT
  5
8
330
0
100
AcDbSymbolTable
 70
     1
  0
VPORT
  5
29
330
8
100
AcDbSymbolTableRecord
100
AcDbViewportTableRecord
  2
*Active
 70
     0
 10
0.0
 20
0.0
 11
1.0
 21
1.0
 12
344.1869158878504
 22
148.5
 13
0.0
 23
0.0
 14
10.0
 24
10.0
 15
10.0
 25
10.0
 16
0.0
 26
0.0
 36
1.0
 17
0.0
 27
0.0
 37
0.0
 40
297.0
 41
1.972972972850329
 42
50.0
 43
0.0
 44
0.0
 50
0.0
 51
0.0
 71
     0
 72
   100
 73
     1
 74
     3
 75
     0
 76
     0
 77
     0
 78
     0
281
     0
 65
     1
110
0.0
120
0.0
130
0.0
111
1.0
121
0.0
131
0.0
112
0.0
122
1.0
132
0.0
 79
     0
146
0.0
  0
ENDTAB
  0
TABLE
  2
LTYPE
  5
5
330
0
100
AcDbSymbolTable
 70
     9
  0
LTYPE
  5
14
330
5
100
AcDbSymbolTableRecord
100
AcDbLinetypeTableRecord
  2
ByBlock
 70
     0
  3

 72
    65
 73
     0
 40
0.0
  0
LTYPE
  5
15
330
5
100
AcDbSymbolTableRecord
100
AcDbLinetypeTableRecord
  2
ByLayer
 70
     0
  3

 72
    65
 73
     0
 40
0.0
  0
LTYPE
  5
16
330
5
100
AcDbSymbolTableRecord
100
AcDbLinetypeTableRecord
  2
Continuous
 70
     0
  3
Solid line
 72
    65
 73
     0
 40
0.0
  0
LTYPE
  5
3B
330
5
100
AcDbSymbolTableRecord
100
AcDbLinetypeTableRecord
  2
DOT
 70
     0
  3
____    ____    
 72
    65
 73
     4
 40
16.0
 49
4.0
 74
     0
 49
-4.0
 74
     0
 49
4.0
 74
     0
 49
-4.0
 74
     0
  0
LTYPE
  5
3C
330
5
100
AcDbSymbolTableRecord
100
AcDbLinetypeTableRecord
  2
HIDDEN
 70
     0
  3
__  __  __  __  
 72
    65
 73
     8
 40
16.0
 49
2.0
 74
     0
 49
-2.0
 74
     0
 49
2.0
 74
     0
 49
-2.0
 74
     0
 49
2.0
 74
     0
 49
-2.0
 74
     0
 49
2.0
 74
     0
 49
-2.0
 74
     0
  0
LTYPE
  5
3D
330
5
100
AcDbSymbolTableRecord
100
AcDbLinetypeTableRecord
  2
DASHED
 70
     0
  3
________        
 72
    65
 73
     2
 40
16.0
 49
8.0
 74
     0
 49
-8.0
 74
     0
  0
LTYPE
  5
3E
330
5
100
AcDbSymbolTableRecord
100
AcDbLinetypeTableRecord
  2
DASHDOT
 70
     0
  3
____________    
 72
    65
 73
     2
 40
16.0
 49
12.0
 74
     0
 49
-4.0
 74
     0
  0
LTYPE
  5
3F
330
5
100
AcDbSymbolTableRecord
100
AcDbLinetypeTableRecord
  2
BORDER
 70
     0
  3
_____________ _ 
 72
    65
 73
     4
 40
16.0
 49
13.0
 74
     0
 49
-1.0
 74
     0
 49
1.0
 74
     0
 49
-1.0
 74
     0
  0
LTYPE
  5
40
330
5
100
AcDbSymbolTableRecord
100
AcDbLinetypeTableRecord
  2
CENTER
 70
     0
  3
_________  ___  
 72
    65
 73
     4
 40
16.0
 49
9.0
 74
     0
 49
-2.0
 74
     0
 49
3.0
 74
     0
 49
-2.0
 74
     0
  0
LTYPE
  5
41
330
5
100
AcDbSymbolTableRecord
100
AcDbLinetypeTableRecord
  2
PHANTOM
 70
     0
  3
_______   ___   
 72
    65
 73
     4
 40
16.0
 49
7.0
 74
     0
 49
-3.0
 74
     0
 49
3.0
 74
     0
 49
-3.0
 74
     0
  0
LTYPE
  5
42
330
5
100
AcDbSymbolTableRecord
100
AcDbLinetypeTableRecord
  2
DIVIDE
 70
     0
  3
_______  __ __  
 72
    65
 73
     6
 40
16.0
 49
7.0
 74
     0
 49
-2.0
 74
     0
 49
2.0
 74
     0
 49
-1.0
 74
     0
 49
2.0
 74
     0
 49
-2.0
 74
     0
  0
ENDTAB
  0
TABLE
  2
LAYER
  5
2
330
0
100
AcDbSymbolTable
 70
     4
  0
LAYER
  5
10
330
2
100
AcDbSymbolTableRecord
100
AcDbLayerTableRecord
  2
0
 70
     0
 62
     7
  6
Continuous
370
    -3
390
F
  0
LAYER
  5
258
330
2
100
AcDbSymbolTableRecord
100
AcDbLayerTableRecord
  2
1
 70
     0
 62
     7
420
 16777215
  6
Continuous
370
    -3
390
F
  0
LAYER
  5
325
330
2
100
AcDbSymbolTableRecord
100
AcDbLayerTableRecord
  2
FIXING
 70
     0
 62
     7
420
 16777215
  6
Continuous
370
    -3
390
F
  0
LAYER
  5
44E
330
2
100
AcDbSymbolTableRecord
100
AcDbLayerTableRecord
  2
GEN_LAYER
 70
     0
 62
     7
420
 16777215
  6
Continuous
370
    -3
390
F
  0
ENDTAB
  0
TABLE
  2
STYLE
  5
3
330
0
100
AcDbSymbolTable
 70
     3
  0
STYLE
  5
11
330
3
100
AcDbSymbolTableRecord
100
AcDbTextStyleTableRecord
  2
Standard
 70
     0
 40
0.0
 41
1.0
 50
0.0
 71
     0
 42
2.5
  3
txt
  4

  0
STYLE
  5
43
330
3
100
AcDbSymbolTableRecord
100
AcDbTextStyleTableRecord
  2
ARIAL
 70
     0
 40
0.2
 41
1.0
 50
0.0
 71
     0
 42
0.2
  3
ARIAL.TTF
  4

  0
STYLE
  5
44
330
3
100
AcDbSymbolTableRecord
100
AcDbTextStyleTableRecord
  2
CALISTB
 70
     0
 40
0.2
 41
1.0
 50
0.0
 71
     0
 42
0.2
  3
CALISTB.TTF
  4

  0
ENDTAB
  0
TABLE
  2
VIEW
  5
6
330
0
100
AcDbSymbolTable
 70
     0
  0
ENDTAB
  0
TABLE
  2
UCS
  5
7
330
0
100
AcDbSymbolTable
 70
     0
  0
ENDTAB
  0
TABLE
  2
APPID
  5
9
330
0
100
AcDbSymbolTable
 70
     1
  0
APPID
  5
12
330
9
100
AcDbSymbolTableRecord
100
AcDbRegAppTableRecord
  2
ACAD
 70
     0
  0
ENDTAB
  0
TABLE
  2
DIMSTYLE
  5
A
330
0
100
AcDbSymbolTable
 70
     1
100
AcDbDimStyleTable
  0
DIMSTYLE
105
27
330
A
100
AcDbSymbolTableRecord
100
AcDbDimStyleTableRecord
  2
ISO-25
 70
     0
 41
2.5
 42
0.625
 43
3.75
 44
1.25
 73
     0
 74
     0
 77
     1
 78
     8
140
2.5
141
2.5
143
0.03937007874016
147
0.625
171
     3
172
     1
271
     2
272
     2
274
     3
278
    44
283
     0
284
     8
340
11
  0
ENDTAB
  0
TABLE
  2
BLOCK_RECORD
  5
1
330
0
100
AcDbSymbolTable
 70
    19
  0
BLOCK_RECORD
  5
1F
330
1
100
AcDbSymbolTableRecord
100
AcDbBlockTableRecord
  2
*Model_Space
340
22
  0
BLOCK_RECORD
  5
1B
330
1
100
AcDbSymbolTableRecord
100
AcDbBlockTableRecord
  2
*Paper_Space
340
1E
  0
BLOCK_RECORD
  5
23
330
1
100
AcDbSymbolTableRecord
100
AcDbBlockTableRecord
  2
*Paper_Space0
340
26
  0
BLOCK_RECORD
  5
45
330
1
100
AcDbSymbolTableRecord
100
AcDbBlockTableRecord
  2
GEN_BLOCK
340
0
102
{BLKREFS
331
48
102
}
  0
BLOCK_RECORD
  5
231
330
1
100
AcDbSymbolTableRecord
100
AcDbBlockTableRecord
  2
PROTO
340
0
102
{BLKREFS
331
234
102
}
  0
BLOCK_RECORD
  5
249
330
1
100
AcDbSymbolTableRecord
100
AcDbBlockTableRecord
  2
GEN_BLOCK00000
340
0
102
{BLKREFS
331
24C
102
}
  0
BLOCK_RECORD
  5
259
330
1
100
AcDbSymbolTableRecord
100
AcDbBlockTableRecord
  2
GEN_BLOCK00001
340
0
102
{BLKREFS
331
25C
102
}
  0
BLOCK_RECORD
  5
25E
330
1
100
AcDbSymbolTableRecord
100
AcDbBlockTableRecord
  2
GEN_BLOCK00002
340
0
102
{BLKREFS
331
261
102
}
  0
BLOCK_RECORD
  5
2CD
330
1
100
AcDbSymbolTableRecord
100
AcDbBlockTableRecord
  2
GEN_BLOCK00003
340
0
102
{BLKREFS
331
2D0
102
}
  0
BLOCK_RECORD
  5
2D2
330
1
100
AcDbSymbolTableRecord
100
AcDbBlockTableRecord
  2
GEN_BLOCK00004
340
0
102
{BLKREFS
331
2D5
102
}
  0
BLOCK_RECORD
  5
2FD
330
1
100
AcDbSymbolTableRecord
100
AcDbBlockTableRecord
  2
GEN_BLOCK00005
340
0
102
{BLKREFS
331
300
102
}
  0
BLOCK_RECORD
  5
30D
330
1
100
AcDbSymbolTableRecord
100
AcDbBlockTableRecord
  2
GEN_BLOCK00006
340
0
102
{BLKREFS
331
310
102
}
  0
BLOCK_RECORD
  5
31A
330
1
100
AcDbSymbolTableRecord
100
AcDbBlockTableRecord
  2
GEN_BLOCK00007
340
0
102
{BLKREFS
331
31D
102
}
  0
BLOCK_RECORD
  5
326
330
1
100
AcDbSymbolTableRecord
100
AcDbBlockTableRecord
  2
8569S
340
0
102
{BLKREFS
331
329
102
}
  0
BLOCK_RECORD
  5
3C2
330
1
100
AcDbSymbolTableRecord
100
AcDbBlockTableRecord
  2
GEN_BLOCK00008
340
0
102
{BLKREFS
331
3C5
102
}
  0
BLOCK_RECORD
  5
3D8
330
1
100
AcDbSymbolTableRecord
100
AcDbBlockTableRecord
  2
GEN_BLOCK00009
340
0
102
{BLKREFS
331
3DB
102
}
  0
BLOCK_RECORD
  5
44F
330
1
100
AcDbSymbolTableRecord
100
AcDbBlockTableRecord
  2
GEN_BLOCK00010
340
0
102
{BLKREFS
331
452
102
}
  0
BLOCK_RECORD
  5
45C
330
1
100
AcDbSymbolTableRecord
100
AcDbBlockTableRecord
  2
GEN_BLOCK00011
340
0
102
{BLKREFS
331
45F
102
}
  0
BLOCK_RECORD
  5
46B
330
1
100
AcDbSymbolTableRecord
100
AcDbBlockTableRecord
  2
GEN_BLOCK00012
340
0
102
{BLKREFS
331
46E
102
}
  0
BLOCK_RECORD
  5
4A2
330
1
100
AcDbSymbolTableRecord
100
AcDbBlockTableRecord
  2
GEN_BLOCK00013
340
0
102
{BLKREFS
331
4A5
102
}
  0
BLOCK_RECORD
  5
518
330
1
100
AcDbSymbolTableRecord
100
AcDbBlockTableRecord
  2
GEN_BLOCK00014
340
0
102
{BLKREFS
331
51B
102
}
  0
ENDTAB
  0
ENDSEC
  0
SECTION
  2
BLOCKS
  0
BLOCK
  5
20
330
1F
100
AcDbEntity
  8
0
100
AcDbBlockBegin
  2
*Model_Space
 70
     0
 71
     0
 10
0.0
 20
0.0
 30
0.0
  3
*Model_Space
  1

  0
ENDBLK
  5
21
330
1F
100
AcDbEntity
  8
0
100
AcDbBlockEnd
  0
BLOCK
  5
1C
330
1B
100
AcDbEntity
 67
     1
  8
0
100
AcDbBlockBegin
  2
*Paper_Space
 70
     0
 71
     0
 10
0.0
 20
0.0
 30
0.0
  3
*Paper_Space
  1

  0
ENDBLK
  5
1D
330
1B
100
AcDbEntity
 67
     1
  8
0
100
AcDbBlockEnd
  0
BLOCK
  5
24
330
23
100
AcDbEntity
  8
0
100
AcDbBlockBegin
  2
*Paper_Space0
 70
     0
 71
     0
 10
0.0
 20
0.0
 30
0.0
  3
*Paper_Space0
  1

  0
ENDBLK
  5
25
330
23
100
AcDbEntity
  8
0
100
AcDbBlockEnd
  0
BLOCK
  5
46
330
45
100
AcDbEntity
  8
0
100
AcDbBlockBegin
  2
GEN_BLOCK
 70
     0
 71
     0
 10
0.0
 20
0.0
 30
0.0
  3
GEN_BLOCK
  1

  0
LINE
  5
49
330
45
100
AcDbEntity
  8
0
  6
Continuous
 62
    15
100
AcDbLine
 10
0.5007727650647951
 20
10.72231454833349
 30
0.0
 11
0.5224080893856637
 21
10.33289468775541
 31
0.0
  0
LINE
  5
4A
330
45
100
AcDbEntity
  8
0
  6
Continuous
 62
    15
100
AcDbLine
 10
0.5224080893856637
 20
10.33289468775541
 30
0.0
 11
0.5872547614283405
 21
9.94454219994708
 31
0.0
  0
LINE
  5
4B
330
45
100
AcDbEntity
  8
0
  6
Continuous
 62
    15
100
AcDbLine
 10
0.5872547614283405
 20
9.94454219994708
 30
0.0
 11
0.6951350409720192
 21
9.55832153208297
 31
0.0
  0
LINE
  5
4C
330
45
100
AcDbEntity
  8
0
  6
Continuous
 62
    15
100
AcDbLine
 10
0.6951350409720192
 20
9.55832153208297
 30
0.0
 11
0.8457532356694912
 21
9.175291288168808
 31
0.0
  0
LINE
  5
4D
330
45
100
AcDbEntity
  8
0
  6
Continuous
 62
    15
100
AcDbLine
 10
0.8457532356694912
 20
9.175291288168808
 30
0.0
 11
1.038696511518339
 21
8.796501327478325
 31
0.0
  0
LINE
  5
4E
330
45
100
AcDbEntity
  8
0
  6
Continuous
 62
    15
100
AcDbLine
 10
1.038696511518339
 20
8.796501327478325
 30
0.0
 11
1.273436024410131
 21
8.42298988696433
 31
0.0
  0
LINE
  5
4F
330
45
100
AcDbEntity
  8
0
  6
Continuous
 62
    15
100
AcDbLine
 10
1.273436024410131
 20
8.42298988696433
 30
0.0
 11
1.549328369657616
 21
8.055780735523456
 31
0.0
  0
LINE
  5
50
330
45
100
AcDbEntity
  8
0
  6
Continuous
 62
    15
100
AcDbLine
 10
1.549328369657616
 20
8.055780735523456
 30
0.0
 11
1.865617345518586
 21
7.695880367914867
 31
0.0
  0
LINE
  5
51
330
45
100
AcDbEntity
  8
0
  6
Continuous
 62
    15
100
AcDbLine
 10
1.865617345518586
 20
7.695880367914867
 30
0.0
 11
2.221436025896111
 21
7.344275246029554
 31
0.0
  0
LINE
  5
52
330
45
100
AcDbEntity
  8
0
  6
Continuous
 62
    15
100
AcDbLine
 10
2.221436025896111
 20
7.344275246029554
 30
0.0
 11
2.615809136518948
 21
7.001929095067624
 31
0.0
  0
LINE
  5
53
330
45
100
AcDbEntity
  8
0
  6
Continuous
 62
    15
100
AcDbLine
 10
2.615809136518948
 20
7.001929095067624
 30
0.0
 11
3.04765572810382
 21
6.669780262032361
 31
0.0
  0
LINE
  5
54
330
45
100
AcDbEntity
  8
0
  6
Continuous
 62
    15
100
AcDbLine
 10
3.04765572810382
 20
6.669780262032361
 30
0.0
 11
3.515792139160823
 21
6.348739143787441
 31
0.0
  0
LINE
  5
55
330
45
100
AcDbEntity
  8
0
  6
Continuous
 62
    15
100
AcDbLine
 10
3.515792139160823
 20
6.348739143787441
 30
0.0
 11
4.018935240326556
 21
6.039685691722696
 31
0.0
  0
LINE
  5
56
330
45
100
AcDbEntity
  8
0
  6
Continuous
 62
    15
100
AcDbLine
 10
4.018935240326556
 20
6.039685691722696
 30
0.0
 11
4.555705951334204
 21
5.743466999868758
 31
0.0
  0
LINE
  5
57
330
45
100
AcDbEntity
  8
0
  6
Continuous
 62
    15
100
AcDbLine
 10
4.555705951334204
 20
5.743466999868758
 30
0.0
 11
5.124633020974471
 21
5.460894983069409
 31
0.0
  0
LINE
  5
58
330
45
100
AcDbEntity
  8
0
  6
Continuous
 62
    15
100
AcDbLine
 10
5.124633020974471
 20
5.460894983069409
 30
0.0
 11
5.72415705969641
 21
5.192744151581735
 31
0.0
  0
LINE
  5
59
330
45
100
AcDbEntity
  8
0
  6
Continuous
 62
    15
100
AcDbLine
 10
5.72415705969641
 20
5.192744151581735
 30
0.0
 11
6.352634813781407
 21
4.939749488195901
 31
0.0
  0
LINE
  5
5A
330
45
100
AcDbEntity
  8
0
  6
Continuous
 62
    15
100
AcDbLine
 10
6.352634813781407
 20
4.939749488195901
 30
0.0
 11
7.008343669390598
 21
4.702604433698923
 31
0.0
  0
LINE
  5
5B
330
45
100
AcDbEntity
  8
0
  6
Continuous
 62
    15
100
AcDbLine
 10
7.008343669390598
 20
4.702604433698923
 30
0.0
 11
7.689486374128848
 21
4.481958986200823
 31
0.0
  0
LINE
  5
5C
330
45
100
AcDbEntity
  8
0
  6
Continuous
 62
    15
100
AcDbLine
 10
7.689486374128848
 20
4.481958986200823
 30
0.0
 11
8.394195963187741
 21
4.278417919536821
 31
0.0
  0
LINE
  5
5D
330
45
100
AcDbEntity
  8
0
  6
Continuous
 62
    15
100
AcDbLine
 10
8.394195963187741
 20
4.278417919536821
 30
0.0
 11
9.120540876567503
 21
4.09253912562275
 31
0.0
  0
LINE
  5
5E
330
45
100
AcDbEntity
  8
0
  6
Continuous
 62
    15
100
AcDbLine
 10
9.120540876567503
 20
4.09253912562275
 30
0.0
 11
9.866530253347975
 21
3.924832085312516
 31
0.0
  0
LINE
  5
5F
330
45
100
AcDbEntity
  8
0
  6
Continuous
 62
    15
100
AcDbLine
 10
9.866530253347975
 20
3.924832085312516
 30
0.0
 11
10.6301193885013
 21
3.77575647194584
 31
0.0
  0
LINE
  5
60
330
45
100
AcDbEntity
  8
0
  6
Continuous
 62
    15
100
AcDbLine
 10
10.6301193885013
 20
3.77575647194584
 30
0.0
 11
11.40921533728331
 21
3.645720891417056
 31
0.0
  0
LINE
  5
61
330
45
100
AcDbEntity
  8
0
  6
Continuous
 62
    15
100
AcDbLine
 10
11.40921533728331
 20
3.645720891417056
 30
0.0
 11
12.20168265185364
 21
3.535081762214247
 31
0.0
  0
LINE
  5
62
330
45
100
AcDbEntity
  8
0
  6
Continuous
 62
    15
100
AcDbLine
 10
12.20168265185364
 20
3.535081762214247
 30
0.0
 11
13.00534923438661
 21
3.444142338499603
 31
0.0
  0
LINE
  5
63
330
45
100
AcDbEntity
  8
0
  6
Continuous
 62
    15
100
AcDbLine
 10
13.00534923438661
 20
3.444142338499603
 30
0.0
 11
13.81801229064129
 21
3.373151878912665
 31
0.0
  0
LINE
  5
64
330
45
100
AcDbEntity
  8
0
  6
Continuous
 62
    15
100
AcDbLine
 10
13.81801229064129
 20
3.373151878912665
 30
0.0
 11
14.63744436766845
 21
3.322304963368822
 31
0.0
  0
LINE
  5
65
330
45
100
AcDbEntity
  8
0
  6
Continuous
 62
    15
100
AcDbLine
 10
14.63744436766845
 20
3.322304963368822
 30
0.0
 11
15.46139945910207
 21
3.291740959728429
 31
0.0
  0
LINE
  5
66
330
45
100
AcDbEntity
  8
0
  6
Continuous
 62
    15
100
AcDbLine
 10
15.46139945910207
 20
3.291740959728429
 30
0.0
 11
16.28761916131023
 21
3.281543641801761
 31
0.0
  0
LINE
  5
67
330
45
100
AcDbEntity
  8
0
  6
Continuous
 62
    15
100
AcDbLine
 10
16.28761916131023
 20
3.281543641801761
 30
0.0
 11
17.1138388635184
 21
3.291740959728429
 31
0.0
  0
LINE
  5
68
330
45
100
AcDbEntity
  8
0
  6
Continuous
 62
    15
100
AcDbLine
 10
17.1138388635184
 20
3.291740959728429
 30
0.0
 11
17.93779395495247
 21
3.322304963368822
 31
0.0
  0
LINE
  5
69
330
45
100
AcDbEntity
  8
0
  6
Continuous
 62
    15
100
AcDbLine
 10
17.93779395495247
 20
3.322304963368822
 30
0.0
 11
18.75722603197917
 21
3.373151878912665
 31
0.0
  0
LINE
  5
6A
330
45
100
AcDbEntity
  8
0
  6
Continuous
 62
    15
100
AcDbLine
 10
18.75722603197917
 20
3.373151878912665
 30
0.0
 11
19.56988908823385
 21
3.444142338499603
 31
0.0
  0
LINE
  5
6B
330
45
100
AcDbEntity
  8
0
  6
Continuous
 62
    15
100
AcDbLine
 10
19.56988908823385
 20
3.444142338499603
 30
0.0
 11
20.37355567076682
 21
3.535081762214247
 31
0.0
  0
LINE
  5
6C
330
45
100
AcDbEntity
  8
0
  6
Continuous
 62
    15
100
AcDbLine
 10
20.37355567076682
 20
3.535081762214247
 30
0.0
 11
21.16602298533715
 21
3.645720891417056
 31
0.0
  0
LINE
  5
6D
330
45
100
AcDbEntity
  8
0
  6
Continuous
 62
    15
100
AcDbLine
 10
21.16602298533715
 20
3.645720891417056
 30
0.0
 11
21.94511893411917
 21
3.77575647194584
 31
0.0
  0
LINE
  5
6E
330
45
100
AcDbEntity
  8
0
  6
Continuous
 62
    15
100
AcDbLine
 10
21.94511893411917
 20
3.77575647194584
 30
0.0
 11
22.70870806927249
 21
3.924832085312516
 31
0.0
  0
LINE
  5
6F
330
45
100
AcDbEntity
  8
0
  6
Continuous
 62
    15
100
AcDbLine
 10
22.70870806927249
 20
3.924832085312516
 30
0.0
 11
23.45469744605342
 21
4.09253912562275
 31
0.0
  0
LINE
  5
70
330
45
100
AcDbEntity
  8
0
  6
Continuous
 62
    15
100
AcDbLine
 10
23.45469744605342
 20
4.09253912562275
 30
0.0
 11
24.18104235943318
 21
4.278417919536821
 31
0.0
  0
LINE
  5
71
330
45
100
AcDbEntity
  8
0
  6
Continuous
 62
    15
100
AcDbLine
 10
24.18104235943318
 20
4.278417919536821
 30
0.0
 11
24.88575194849207
 21
4.481958986200823
 31
0.0
  0
LINE
  5
72
330
45
100
AcDbEntity
  8
0
  6
Continuous
 62
    15
100
AcDbLine
 10
24.88575194849207
 20
4.481958986200823
 30
0.0
 11
25.56689465322987
 21
4.702604433698923
 31
0.0
  0
LINE
  5
73
330
45
100
AcDbEntity
  8
0
  6
Continuous
 62
    15
100
AcDbLine
 10
25.56689465322987
 20
4.702604433698923
 30
0.0
 11
26.22260350883906
 21
4.939749488195901
 31
0.0
  0
LINE
  5
74
330
45
100
AcDbEntity
  8
0
  6
Continuous
 62
    15
100
AcDbLine
 10
26.22260350883906
 20
4.939749488195901
 30
0.0
 11
26.85108126292405
 21
5.192744151581735
 31
0.0
  0
LINE
  5
75
330
45
100
AcDbEntity
  8
0
  6
Continuous
 62
    15
100
AcDbLine
 10
26.85108126292405
 20
5.192744151581735
 30
0.0
 11
27.45060530164599
 21
5.460894983069409
 31
0.0
  0
LINE
  5
76
330
45
100
AcDbEntity
  8
0
  6
Continuous
 62
    15
100
AcDbLine
 10
27.45060530164599
 20
5.460894983069409
 30
0.0
 11
28.01953237128672
 21
5.743466999868758
 31
0.0
  0
LINE
  5
77
330
45
100
AcDbEntity
  8
0
  6
Continuous
 62
    15
100
AcDbLine
 10
28.01953237128672
 20
5.743466999868758
 30
0.0
 11
28.55630308229391
 21
6.039685691722696
 31
0.0
  0
LINE
  5
78
330
45
100
AcDbEntity
  8
0
  6
Continuous
 62
    15
100
AcDbLine
 10
28.55630308229391
 20
6.039685691722696
 30
0.0
 11
29.05944618345964
 21
6.348739143787441
 31
0.0
  0
LINE
  5
79
330
45
100
AcDbEntity
  8
0
  6
Continuous
 62
    15
100
AcDbLine
 10
29.05944618345964
 20
6.348739143787441
 30
0.0
 11
29.52758259451664
 21
6.669780262032361
 31
0.0
  0
LINE
  5
7A
330
45
100
AcDbEntity
  8
0
  6
Continuous
 62
    15
100
AcDbLine
 10
29.52758259451664
 20
6.669780262032361
 30
0.0
 11
29.95942918610152
 21
7.001929095067624
 31
0.0
  0
LINE
  5
7B
330
45
100
AcDbEntity
  8
0
  6
Continuous
 62
    15
100
AcDbLine
 10
29.95942918610152
 20
7.001929095067624
 30
0.0
 11
30.35380229672481
 21
7.344275246029554
 31
0.0
  0
LINE
  5
7C
330
45
100
AcDbEntity
  8
0
  6
Continuous
 62
    15
100
AcDbLine
 10
30.35380229672481
 20
7.344275246029554
 30
0.0
 11
30.70962097710188
 21
7.695880367914867
 31
0.0
  0
LINE
  5
7D
330
45
100
AcDbEntity
  8
0
  6
Continuous
 62
    15
100
AcDbLine
 10
30.70962097710188
 20
7.695880367914867
 30
0.0
 11
31.02590995296285
 21
8.055780735523456
 31
0.0
  0
LINE
  5
7E
330
45
100
AcDbEntity
  8
0
  6
Continuous
 62
    15
100
AcDbLine
 10
31.02590995296285
 20
8.055780735523456
 30
0.0
 11
31.30180229821033
 21
8.42298988696433
 31
0.0
  0
LINE
  5
7F
330
45
100
AcDbEntity
  8
0
  6
Continuous
 62
    15
100
AcDbLine
 10
31.30180229821033
 20
8.42298988696433
 30
0.0
 11
31.53654181110213
 21
8.796501327478325
 31
0.0
  0
LINE
  5
80
330
45
100
AcDbEntity
  8
0
  6
Continuous
 62
    15
100
AcDbLine
 10
31.53654181110213
 20
8.796501327478325
 30
0.0
 11
31.72948508695097
 21
9.175291288168808
 31
0.0
  0
LINE
  5
81
330
45
100
AcDbEntity
  8
0
  6
Continuous
 62
    15
100
AcDbLine
 10
31.72948508695097
 20
9.175291288168808
 30
0.0
 11
31.88010328164845
 21
9.55832153208297
 31
0.0
  0
LINE
  5
82
330
45
100
AcDbEntity
  8
0
  6
Continuous
 62
    15
100
AcDbLine
 10
31.88010328164845
 20
9.55832153208297
 30
0.0
 11
31.98798356119212
 21
9.94454219994708
 31
0.0
  0
LINE
  5
83
330
45
100
AcDbEntity
  8
0
  6
Continuous
 62
    15
100
AcDbLine
 10
31.98798356119212
 20
9.94454219994708
 30
0.0
 11
32.0528302332348
 21
10.33289468775541
 31
0.0
  0
LINE
  5
84
330
45
100
AcDbEntity
  8
0
  6
Continuous
 62
    15
100
AcDbLine
 10
32.0528302332348
 20
10.33289468775541
 30
0.0
 11
32.07446555755567
 21
10.72231454833349
 31
0.0
  0
LINE
  5
85
330
45
100
AcDbEntity
  8
0
  6
Continuous
 62
    15
100
AcDbLine
 10
32.07446555755567
 20
10.72231454833349
 30
0.0
 11
32.0528302332348
 21
11.1117344089111
 31
0.0
  0
LINE
  5
86
330
45
100
AcDbEntity
  8
0
  6
Continuous
 62
    15
100
AcDbLine
 10
32.0528302332348
 20
11.1117344089111
 30
0.0
 11
31.98798356119212
 21
11.50008689671989
 31
0.0
  0
LINE
  5
87
330
45
100
AcDbEntity
  8
0
  6
Continuous
 62
    15
100
AcDbLine
 10
31.98798356119212
 20
11.50008689671989
 30
0.0
 11
31.88010328164845
 21
11.88630756458355
 31
0.0
  0
LINE
  5
88
330
45
100
AcDbEntity
  8
0
  6
Continuous
 62
    15
100
AcDbLine
 10
31.88010328164845
 20
11.88630756458355
 30
0.0
 11
31.72948508695097
 21
12.26933780849771
 31
0.0
  0
LINE
  5
89
330
45
100
AcDbEntity
  8
0
  6
Continuous
 62
    15
100
AcDbLine
 10
31.72948508695097
 20
12.26933780849771
 30
0.0
 11
31.53654181110213
 21
12.64812776918819
 31
0.0
  0
LINE
  5
8A
330
45
100
AcDbEntity
  8
0
  6
Continuous
 62
    15
100
AcDbLine
 10
31.53654181110213
 20
12.64812776918819
 30
0.0
 11
31.30180229821033
 21
13.02163920970219
 31
0.0
  0
LINE
  5
8B
330
45
100
AcDbEntity
  8
0
  6
Continuous
 62
    15
100
AcDbLine
 10
31.30180229821033
 20
13.02163920970219
 30
0.0
 11
31.02590995296285
 21
13.38884836114352
 31
0.0
  0
LINE
  5
8C
330
45
100
AcDbEntity
  8
0
  6
Continuous
 62
    15
100
AcDbLine
 10
31.02590995296285
 20
13.38884836114352
 30
0.0
 11
30.70962097710188
 21
13.7487487287521
 31
0.0
  0
LINE
  5
8D
330
45
100
AcDbEntity
  8
0
  6
Continuous
 62
    15
100
AcDbLine
 10
30.70962097710188
 20
13.7487487287521
 30
0.0
 11
30.35380229672481
 21
14.10035385063696
 31
0.0
  0
LINE
  5
8E
330
45
100
AcDbEntity
  8
0
  6
Continuous
 62
    15
100
AcDbLine
 10
30.35380229672481
 20
14.10035385063696
 30
0.0
 11
29.95942918610152
 21
14.44270000159889
 31
0.0
  0
LINE
  5
8F
330
45
100
AcDbEntity
  8
0
  6
Continuous
 62
    15
100
AcDbLine
 10
29.95942918610152
 20
14.44270000159889
 30
0.0
 11
29.52758259451664
 21
14.77484883463461
 31
0.0
  0
LINE
  5
90
330
45
100
AcDbEntity
  8
0
  6
Continuous
 62
    15
100
AcDbLine
 10
29.52758259451664
 20
14.77484883463461
 30
0.0
 11
29.05944618345964
 21
15.09588995287953
 31
0.0
  0
LINE
  5
91
330
45
100
AcDbEntity
  8
0
  6
Continuous
 62
    15
100
AcDbLine
 10
29.05944618345964
 20
15.09588995287953
 30
0.0
 11
28.55630308229391
 21
15.40494340494382
 31
0.0
  0
LINE
  5
92
330
45
100
AcDbEntity
  8
0
  6
Continuous
 62
    15
100
AcDbLine
 10
28.55630308229391
 20
15.40494340494382
 30
0.0
 11
28.01953237128672
 21
15.70116209679821
 31
0.0
  0
LINE
  5
93
330
45
100
AcDbEntity
  8
0
  6
Continuous
 62
    15
100
AcDbLine
 10
28.01953237128672
 20
15.70116209679821
 30
0.0
 11
27.45060530164599
 21
15.98373411359711
 31
0.0
  0
LINE
  5
94
330
45
100
AcDbEntity
  8
0
  6
Continuous
 62
    15
100
AcDbLine
 10
27.45060530164599
 20
15.98373411359711
 30
0.0
 11
26.85108126292405
 21
16.25188494508478
 31
0.0
  0
LINE
  5
95
330
45
100
AcDbEntity
  8
0
  6
Continuous
 62
    15
100
AcDbLine
 10
26.85108126292405
 20
16.25188494508478
 30
0.0
 11
26.22260350883906
 21
16.50487960847062
 31
0.0
  0
LINE
  5
96
330
45
100
AcDbEntity
  8
0
  6
Continuous
 62
    15
100
AcDbLine
 10
26.22260350883906
 20
16.50487960847062
 30
0.0
 11
25.56689465322987
 21
16.74202466296805
 31
0.0
  0
LINE
  5
97
330
45
100
AcDbEntity
  8
0
  6
Continuous
 62
    15
100
AcDbLine
 10
25.56689465322987
 20
16.74202466296805
 30
0.0
 11
24.88575194849207
 21
16.96267011046569
 31
0.0
  0
LINE
  5
98
330
45
100
AcDbEntity
  8
0
  6
Continuous
 62
    15
100
AcDbLine
 10
24.88575194849207
 20
16.96267011046569
 30
0.0
 11
24.18104235943318
 21
17.1662111771297
 31
0.0
  0
LINE
  5
99
330
45
100
AcDbEntity
  8
0
  6
Continuous
 62
    15
100
AcDbLine
 10
24.18104235943318
 20
17.1662111771297
 30
0.0
 11
23.45469744605342
 21
17.35208997104377
 31
0.0
  0
LINE
  5
9A
330
45
100
AcDbEntity
  8
0
  6
Continuous
 62
    15
100
AcDbLine
 10
23.45469744605342
 20
17.35208997104377
 30
0.0
 11
22.70870806927249
 21
17.51979701135446
 31
0.0
  0
LINE
  5
9B
330
45
100
AcDbEntity
  8
0
  6
Continuous
 62
    15
100
AcDbLine
 10
22.70870806927249
 20
17.51979701135446
 30
0.0
 11
21.94511893411962
 21
17.66887262472113
 31
0.0
  0
LINE
  5
9C
330
45
100
AcDbEntity
  8
0
  6
Continuous
 62
    15
100
AcDbLine
 10
21.94511893411962
 20
17.66887262472113
 30
0.0
 11
21.16602298533715
 21
17.79890820524946
 31
0.0
  0
LINE
  5
9D
330
45
100
AcDbEntity
  8
0
  6
Continuous
 62
    15
100
AcDbLine
 10
21.16602298533715
 20
17.79890820524946
 30
0.0
 11
20.37355567076682
 21
17.90954733445227
 31
0.0
  0
LINE
  5
9E
330
45
100
AcDbEntity
  8
0
  6
Continuous
 62
    15
100
AcDbLine
 10
20.37355567076682
 20
17.90954733445227
 30
0.0
 11
19.56988908823385
 21
18.00048675816691
 31
0.0
  0
LINE
  5
9F
330
45
100
AcDbEntity
  8
0
  6
Continuous
 62
    15
100
AcDbLine
 10
19.56988908823385
 20
18.00048675816691
 30
0.0
 11
18.75722603197917
 21
18.07147721775385
 31
0.0
  0
LINE
  5
A0
330
45
100
AcDbEntity
  8
0
  6
Continuous
 62
    15
100
AcDbLine
 10
18.75722603197917
 20
18.07147721775385
 30
0.0
 11
17.93779395495247
 21
18.12232413329815
 31
0.0
  0
LINE
  5
A1
330
45
100
AcDbEntity
  8
0
  6
Continuous
 62
    15
100
AcDbLine
 10
17.93779395495247
 20
18.12232413329815
 30
0.0
 11
17.1138388635184
 21
18.15288813693809
 31
0.0
  0
LINE
  5
A2
330
45
100
AcDbEntity
  8
0
  6
Continuous
 62
    15
100
AcDbLine
 10
17.1138388635184
 20
18.15288813693809
 30
0.0
 11
16.28761916131023
 21
18.16308545486476
 31
0.0
  0
LINE
  5
A3
330
45
100
AcDbEntity
  8
0
  6
Continuous
 62
    15
100
AcDbLine
 10
16.28761916131023
 20
18.16308545486476
 30
0.0
 11
15.46139945910207
 21
18.15288813693809
 31
0.0
  0
LINE
  5
A4
330
45
100
AcDbEntity
  8
0
  6
Continuous
 62
    15
100
AcDbLine
 10
15.46139945910207
 20
18.15288813693809
 30
0.0
 11
14.63744436766845
 21
18.12232413329815
 31
0.0
  0
LINE
  5
A5
330
45
100
AcDbEntity
  8
0
  6
Continuous
 62
    15
100
AcDbLine
 10
14.63744436766845
 20
18.12232413329815
 30
0.0
 11
13.81801229064129
 21
18.07147721775385
 31
0.0
  0
LINE
  5
A6
330
45
100
AcDbEntity
  8
0
  6
Continuous
 62
    15
100
AcDbLine
 10
13.81801229064129
 20
18.07147721775385
 30
0.0
 11
13.00534923438661
 21
18.00048675816691
 31
0.0
  0
LINE
  5
A7
330
45
100
AcDbEntity
  8
0
  6
Continuous
 62
    15
100
AcDbLine
 10
13.00534923438661
 20
18.00048675816691
 30
0.0
 11
12.20168265185364
 21
17.90954733445227
 31
0.0
  0
LINE
  5
A8
330
45
100
AcDbEntity
  8
0
  6
Continuous
 62
    15
100
AcDbLine
 10
12.20168265185364
 20
17.90954733445227
 30
0.0
 11
11.40921533728331
 21
17.79890820524946
 31
0.0
  0
LINE
  5
A9
330
45
100
AcDbEntity
  8
0
  6
Continuous
 62
    15
100
AcDbLine
 10
11.40921533728331
 20
17.79890820524946
 30
0.0
 11
10.6301193885013
 21
17.66887262472113
 31
0.0
  0
LINE
  5
AA
330
45
100
AcDbEntity
  8
0
  6
Continuous
 62
    15
100
AcDbLine
 10
10.6301193885013
 20
17.66887262472113
 30
0.0
 11
9.866530253347975
 21
17.51979701135446
 31
0.0
  0
LINE
  5
AB
330
45
100
AcDbEntity
  8
0
  6
Continuous
 62
    15
100
AcDbLine
 10
9.866530253347975
 20
17.51979701135446
 30
0.0
 11
9.120540876567503
 21
17.35208997104377
 31
0.0
  0
LINE
  5
AC
330
45
100
AcDbEntity
  8
0
  6
Continuous
 62
    15
100
AcDbLine
 10
9.120540876567503
 20
17.35208997104377
 30
0.0
 11
8.394195963187286
 21
17.1662111771297
 31
0.0
  0
LINE
  5
AD
330
45
100
AcDbEntity
  8
0
  6
Continuous
 62
    15
100
AcDbLine
 10
8.394195963187286
 20
17.1662111771297
 30
0.0
 11
7.689486374128848
 21
16.96267011046569
 31
0.0
  0
LINE
  5
AE
330
45
100
AcDbEntity
  8
0
  6
Continuous
 62
    15
100
AcDbLine
 10
7.689486374128848
 20
16.96267011046569
 30
0.0
 11
7.008343669390598
 21
16.74202466296805
 31
0.0
  0
LINE
  5
AF
330
45
100
AcDbEntity
  8
0
  6
Continuous
 62
    15
100
AcDbLine
 10
7.008343669390598
 20
16.74202466296805
 30
0.0
 11
6.352634813781407
 21
16.50487960847062
 31
0.0
  0
LINE
  5
B0
330
45
100
AcDbEntity
  8
0
  6
Continuous
 62
    15
100
AcDbLine
 10
6.352634813781407
 20
16.50487960847062
 30
0.0
 11
5.72415705969641
 21
16.25188494508478
 31
0.0
  0
LINE
  5
B1
330
45
100
AcDbEntity
  8
0
  6
Continuous
 62
    15
100
AcDbLine
 10
5.72415705969641
 20
16.25188494508478
 30
0.0
 11
5.124633020974471
 21
15.98373411359711
 31
0.0
  0
LINE
  5
B2
330
45
100
AcDbEntity
  8
0
  6
Continuous
 62
    15
100
AcDbLine
 10
5.124633020974471
 20
15.98373411359711
 30
0.0
 11
4.555705951333749
 21
15.70116209679821
 31
0.0
  0
LINE
  5
B3
330
45
100
AcDbEntity
  8
0
  6
Continuous
 62
    15
100
AcDbLine
 10
4.555705951333749
 20
15.70116209679821
 30
0.0
 11
4.018935240326556
 21
15.40494340494382
 31
0.0
  0
LINE
  5
B4
330
45
100
AcDbEntity
  8
0
  6
Continuous
 62
    15
100
AcDbLine
 10
4.018935240326556
 20
15.40494340494382
 30
0.0
 11
3.515792139160823
 21
15.09588995287953
 31
0.0
  0
LINE
  5
B5
330
45
100
AcDbEntity
  8
0
  6
Continuous
 62
    15
100
AcDbLine
 10
3.515792139160823
 20
15.09588995287953
 30
0.0
 11
3.04765572810382
 21
14.77484883463461
 31
0.0
  0
LINE
  5
B6
330
45
100
AcDbEntity
  8
0
  6
Continuous
 62
    15
100
AcDbLine
 10
3.04765572810382
 20
14.77484883463461
 30
0.0
 11
2.615809136518948
 21
14.44270000159889
 31
0.0
  0
LINE
  5
B7
330
45
100
AcDbEntity
  8
0
  6
Continuous
 62
    15
100
AcDbLine
 10
2.615809136518948
 20
14.44270000159889
 30
0.0
 11
2.221436025895656
 21
14.10035385063696
 31
0.0
  0
LINE
  5
B8
330
45
100
AcDbEntity
  8
0
  6
Continuous
 62
    15
100
AcDbLine
 10
2.221436025895656
 20
14.10035385063696
 30
0.0
 11
1.865617345518586
 21
13.7487487287521
 31
0.0
  0
LINE
  5
B9
330
45
100
AcDbEntity
  8
0
  6
Continuous
 62
    15
100
AcDbLine
 10
1.865617345518586
 20
13.7487487287521
 30
0.0
 11
1.549328369657616
 21
13.38884836114352
 31
0.0
  0
LINE
  5
BA
330
45
100
AcDbEntity
  8
0
  6
Continuous
 62
    15
100
AcDbLine
 10
1.549328369657616
 20
13.38884836114352
 30
0.0
 11
1.273436024410131
 21
13.02163920970219
 31
0.0
  0
LINE
  5
BB
330
45
100
AcDbEntity
  8
0
  6
Continuous
 62
    15
100
AcDbLine
 10
1.273436024410131
 20
13.02163920970219
 30
0.0
 11
1.038696511518339
 21
12.64812776918819
 31
0.0
  0
LINE
  5
BC
330
45
100
AcDbEntity
  8
0
  6
Continuous
 62
    15
100
AcDbLine
 10
1.038696511518339
 20
12.64812776918819
 30
0.0
 11
0.8457532356694912
 21
12.26933780849771
 31
0.0
  0
LINE
  5
BD
330
45
100
AcDbEntity
  8
0
  6
Continuous
 62
    15
100
AcDbLine
 10
0.8457532356694912
 20
12.26933780849771
 30
0.0
 11
0.6951350409720192
 21
11.88630756458355
 31
0.0
  0
LINE
  5
BE
330
45
100
AcDbEntity
  8
0
  6
Continuous
 62
    15
100
AcDbLine
 10
0.6951350409720192
 20
11.88630756458355
 30
0.0
 11
0.5872547614283405
 21
11.50008689671989
 31
0.0
  0
LINE
  5
BF
330
45
100
AcDbEntity
  8
0
  6
Continuous
 62
    15
100
AcDbLine
 10
0.5872547614283405
 20
11.50008689671989
 30
0.0
 11
0.5224080893856637
 21
11.1117344089111
 31
0.0
  0
LINE
  5
C0
330
45
100
AcDbEntity
  8
0
  6
Continuous
 62
    15
100
AcDbLine
 10
0.5224080893856637
 20
11.1117344089111
 30
0.0
 11
0.5007727650647951
 21
10.72231454833349
 31
0.0
  0
ARC
  5
C1
330
45
100
AcDbEntity
  8
0
  6
Continuous
 62
    16
100
AcDbCircle
 10
25.16036435551567
 20
6.426179863451978
 30
0.0
 40
0.6005912475397421
100
AcDbArc
 50
61.06943034573163
 51
142.6647004994766
  0
ARC
  5
C2
330
45
100
AcDbEntity
  8
0
  6
Continuous
 62
    16
100
AcDbCircle
 10
25.16036435551567
 20
6.426179863451978
 30
0.0
 40
0.9662162475397422
100
AcDbArc
 50
64.49037964304127
 51
142.9738579058682
  0
LINE
  5
C3
330
45
100
AcDbEntity
  8
0
  6
Continuous
 62
    16
100
AcDbLine
 10
8.344629827972568
 20
6.951821258001416
 30
0.0
 11
8.219052249101225
 21
7.298202573987908
 31
0.0
  0
LINE
  5
C4
330
45
100
AcDbEntity
  8
0
  6
Continuous
 62
    16
100
AcDbLine
 10
10.72868907098362
 20
6.354394027778142
 30
0.0
 11
10.60367194117524
 21
6.699229454079557
 31
0.0
  0
ARC
  5
C5
330
45
100
AcDbEntity
  8
0
  6
Continuous
 62
    16
100
AcDbCircle
 10
10.19059121086664
 20
7.572692760268126
 30
0.0
 40
1.331841247539742
100
AcDbArc
 50
215.9697303766588
 51
293.8300759689964
  0
ARC
  5
C6
330
45
100
AcDbEntity
  8
0
  6
Continuous
 62
    16
100
AcDbCircle
 10
8.635165490082528
 20
6.426179863451978
 30
0.0
 40
0.6005912475397421
100
AcDbArc
 50
37.3352995005234
 51
118.9305696542684
  0
ARC
  5
C7
330
45
100
AcDbEntity
  8
0
  6
Continuous
 62
    16
100
AcDbCircle
 10
10.19059121086664
 20
7.572692760268126
 30
0.0
 40
0.9662162475397422
100
AcDbArc
 50
215.7621230696957
 51
295.3105355331508
  0
ARC
  5
C8
330
45
100
AcDbEntity
  8
0
  6
Continuous
 62
    16
100
AcDbCircle
 10
8.635165490082528
 20
6.426179863451978
 30
0.0
 40
0.9662162475397422
100
AcDbArc
 50
37.02614209413181
 51
115.5096203569587
  0
LINE
  5
C9
330
45
100
AcDbEntity
  8
0
  6
Continuous
 62
    16
100
AcDbLine
 10
23.06684077461458
 20
6.354394027778142
 30
0.0
 11
23.19185790442296
 21
6.699229454079557
 31
0.0
  0
ARC
  5
CA
330
45
100
AcDbEntity
  8
0
  6
Continuous
 62
    16
100
AcDbCircle
 10
23.60493863473155
 20
7.572692760268126
 30
0.0
 40
0.9662162475397422
100
AcDbArc
 50
244.6894644668492
 51
324.2378769303043
  0
ARC
  5
CB
330
45
100
AcDbEntity
  8
0
  6
Continuous
 62
    16
100
AcDbCircle
 10
23.60493863473155
 20
7.572692760268126
 30
0.0
 40
1.331841247539742
100
AcDbArc
 50
246.1699240310035
 51
324.0302696233412
  0
LINE
  5
CC
330
45
100
AcDbEntity
  8
0
  6
Continuous
 62
    16
100
AcDbLine
 10
25.45090001762608
 20
6.951821258001416
 30
0.0
 11
25.57647759649697
 21
7.298202573987908
 31
0.0
  0
ARC
  5
CD
330
45
100
AcDbEntity
  8
0
  6
Continuous
 62
    16
100
AcDbCircle
 10
23.90989063755958
 20
11.01183880385128
 30
0.0
 40
2.4375
100
AcDbArc
 50
289.0460469748608
 51
308.233797137863
  0
LINE
  5
CE
330
45
100
AcDbEntity
  8
0
  6
Continuous
 62
    16
100
AcDbLine
 10
24.74508619722045
 20
11.88319764078727
 30
0.0
 11
26.93883619722035
 21
11.88319764078727
 31
0.0
  0
LINE
  5
CF
330
45
100
AcDbEntity
  8
0
  6
Continuous
 62
    16
100
AcDbLine
 10
24.74508619722045
 20
8.470697640787364
 30
0.0
 11
26.20758619722054
 21
8.470697640787364
 31
0.0
  0
LINE
  5
D0
330
45
100
AcDbEntity
  8
0
  6
Continuous
 62
    16
100
AcDbLine
 10
26.60582654746875
 20
10.0327566472219
 30
0.0
 11
25.12480269384858
 21
11.41504557726779
 31
0.0
  0
LINE
  5
D1
330
45
100
AcDbEntity
  8
0
  6
Continuous
 62
    16
100
AcDbLine
 10
11.16336698075409
 20
10.0327566472219
 30
0.0
 11
9.682343127133919
 21
11.41504557726779
 31
0.0
  0
LINE
  5
D2
330
45
100
AcDbEntity
  8
0
  6
Continuous
 62
    16
100
AcDbLine
 10
11.89947883930543
 20
10.61272298221996
 30
0.0
 11
11.06804199692832
 21
11.38873070177209
 31
0.0
  0
LINE
  5
D3
330
45
100
AcDbEntity
  8
0
  6
Continuous
 62
    16
100
AcDbLine
 10
11.16336698075409
 20
10.0327566472219
 30
0.0
 11
9.975931186200143
 21
9.097202114562094
 31
0.0
  0
LINE
  5
D4
330
45
100
AcDbEntity
  8
0
  6
Continuous
 62
    16
100
AcDbLine
 10
11.39774238196313
 20
9.81400627276065
 30
0.0
 11
10.3252275318462
 21
8.968995423353533
 31
0.0
  0
ARC
  5
D5
330
45
100
AcDbEntity
  8
0
  6
Continuous
 62
    16
100
AcDbCircle
 10
11.15119953369074
 20
11.47782806258959
 30
0.0
 40
0.121875
100
AcDbArc
 50
96.32369450860737
 51
226.974934010882
  0
LINE
  5
D6
330
45
100
AcDbEntity
  8
0
  6
Continuous
 62
    16
100
AcDbLine
 10
9.302626630505785
 20
11.88319764078727
 30
0.0
 11
11.49637663050569
 21
11.88319764078727
 31
0.0
  0
ARC
  5
D7
330
45
100
AcDbEntity
  8
0
  6
Continuous
 62
    16
100
AcDbCircle
 10
10.40065253761375
 20
8.873263588889074
 30
0.0
 40
0.121875
100
AcDbArc
 50
128.2337971378629
 51
264.3948769589975
  0
LINE
  5
D8
330
45
100
AcDbEntity
  8
0
  6
Continuous
 62
    16
100
AcDbLine
 10
10.77703039168117
 20
8.713864916282489
 30
0.0
 11
10.38874877643892
 21
8.751971313393767
 31
0.0
  0
ARC
  5
D9
330
45
100
AcDbEntity
  8
0
  6
Continuous
 62
    16
100
AcDbCircle
 10
10.76512663050588
 20
8.592572640787182
 30
0.0
 40
0.121875
100
AcDbArc
 50
270.0
 51
84.3948769589973
  0
ARC
  5
DA
330
45
100
AcDbEntity
  8
0
  6
Continuous
 62
    16
100
AcDbCircle
 10
8.46743107084447
 20
11.01183880385128
 30
0.0
 40
2.4375
100
AcDbArc
 50
289.0460469748608
 51
308.233797137863
  0
ARC
  5
DB
330
45
100
AcDbEntity
  8
0
  6
Continuous
 62
    16
100
AcDbCircle
 10
9.302626630505785
 20
8.592572640787182
 30
0.0
 40
0.121875
100
AcDbArc
 50
109.0460469748607
 51
270.0
  0
ARC
  5
DC
330
45
100
AcDbEntity
  8
0
  6
Continuous
 62
    16
100
AcDbCircle
 10
9.017082833032674
 20
10.70226669073094
 30
0.0
 40
0.9750000000000001
100
AcDbArc
 50
46.97493401088205
 51
74.91066274878528
  0
ARC
  5
DD
330
45
100
AcDbEntity
  8
0
  6
Continuous
 62
    16
100
AcDbCircle
 10
9.302626630505785
 20
11.761322640787
 30
0.0
 40
0.121875
100
AcDbArc
 50
90.0
 51
254.9106627487849
  0
LINE
  5
DE
330
45
100
AcDbEntity
  8
0
  6
Continuous
 62
    16
100
AcDbLine
 10
9.302626630505785
 20
8.470697640787364
 30
0.0
 11
10.76512663050588
 21
8.470697640787364
 31
0.0
  0
ARC
  5
DF
330
45
100
AcDbEntity
  8
0
  6
Continuous
 62
    16
100
AcDbCircle
 10
7.415168179766425
 20
10.542572640787
 30
0.0
 40
1.70625
100
AcDbArc
 50
270.0
 51
332.181860715346
  0
ARC
  5
E0
330
45
100
AcDbEntity
  8
0
  6
Continuous
 62
    16
100
AcDbCircle
 10
9.032022765064795
 20
9.689447640787364
 30
0.0
 40
0.121875
100
AcDbArc
 50
0.0
 51
152.1818607153462
  0
ARC
  5
E1
330
45
100
AcDbEntity
  8
0
  6
Continuous
 62
    16
100
AcDbCircle
 10
7.935147765064613
 20
9.689447640787364
 30
0.0
 40
1.21875
100
AcDbArc
 50
270.0
 51
0.0
  0
ARC
  5
E2
330
45
100
AcDbEntity
  8
0
  6
Continuous
 62
    16
100
AcDbCircle
 10
6.107022765064613
 20
9.080072640787364
 30
0.0
 40
0.24375
100
AcDbArc
 50
180.0
 51
270.0
  0
ARC
  5
E3
330
45
100
AcDbEntity
  8
0
  6
Continuous
 62
    16
100
AcDbCircle
 10
7.088970078795484
 20
10.23429550323857
 30
0.0
 40
0.7714321343087712
100
AcDbArc
 50
1.983446432504158
 51
90.50527446566518
  0
ARC
  5
E4
330
45
100
AcDbEntity
  8
0
  6
Continuous
 62
    16
100
AcDbCircle
 10
7.981794399208667
 20
10.25875330547382
 30
0.0
 40
0.121875
100
AcDbArc
 50
178.945910736507
 51
0.0
  0
ARC
  5
E5
330
45
100
AcDbEntity
  8
0
  6
Continuous
 62
    16
100
AcDbCircle
 10
7.099259390339995
 20
12.12694764078736
 30
0.0
 40
0.7312500000000002
100
AcDbArc
 50
270.0
 51
348.4630409671844
  0
ARC
  5
E6
330
45
100
AcDbEntity
  8
0
  6
Continuous
 62
    16
100
AcDbCircle
 10
7.935147765064613
 20
11.95632264078716
 30
0.0
 40
0.121875
100
AcDbArc
 50
0.0
 51
168.4630409671844
  0
LINE
  5
E7
330
45
100
AcDbEntity
  8
0
  6
Continuous
 62
    16
100
AcDbLine
 10
8.057022765064886
 20
11.95632264078716
 30
0.0
 11
8.103669399208485
 21
10.25875330547382
 31
0.0
  0
ARC
  5
E8
330
45
100
AcDbEntity
  8
0
  6
Continuous
 62
    16
100
AcDbCircle
 10
5.985147765064795
 20
10.88382264078695
 30
0.0
 40
0.121875
100
AcDbArc
 50
90.00000000000001
 51
180.0
  0
LINE
  5
E9
330
45
100
AcDbEntity
  8
0
  6
Continuous
 62
    16
100
AcDbLine
 10
5.863272765064977
 20
10.88382264078695
 30
0.0
 11
5.863272765064977
 21
9.080072640787364
 31
0.0
  0
ARC
  5
EA
330
45
100
AcDbEntity
  8
0
  6
Continuous
 62
    16
100
AcDbCircle
 10
5.985147765064795
 20
11.51757264078736
 30
0.0
 40
0.121875
100
AcDbArc
 50
180.0
 51
270.0
  0
LINE
  5
EB
330
45
100
AcDbEntity
  8
0
  6
Continuous
 62
    16
100
AcDbLine
 10
5.985147765064795
 20
11.00569764078722
 30
0.0
 11
7.082167136056142
 21
11.00569764078722
 31
0.0
  0
LINE
  5
EC
330
45
100
AcDbEntity
  8
0
  6
Continuous
 62
    16
100
AcDbLine
 10
5.985147765064795
 20
11.39569764078709
 30
0.0
 11
7.099259390339995
 21
11.39569764078709
 31
0.0
  0
ARC
  5
ED
330
45
100
AcDbEntity
  8
0
  6
Continuous
 62
    16
100
AcDbCircle
 10
6.009522765064759
 20
13.2227698058345
 30
0.0
 40
0.14625
100
AcDbArc
 50
100.0375301237075
 51
180.0
  0
ARC
  5
EE
330
45
100
AcDbEntity
  8
0
  6
Continuous
 62
    16
100
AcDbCircle
 10
8.184135999532174
 20
13.13396554780542
 30
0.0
 40
0.24375
100
AcDbArc
 50
11.91554144336952
 51
80.34504162044189
  0
ARC
  5
EF
330
45
100
AcDbEntity
  8
0
  6
Continuous
 62
    16
100
AcDbCircle
 10
7.126077885226351
 20
6.914636051910691
 30
0.0
 40
6.55243816409218
100
AcDbArc
 50
80.34504162044209
 51
100.0375301237077
  0
LINE
  5
F0
330
45
100
AcDbEntity
  8
0
  6
Continuous
 62
    16
100
AcDbLine
 10
8.607369430908676
 20
12.57410501163434
 30
0.0
 11
8.422633922268489
 21
13.18429251225501
 31
0.0
  0
ARC
  5
F1
330
45
100
AcDbEntity
  8
0
  6
Continuous
 62
    16
100
AcDbCircle
 10
8.722373726037205
 20
12.61444764078709
 30
0.0
 40
0.121875
100
AcDbArc
 50
184.5006017563728
 51
0.0
  0
ARC
  5
F2
330
45
100
AcDbEntity
  8
0
  6
Continuous
 62
    16
100
AcDbCircle
 10
8.666397765064886
 20
13.71132264078727
 30
0.0
 40
0.121875
100
AcDbArc
 50
0.0
 51
90.0
  0
LINE
  5
F3
330
45
100
AcDbEntity
  8
0
  6
Continuous
 62
    16
100
AcDbLine
 10
8.788272765064704
 20
13.71132264078727
 30
0.0
 11
8.844248726037478
 21
12.61444764078709
 31
0.0
  0
ARC
  5
F4
330
45
100
AcDbEntity
  8
0
  6
Continuous
 62
    16
100
AcDbCircle
 10
4.157022765064795
 20
13.0441705585244
 30
0.0
 40
0.4875
100
AcDbArc
 50
0.0
 51
81.94974620412304
  0
ARC
  5
F5
330
45
100
AcDbEntity
  8
0
  6
Continuous
 62
    16
100
AcDbCircle
 10
4.157022765064795
 20
9.259724723050056
 30
0.0
 40
0.4875
100
AcDbArc
 50
278.0502537958771
 51
0.0
  0
LINE
  5
F6
330
45
100
AcDbEntity
  8
0
  6
Continuous
 62
    16
100
AcDbLine
 10
4.225293047841461
 20
8.777028733332315
 30
0.0
 11
3.774330194370378
 21
8.71324663821673
 31
0.0
  0
LINE
  5
F7
330
45
100
AcDbEntity
  8
0
  6
Continuous
 62
    16
100
AcDbLine
 10
4.225293047841461
 20
13.52686654824214
 30
0.0
 11
3.774330194370378
 21
13.59064864335772
 31
0.0
  0
ARC
  5
F8
330
45
100
AcDbEntity
  8
0
  6
Continuous
 62
    16
100
AcDbCircle
 10
3.791397765064886
 20
8.592572640787182
 30
0.0
 40
0.121875
100
AcDbArc
 50
98.0502537958774
 51
270.0
  0
ARC
  5
F9
330
45
100
AcDbEntity
  8
0
  6
Continuous
 62
    16
100
AcDbCircle
 10
3.791397765064886
 20
13.71132264078727
 30
0.0
 40
0.121875
100
AcDbArc
 50
90.0
 51
261.9497462041234
  0
LINE
  5
FA
330
45
100
AcDbEntity
  8
0
  6
Continuous
 62
    16
100
AcDbLine
 10
6.107022765064613
 20
8.836322640787273
 30
0.0
 11
7.415168179766425
 21
8.836322640787273
 31
0.0
  0
LINE
  5
FB
330
45
100
AcDbEntity
  8
0
  6
Continuous
 62
    16
100
AcDbLine
 10
5.863272765064977
 20
13.2227698058345
 30
0.0
 11
5.863272765064977
 21
11.51757264078736
 31
0.0
  0
LINE
  5
FC
330
45
100
AcDbEntity
  8
0
  6
Continuous
 62
    16
100
AcDbLine
 10
3.791397765064886
 20
13.83319764078709
 30
0.0
 11
8.666397765064886
 21
13.83319764078709
 31
0.0
  0
LINE
  5
FD
330
45
100
AcDbEntity
  8
0
  6
Continuous
 62
    16
100
AcDbLine
 10
3.791397765064886
 20
8.470697640787364
 30
0.0
 11
7.935147765064613
 21
8.470697640787364
 31
0.0
  0
LINE
  5
FE
330
45
100
AcDbEntity
  8
0
  6
Continuous
 62
    16
100
AcDbLine
 10
4.644522765064977
 20
13.0441705585244
 30
0.0
 11
4.644522765064977
 21
9.259724723050056
 31
0.0
  0
ARC
  5
FF
330
45
100
AcDbEntity
  8
0
  6
Continuous
 62
    16
100
AcDbCircle
 10
21.55461477931547
 20
10.66896896143993
 30
0.0
 40
0.121875
100
AcDbArc
 50
184.9902678055532
 51
270.0
  0
ARC
  5
100
330
45
100
AcDbEntity
  8
0
  6
Continuous
 62
    16
100
AcDbCircle
 10
23.07270073149337
 20
10.66896896143993
 30
0.0
 40
0.121875
100
AcDbArc
 50
270.0
 51
355.0097321944468
  0
ARC
  5
101
330
45
100
AcDbEntity
  8
0
  6
Continuous
 62
    16
100
AcDbCircle
 10
22.31365775540442
 20
10.73524670188311
 30
0.0
 40
0.8838060850910612
100
AcDbArc
 50
355.0097321944468
 51
184.9902678055533
  0
ARC
  5
102
330
45
100
AcDbEntity
  8
0
  6
Continuous
 62
    16
100
AcDbCircle
 10
24.74508619722045
 20
11.761322640787
 30
0.0
 40
0.121875
100
AcDbArc
 50
90.0
 51
254.9106627487849
  0
ARC
  5
103
330
45
100
AcDbEntity
  8
0
  6
Continuous
 62
    16
100
AcDbCircle
 10
24.45954239974733
 20
10.70226669073094
 30
0.0
 40
0.9750000000000001
100
AcDbArc
 50
46.97493401088205
 51
74.91066274878528
  0
ARC
  5
104
330
45
100
AcDbEntity
  8
0
  6
Continuous
 62
    16
100
AcDbCircle
 10
24.74508619722045
 20
8.592572640787182
 30
0.0
 40
0.121875
100
AcDbArc
 50
109.0460469748607
 51
270.0
  0
LINE
  5
105
330
45
100
AcDbEntity
  8
0
  6
Continuous
 62
    16
100
AcDbLine
 10
14.84074997534324
 20
8.470697640787364
 30
0.0
 11
17.02494125319006
 21
8.470697640787364
 31
0.0
  0
LINE
  5
106
330
45
100
AcDbEntity
  8
0
  6
Continuous
 62
    16
100
AcDbLine
 10
22.59763057695753
 20
8.470697640787364
 30
0.0
 11
22.41115775540428
 21
8.47243786311077
 31
0.0
  0
ARC
  5
107
330
45
100
AcDbEntity
  8
0
  6
Continuous
 62
    16
100
AcDbCircle
 10
24.22861154039109
 20
10.34757264078729
 30
0.0
 40
0.121875
100
AcDbArc
 50
270.000000000013
 51
7.150315949103082
  0
ARC
  5
108
330
45
100
AcDbEntity
  8
0
  6
Continuous
 62
    16
100
AcDbCircle
 10
21.55335381605872
 20
10.1038226407872
 30
0.0
 40
0.121875
100
AcDbArc
 50
90.0
 51
181.8543561911767
  0
ARC
  5
109
330
45
100
AcDbEntity
  8
0
  6
Continuous
 62
    16
100
AcDbCircle
 10
22.54222743913104
 20
12.94679563860558
 30
0.0
 40
3.923361595779913
100
AcDbArc
 50
270.017156252833
 51
294.6841464046809
  0
ARC
  5
10A
330
45
100
AcDbEntity
  8
0
  6
Continuous
 62
    16
100
AcDbCircle
 10
22.54340222343561
 20
10.13587637484665
 30
0.0
 40
1.112442156136357
100
AcDbArc
 50
181.8543561911769
 51
270.4458215539496
  0
ARC
  5
10B
330
45
100
AcDbEntity
  8
0
  6
Continuous
 62
    16
100
AcDbCircle
 10
22.59763057695753
 20
10.90819764078736
 30
0.0
 40
2.4375
100
AcDbArc
 50
270.0
 51
315.1491919008036
  0
ARC
  5
10C
330
45
100
AcDbEntity
  8
0
  6
Continuous
 62
    16
100
AcDbCircle
 10
24.23928275540428
 20
9.275072640787073
 30
0.0
 40
0.121875
100
AcDbArc
 50
315.1491919008037
 51
118.7379385920353
  0
LINE
  5
10D
330
45
100
AcDbEntity
  8
0
  6
Continuous
 62
    16
100
AcDbLine
 10
21.55461477931547
 20
10.54709396143966
 30
0.0
 11
23.07270073149337
 21
10.54709396143966
 31
0.0
  0
LINE
  5
10E
330
45
100
AcDbEntity
  8
0
  6
Continuous
 62
    16
100
AcDbLine
 10
21.55335381605872
 20
10.22569764078702
 30
0.0
 11
24.22861154039109
 21
10.22569764078702
 31
0.0
  0
LINE
  5
10F
330
45
100
AcDbEntity
  8
0
  6
Continuous
 62
    16
100
AcDbLine
 10
24.34953871986116
 20
10.36274277230763
 30
0.0
 11
24.33575801512305
 21
10.45116375668425
 31
0.0
  0
LINE
  5
110
330
45
100
AcDbEntity
  8
0
  6
Continuous
 62
    16
100
AcDbLine
 10
24.33575801512305
 20
10.45116375668425
 30
0.0
 11
24.31670211485041
 21
10.53883313374757
 31
0.0
  0
LINE
  5
111
330
45
100
AcDbEntity
  8
0
  6
Continuous
 62
    16
100
AcDbLine
 10
24.31670211485041
 20
10.53883313374757
 30
0.0
 11
24.29242324994155
 21
10.6255106078292
 31
0.0
  0
LINE
  5
112
330
45
100
AcDbEntity
  8
0
  6
Continuous
 62
    16
100
AcDbLine
 10
24.29242324994155
 20
10.6255106078292
 30
0.0
 11
24.26298796707695
 21
10.71095860199733
 31
0.0
  0
LINE
  5
113
330
45
100
AcDbEntity
  8
0
  6
Continuous
 62
    16
100
AcDbLine
 10
24.26298796707695
 20
10.71095860199733
 30
0.0
 11
24.22847694632108
 21
10.79494290923952
 31
0.0
  0
LINE
  5
114
330
45
100
AcDbEntity
  8
0
  6
Continuous
 62
    16
100
AcDbLine
 10
24.22847694632108
 20
10.79494290923952
 30
0.0
 11
24.18898477998371
 21
10.87723333440675
 31
0.0
  0
LINE
  5
115
330
45
100
AcDbEntity
  8
0
  6
Continuous
 62
    16
100
AcDbLine
 10
24.18898477998371
 20
10.87723333440675
 30
0.0
 11
24.14461971334711
 21
10.95760432516448
 31
0.0
  0
LINE
  5
116
330
45
100
AcDbEntity
  8
0
  6
Continuous
 62
    16
100
AcDbLine
 10
24.14461971334711
 20
10.95760432516448
 30
0.0
 11
24.09550334797521
 21
11.03583559021303
 31
0.0
  0
LINE
  5
117
330
45
100
AcDbEntity
  8
0
  6
Continuous
 62
    16
100
AcDbLine
 10
24.09550334797521
 20
11.03583559021303
 30
0.0
 11
24.04177030841154
 21
11.11171270309291
 31
0.0
  0
LINE
  5
118
330
45
100
AcDbEntity
  8
0
  6
Continuous
 62
    16
100
AcDbLine
 10
24.04177030841154
 20
11.11171270309291
 30
0.0
 11
23.98356787318224
 21
11.18502768991169
 31
0.0
  0
LINE
  5
119
330
45
100
AcDbEntity
  8
0
  6
Continuous
 62
    16
100
AcDbLine
 10
23.98356787318224
 20
11.18502768991169
 30
0.0
 11
23.92105557111725
 21
11.25557959938618
 31
0.0
  0
LINE
  5
11A
330
45
100
AcDbEntity
  8
0
  6
Continuous
 62
    16
100
AcDbLine
 10
23.92105557111725
 20
11.25557959938618
 30
0.0
 11
23.85440474409123
 21
11.32317505363739
 31
0.0
  0
LINE
  5
11B
330
45
100
AcDbEntity
  8
0
  6
Continuous
 62
    16
100
AcDbLine
 10
23.85440474409123
 20
11.32317505363739
 30
0.0
 11
23.78379807738773
 21
11.38762877822313
 31
0.0
  0
LINE
  5
11C
330
45
100
AcDbEntity
  8
0
  6
Continuous
 62
    16
100
AcDbLine
 10
23.78379807738773
 20
11.38762877822313
 30
0.0
 11
23.70942909897283
 21
11.44876410996443
 31
0.0
  0
LINE
  5
11D
330
45
100
AcDbEntity
  8
0
  6
Continuous
 62
    16
100
AcDbLine
 10
23.70942909897283
 20
11.44876410996443
 30
0.0
 11
23.63150164904735
 21
11.50641348116682
 31
0.0
  0
LINE
  5
11E
330
45
100
AcDbEntity
  8
0
  6
Continuous
 62
    16
100
AcDbLine
 10
23.63150164904735
 20
11.50641348116682
 30
0.0
 11
23.55022932133423
 21
11.56041887891064
 31
0.0
  0
LINE
  5
11F
330
45
100
AcDbEntity
  8
0
  6
Continuous
 62
    16
100
AcDbLine
 10
23.55022932133423
 20
11.56041887891064
 30
0.0
 11
23.46583487763453
 21
11.6106322781547
 31
0.0
  0
LINE
  5
120
330
45
100
AcDbEntity
  8
0
  6
Continuous
 62
    16
100
AcDbLine
 10
23.46583487763453
 20
11.6106322781547
 30
0.0
 11
23.37854963725275
 21
11.65691604746183
 31
0.0
  0
LINE
  5
121
330
45
100
AcDbEntity
  8
0
  6
Continuous
 62
    16
100
AcDbLine
 10
23.37854963725275
 20
11.65691604746183
 30
0.0
 11
23.28861284296525
 21
11.69914332623779
 31
0.0
  0
LINE
  5
122
330
45
100
AcDbEntity
  8
0
  6
Continuous
 62
    16
100
AcDbLine
 10
23.28861284296525
 20
11.69914332623779
 30
0.0
 11
23.19627100527421
 21
11.73719837244647
 31
0.0
  0
LINE
  5
123
330
45
100
AcDbEntity
  8
0
  6
Continuous
 62
    16
100
AcDbLine
 10
23.19627100527421
 20
11.73719837244647
 30
0.0
 11
23.1017772267376
 21
11.77097687985128
 31
0.0
  0
LINE
  5
124
330
45
100
AcDbEntity
  8
0
  6
Continuous
 62
    16
100
AcDbLine
 10
23.1017772267376
 20
11.77097687985128
 30
0.0
 11
23.00539050823434
 21
11.80038626391155
 31
0.0
  0
LINE
  5
125
330
45
100
AcDbEntity
  8
0
  6
Continuous
 62
    16
100
AcDbLine
 10
23.00539050823434
 20
11.80038626391155
 30
0.0
 11
22.90737503906055
 21
11.82534591554935
 31
0.0
  0
LINE
  5
126
330
45
100
AcDbEntity
  8
0
  6
Continuous
 62
    16
100
AcDbLine
 10
22.90737503906055
 20
11.82534591554935
 30
0.0
 11
22.80799947280346
 21
11.84578742209482
 31
0.0
  0
LINE
  5
127
330
45
100
AcDbEntity
  8
0
  6
Continuous
 62
    16
100
AcDbLine
 10
22.80799947280346
 20
11.84578742209482
 30
0.0
 11
22.70753619098312
 21
11.86165475479987
 31
0.0
  0
LINE
  5
128
330
45
100
AcDbEntity
  8
0
  6
Continuous
 62
    16
100
AcDbLine
 10
22.70753619098312
 20
11.86165475479987
 30
0.0
 11
22.60626055647234
 21
11.87290442240732
 31
0.0
  0
LINE
  5
129
330
45
100
AcDbEntity
  8
0
  6
Continuous
 62
    16
100
AcDbLine
 10
22.60626055647234
 20
11.87290442240732
 30
0.0
 11
22.50445015874473
 21
11.87950559036148
 31
0.0
  0
LINE
  5
12A
330
45
100
AcDbEntity
  8
0
  6
Continuous
 62
    16
100
AcDbLine
 10
22.50445015874473
 20
11.87950559036148
 30
0.0
 11
22.40238405302469
 21
11.88144016531891
 31
0.0
  0
LINE
  5
12B
330
45
100
AcDbEntity
  8
0
  6
Continuous
 62
    16
100
AcDbLine
 10
22.40238405302469
 20
11.88144016531891
 30
0.0
 11
22.30034199541277
 21
11.87870284474405
 31
0.0
  0
LINE
  5
12C
330
45
100
AcDbEntity
  8
0
  6
Continuous
 62
    16
100
AcDbLine
 10
22.30034199541277
 20
11.87870284474405
 30
0.0
 11
22.19860367609616
 21
11.87130113144298
 31
0.0
  0
LINE
  5
12D
330
45
100
AcDbEntity
  8
0
  6
Continuous
 62
    16
100
AcDbLine
 10
22.19860367609616
 20
11.87130113144298
 30
0.0
 11
22.09744795273699
 21
11.85925531299739
 31
0.0
  0
LINE
  5
12E
330
45
100
AcDbEntity
  8
0
  6
Continuous
 62
    16
100
AcDbLine
 10
22.09744795273699
 20
11.85925531299739
 30
0.0
 11
21.99715208614069
 21
11.84259840615772
 31
0.0
  0
LINE
  5
12F
330
45
100
AcDbEntity
  8
0
  6
Continuous
 62
    16
100
AcDbLine
 10
21.99715208614069
 20
11.84259840615772
 30
0.0
 11
21.89799098030679
 21
11.82137606634836
 31
0.0
  0
LINE
  5
130
330
45
100
AcDbEntity
  8
0
  6
Continuous
 62
    16
100
AcDbLine
 10
21.89799098030679
 20
11.82137606634836
 30
0.0
 11
21.80023642893391
 21
11.79564646252715
 31
0.0
  0
LINE
  5
131
330
45
100
AcDbEntity
  8
0
  6
Continuous
 62
    16
100
AcDbLine
 10
21.80023642893391
 20
11.79564646252715
 30
0.0
 11
21.70415637045178
 21
11.76548011774997
 31
0.0
  0
LINE
  5
132
330
45
100
AcDbEntity
  8
0
  6
Continuous
 62
    16
100
AcDbLine
 10
21.70415637045178
 20
11.76548011774997
 30
0.0
 11
21.61001415362333
 21
11.73095971587094
 31
0.0
  0
LINE
  5
133
330
45
100
AcDbEntity
  8
0
  6
Continuous
 62
    16
100
AcDbLine
 10
21.61001415362333
 20
11.73095971587094
 30
0.0
 11
21.51806781572012
 21
11.69217987491214
 31
0.0
  0
LINE
  5
134
330
45
100
AcDbEntity
  8
0
  6
Continuous
 62
    16
100
AcDbLine
 10
21.51806781572012
 20
11.69217987491214
 30
0.0
 11
21.42856937526383
 21
11.6492468877222
 31
0.0
  0
LINE
  5
135
330
45
100
AcDbEntity
  8
0
  6
Continuous
 62
    16
100
AcDbLine
 10
21.42856937526383
 20
11.6492468877222
 30
0.0
 11
21.34176414125866
 21
11.60227843063461
 31
0.0
  0
LINE
  5
136
330
45
100
AcDbEntity
  8
0
  6
Continuous
 62
    16
100
AcDbLine
 10
21.34176414125866
 20
11.60227843063461
 30
0.0
 11
21.25789004081687
 21
11.55140324092594
 31
0.0
  0
LINE
  5
137
330
45
100
AcDbEntity
  8
0
  6
Continuous
 62
    16
100
AcDbLine
 10
21.25789004081687
 20
11.55140324092594
 30
0.0
 11
21.17717696701837
 21
11.49676076395411
 31
0.0
  0
LINE
  5
138
330
45
100
AcDbEntity
  8
0
  6
Continuous
 62
    16
100
AcDbLine
 10
21.17717696701837
 20
11.49676076395411
 30
0.0
 11
21.0998461487882
 21
11.43850077095107
 31
0.0
  0
LINE
  5
139
330
45
100
AcDbEntity
  8
0
  6
Continuous
 62
    16
100
AcDbLine
 10
21.0998461487882
 20
11.43850077095107
 30
0.0
 11
21.02610954452328
 21
11.37678294850724
 31
0.0
  0
LINE
  5
13A
330
45
100
AcDbEntity
  8
0
  6
Continuous
 62
    16
100
AcDbLine
 10
21.02610954452328
 20
11.37678294850724
 30
0.0
 11
20.95616926113078
 21
11.31177646088503
 31
0.0
  0
LINE
  5
13B
330
45
100
AcDbEntity
  8
0
  6
Continuous
 62
    16
100
AcDbLine
 10
20.95616926113078
 20
11.31177646088503
 30
0.0
 11
20.89021700006631
 21
11.24365948634744
 31
0.0
  0
LINE
  5
13C
330
45
100
AcDbEntity
  8
0
  6
Continuous
 62
    16
100
AcDbLine
 10
20.89021700006631
 20
11.24365948634744
 30
0.0
 11
20.8284335318929
 21
11.17261872878765
 31
0.0
  0
LINE
  5
13D
330
45
100
AcDbEntity
  8
0
  6
Continuous
 62
    16
100
AcDbLine
 10
20.8284335318929
 20
11.17261872878765
 30
0.0
 11
20.7709882008019
 21
11.09884890598408
 31
0.0
  0
LINE
  5
13E
330
45
100
AcDbEntity
  8
0
  6
Continuous
 62
    16
100
AcDbLine
 10
20.7709882008019
 20
11.09884890598408
 30
0.0
 11
20.71803846045376
 21
11.02255221589297
 31
0.0
  0
LINE
  5
13F
330
45
100
AcDbEntity
  8
0
  6
Continuous
 62
    16
100
AcDbLine
 10
20.71803846045376
 20
11.02255221589297
 30
0.0
 11
20.6697294424055
 21
10.9439377824387
 31
0.0
  0
LINE
  5
140
330
45
100
AcDbEntity
  8
0
  6
Continuous
 62
    16
100
AcDbLine
 10
20.6697294424055
 20
10.9439377824387
 30
0.0
 11
20.62619355831819
 21
10.86322108231883
 31
0.0
  0
LINE
  5
141
330
45
100
AcDbEntity
  8
0
  6
Continuous
 62
    16
100
AcDbLine
 10
20.62619355831819
 20
10.86322108231883
 30
0.0
 11
20.58755013702356
 21
10.7806233543983
 31
0.0
  0
LINE
  5
142
330
45
100
AcDbEntity
  8
0
  6
Continuous
 62
    16
100
AcDbLine
 10
20.58755013702356
 20
10.7806233543983
 30
0.0
 11
20.55390509745374
 21
10.69637099330743
 31
0.0
  0
LINE
  5
143
330
45
100
AcDbEntity
  8
0
  6
Continuous
 62
    16
100
AcDbLine
 10
20.55390509745374
 20
10.69637099330743
 30
0.0
 11
20.52535065832333
 21
10.61069492891232
 31
0.0
  0
LINE
  5
144
330
45
100
AcDbEntity
  8
0
  6
Continuous
 62
    16
100
AcDbLine
 10
20.52535065832333
 20
10.61069492891232
 30
0.0
 11
20.5019650853649
 21
10.52382999334981
 31
0.0
  0
LINE
  5
145
330
45
100
AcDbEntity
  8
0
  6
Continuous
 62
    16
100
AcDbLine
 10
20.5019650853649
 20
10.52382999334981
 30
0.0
 11
20.48381247680871
 21
10.43601427737025
 31
0.0
  0
LINE
  5
146
330
45
100
AcDbEntity
  8
0
  6
Continuous
 62
    16
100
AcDbLine
 10
20.48381247680871
 20
10.43601427737025
 30
0.0
 11
20.47094258769337
 21
10.34748847774739
 31
0.0
  0
LINE
  5
147
330
45
100
AcDbEntity
  8
0
  6
Continuous
 62
    16
100
AcDbLine
 10
20.47094258769337
 20
10.34748847774739
 30
0.0
 11
20.46339069348986
 21
10.25849523754499
 31
0.0
  0
LINE
  5
148
330
45
100
AcDbEntity
  8
0
  6
Continuous
 62
    16
100
AcDbLine
 10
20.46339069348986
 20
10.25849523754499
 30
0.0
 11
20.46117749341536
 21
10.16927848104746
 31
0.0
  0
LINE
  5
149
330
45
100
AcDbEntity
  8
0
  6
Continuous
 62
    16
100
AcDbLine
 10
20.46117749341536
 20
10.16927848104746
 30
0.0
 11
20.46430905369724
 21
10.08008274518437
 31
0.0
  0
LINE
  5
14A
330
45
100
AcDbEntity
  8
0
  6
Continuous
 62
    16
100
AcDbLine
 10
20.46430905369724
 20
10.08008274518437
 30
0.0
 11
20.47277679094694
 21
9.991152509266556
 31
0.0
  0
LINE
  5
14B
330
45
100
AcDbEntity
  8
0
  6
Continuous
 62
    16
100
AcDbLine
 10
20.47277679094694
 20
9.991152509266556
 30
0.0
 11
20.48655749568505
 21
9.90273152488993
 31
0.0
  0
LINE
  5
14C
330
45
100
AcDbEntity
  8
0
  6
Continuous
 62
    16
100
AcDbLine
 10
20.48655749568505
 20
9.90273152488993
 30
0.0
 11
20.50561339595768
 21
9.815062147826609
 31
0.0
  0
LINE
  5
14D
330
45
100
AcDbEntity
  8
0
  6
Continuous
 62
    16
100
AcDbLine
 10
20.50561339595768
 20
9.815062147826609
 30
0.0
 11
20.529892260867
 21
9.728384673744984
 31
0.0
  0
LINE
  5
14E
330
45
100
AcDbEntity
  8
0
  6
Continuous
 62
    16
100
AcDbLine
 10
20.529892260867
 20
9.728384673744984
 30
0.0
 11
20.5593275437316
 21
9.642936679576849
 31
0.0
  0
LINE
  5
14F
330
45
100
AcDbEntity
  8
0
  6
Continuous
 62
    16
100
AcDbLine
 10
20.5593275437316
 20
9.642936679576849
 30
0.0
 11
20.59383856448702
 21
9.558952372335114
 31
0.0
  0
LINE
  5
150
330
45
100
AcDbEntity
  8
0
  6
Continuous
 62
    16
100
AcDbLine
 10
20.59383856448702
 20
9.558952372335114
 30
0.0
 11
20.63333073082438
 21
9.476661947167429
 31
0.0
  0
LINE
  5
151
330
45
100
AcDbEntity
  8
0
  6
Continuous
 62
    16
100
AcDbLine
 10
20.63333073082438
 20
9.476661947167429
 30
0.0
 11
20.67769579746144
 21
9.3962909564097
 31
0.0
  0
LINE
  5
152
330
45
100
AcDbEntity
  8
0
  6
Continuous
 62
    16
100
AcDbLine
 10
20.67769579746144
 20
9.3962909564097
 30
0.0
 11
20.72681216283334
 21
9.318059691361157
 31
0.0
  0
LINE
  5
153
330
45
100
AcDbEntity
  8
0
  6
Continuous
 62
    16
100
AcDbLine
 10
20.72681216283334
 20
9.318059691361157
 30
0.0
 11
20.78054520239701
 21
9.242182578481732
 31
0.0
  0
LINE
  5
154
330
45
100
AcDbEntity
  8
0
  6
Continuous
 62
    16
100
AcDbLine
 10
20.78054520239701
 20
9.242182578481732
 30
0.0
 11
20.83874763762586
 21
9.168867591662945
 31
0.0
  0
LINE
  5
155
330
45
100
AcDbEntity
  8
0
  6
Continuous
 62
    16
100
AcDbLine
 10
20.83874763762586
 20
9.168867591662945
 30
0.0
 11
20.90125993969085
 21
9.098315682188002
 31
0.0
  0
LINE
  5
156
330
45
100
AcDbEntity
  8
0
  6
Continuous
 62
    16
100
AcDbLine
 10
20.90125993969085
 20
9.098315682188002
 30
0.0
 11
20.96791076671732
 21
9.030720227937252
 31
0.0
  0
LINE
  5
157
330
45
100
AcDbEntity
  8
0
  6
Continuous
 62
    16
100
AcDbLine
 10
20.96791076671732
 20
9.030720227937252
 30
0.0
 11
21.03851743342037
 21
8.966266503351505
 31
0.0
  0
LINE
  5
158
330
45
100
AcDbEntity
  8
0
  6
Continuous
 62
    16
100
AcDbLine
 10
21.03851743342037
 20
8.966266503351505
 30
0.0
 11
21.11288641183526
 21
8.905131171609753
 31
0.0
  0
LINE
  5
159
330
45
100
AcDbEntity
  8
0
  6
Continuous
 62
    16
100
AcDbLine
 10
21.11288641183526
 20
8.905131171609753
 30
0.0
 11
21.1908138617612
 21
8.84748180040782
 31
0.0
  0
LINE
  5
15A
330
45
100
AcDbEntity
  8
0
  6
Continuous
 62
    16
100
AcDbLine
 10
21.1908138617612
 20
8.84748180040782
 30
0.0
 11
21.27208618947432
 21
8.793476402663543
 31
0.0
  0
LINE
  5
15B
330
45
100
AcDbEntity
  8
0
  6
Continuous
 62
    16
100
AcDbLine
 10
21.27208618947432
 20
8.793476402663543
 30
0.0
 11
21.35648063317356
 21
8.743263003419486
 31
0.0
  0
LINE
  5
15C
330
45
100
AcDbEntity
  8
0
  6
Continuous
 62
    16
100
AcDbLine
 10
21.35648063317356
 20
8.743263003419486
 30
0.0
 11
21.44376587355535
 21
8.696979234112348
 31
0.0
  0
LINE
  5
15D
330
45
100
AcDbEntity
  8
0
  6
Continuous
 62
    16
100
AcDbLine
 10
21.44376587355535
 20
8.696979234112348
 30
0.0
 11
21.53370266784285
 21
8.654751955336394
 31
0.0
  0
LINE
  5
15E
330
45
100
AcDbEntity
  8
0
  6
Continuous
 62
    16
100
AcDbLine
 10
21.53370266784285
 20
8.654751955336394
 30
0.0
 11
21.62604450553434
 21
8.616696909128166
 31
0.0
  0
LINE
  5
15F
330
45
100
AcDbEntity
  8
0
  6
Continuous
 62
    16
100
AcDbLine
 10
21.62604450553434
 20
8.616696909128166
 30
0.0
 11
21.7205382840705
 21
8.582918401723362
 31
0.0
  0
LINE
  5
160
330
45
100
AcDbEntity
  8
0
  6
Continuous
 62
    16
100
AcDbLine
 10
21.7205382840705
 20
8.582918401723362
 30
0.0
 11
21.81692500257375
 21
8.553509017663089
 31
0.0
  0
LINE
  5
161
330
45
100
AcDbEntity
  8
0
  6
Continuous
 62
    16
100
AcDbLine
 10
21.81692500257375
 20
8.553509017663089
 30
0.0
 11
21.914940471748
 21
8.528549366024833
 31
0.0
  0
LINE
  5
162
330
45
100
AcDbEntity
  8
0
  6
Continuous
 62
    16
100
AcDbLine
 10
21.914940471748
 20
8.528549366024833
 30
0.0
 11
22.01431603800464
 21
8.508107859479367
 31
0.0
  0
LINE
  5
163
330
45
100
AcDbEntity
  8
0
  6
Continuous
 62
    16
100
AcDbLine
 10
22.01431603800464
 20
8.508107859479367
 30
0.0
 11
22.11477931982498
 21
8.492240526774765
 31
0.0
  0
LINE
  5
164
330
45
100
AcDbEntity
  8
0
  6
Continuous
 62
    16
100
AcDbLine
 10
22.11477931982498
 20
8.492240526774765
 30
0.0
 11
22.21605495433622
 21
8.480990859166866
 31
0.0
  0
LINE
  5
165
330
45
100
AcDbEntity
  8
0
  6
Continuous
 62
    16
100
AcDbLine
 10
22.21605495433622
 20
8.480990859166866
 30
0.0
 11
22.31786535206336
 21
8.474389691213162
 31
0.0
  0
LINE
  5
166
330
45
100
AcDbEntity
  8
0
  6
Continuous
 62
    16
100
AcDbLine
 10
22.31786535206336
 20
8.474389691213162
 30
0.0
 11
22.41115775540428
 21
8.47243786311077
 31
0.0
  0
ARC
  5
167
330
45
100
AcDbEntity
  8
0
  6
Continuous
 62
    16
100
AcDbCircle
 10
18.70007487521823
 20
11.39630511368426
 30
0.0
 40
2.925000000000001
100
AcDbArc
 50
262.9150790809728
 51
301.013264262784
  0
ARC
  5
168
330
45
100
AcDbEntity
  8
0
  6
Continuous
 62
    16
100
AcDbCircle
 10
19.41357091801663
 20
13.8421587900911
 30
0.0
 40
4.875
100
AcDbArc
 50
266.343705491231
 51
278.787123097336
  0
ARC
  5
169
330
45
100
AcDbEntity
  8
0
  6
Continuous
 62
    16
100
AcDbCircle
 10
19.12133996772243
 20
9.268986223732952
 30
0.0
 40
0.2925
100
AcDbArc
 50
180.0000000000001
 51
266.3437054912312
  0
ARC
  5
16A
330
45
100
AcDbEntity
  8
0
  6
Continuous
 62
    16
100
AcDbCircle
 10
18.41446496772258
 20
9.098361223732752
 30
0.0
 40
0.609375
100
AcDbArc
 50
180.0
 51
262.9150790809728
  0
ARC
  5
16B
330
45
100
AcDbEntity
  8
0
  6
Continuous
 62
    16
100
AcDbCircle
 10
20.16946496772269
 20
8.95211122373297
 30
0.0
 40
0.073125
100
AcDbArc
 50
293.3272787520449
 51
98.78712309733687
  0
LINE
  5
16C
330
45
100
AcDbEntity
  8
0
  6
Continuous
 62
    16
100
AcDbLine
 10
19.96672599704951
 20
12.1002582070841
 30
0.0
 11
19.78829593899152
 21
11.88319764078727
 31
0.0
  0
LINE
  5
16D
330
45
100
AcDbEntity
  8
0
  6
Continuous
 62
    16
100
AcDbLine
 10
19.82821496772274
 20
11.39569764078709
 30
0.0
 11
20.09071496772211
 21
12.0256976407872
 31
0.0
  0
ARC
  5
16E
330
45
100
AcDbEntity
  8
0
  6
Continuous
 62
    16
100
AcDbCircle
 10
20.02321496772245
 20
12.05382264078702
 30
0.0
 40
0.073125
100
AcDbArc
 50
337.3801350519598
 51
140.5788072314997
  0
LINE
  5
16F
330
45
100
AcDbEntity
  8
0
  6
Continuous
 62
    16
100
AcDbLine
 10
18.82883996772242
 20
11.88319764078727
 30
0.0
 11
18.82883996772242
 21
12.73632264078736
 31
0.0
  0
LINE
  5
170
330
45
100
AcDbEntity
  8
0
  6
Continuous
 62
    16
100
AcDbLine
 10
18.82883996772242
 20
11.39569764078709
 30
0.0
 11
19.82821496772274
 21
11.39569764078709
 31
0.0
  0
ARC
  5
171
330
45
100
AcDbEntity
  8
0
  6
Continuous
 62
    16
100
AcDbCircle
 10
11.36954890479572
 20
19.34058198874794
 30
0.0
 40
9.75
100
AcDbArc
 50
307.5845394141336
 51
318.0102642623348
  0
ARC
  5
172
330
45
100
AcDbEntity
  8
0
  6
Continuous
 62
    16
100
AcDbCircle
 10
18.7069649677226
 20
12.73632264078736
 30
0.0
 40
0.121875
100
AcDbArc
 50
0.0
 51
138.0102642623347
  0
ARC
  5
173
330
45
100
AcDbEntity
  8
0
  6
Continuous
 62
    16
100
AcDbCircle
 10
17.39071496772274
 20
11.51757264078736
 30
0.0
 40
0.121875
100
AcDbArc
 50
127.5845394141342
 51
270.0
  0
LINE
  5
174
330
45
100
AcDbEntity
  8
0
  6
Continuous
 62
    16
100
AcDbLine
 10
17.39071496772274
 20
11.39569764078709
 30
0.0
 11
17.80508996772258
 21
11.39569764078709
 31
0.0
  0
LINE
  5
175
330
45
100
AcDbEntity
  8
0
  6
Continuous
 62
    16
100
AcDbLine
 10
18.82883996772242
 20
9.268986223732952
 30
0.0
 11
18.82883996772242
 21
11.39569764078709
 31
0.0
  0
LINE
  5
176
330
45
100
AcDbEntity
  8
0
  6
Continuous
 62
    16
100
AcDbLine
 10
17.80508996772258
 20
9.098361223732752
 30
0.0
 11
17.80508996772258
 21
11.39569764078709
 31
0.0
  0
LINE
  5
177
330
45
100
AcDbEntity
  8
0
  6
Continuous
 62
    16
100
AcDbLine
 10
18.82883996772242
 20
11.88319764078727
 30
0.0
 11
19.78829593899152
 21
11.88319764078727
 31
0.0
  0
ARC
  5
178
330
45
100
AcDbEntity
  8
0
  6
Continuous
 62
    16
100
AcDbCircle
 10
14.86129645783765
 20
14.2617456274524
 30
0.0
 40
1.962906515032175
100
AcDbArc
 50
304.4189155261381
 51
325.764303502095
  0
ARC
  5
179
330
45
100
AcDbEntity
  8
0
  6
Continuous
 62
    16
100
AcDbCircle
 10
14.86129645783765
 20
12.17923342580883
 30
0.0
 40
1.962906515032175
100
AcDbArc
 50
34.23569649790501
 51
55.58108447386191
  0
ARC
  5
17A
330
45
100
AcDbEntity
  8
0
  6
Continuous
 62
    16
100
AcDbCircle
 10
16.94021759495925
 20
12.17923342580883
 30
0.0
 40
1.962906515032175
100
AcDbArc
 50
124.4189155261381
 51
145.764303502095
  0
ARC
  5
17B
330
45
100
AcDbEntity
  8
0
  6
Continuous
 62
    16
100
AcDbCircle
 10
16.94021759495925
 20
14.2617456274524
 30
0.0
 40
1.962906515032175
100
AcDbArc
 50
214.235696497905
 51
235.5810844738619
  0
ARC
  5
17C
330
45
100
AcDbEntity
  8
0
  6
Continuous
 62
    16
100
AcDbCircle
 10
15.90075702639822
 20
12.7268957766309
 30
0.0
 40
0.1096875
100
AcDbArc
 50
230.309072059704
 51
309.690927940296
  0
ARC
  5
17D
330
45
100
AcDbEntity
  8
0
  6
Continuous
 62
    16
100
AcDbCircle
 10
15.40716327639828
 20
13.22048952663084
 30
0.0
 40
0.1096875
100
AcDbArc
 50
144.8991158941796
 51
215.1008841058204
  0
ARC
  5
17E
330
45
100
AcDbEntity
  8
0
  6
Continuous
 62
    16
100
AcDbCircle
 10
15.90075702639822
 20
13.71408327663079
 30
0.0
 40
0.1096875
100
AcDbArc
 50
50.30907205969739
 51
129.6909279403026
  0
ARC
  5
17F
330
45
100
AcDbEntity
  8
0
  6
Continuous
 62
    16
100
AcDbCircle
 10
16.39435077639862
 20
13.22048952663084
 30
0.0
 40
0.1096875
100
AcDbArc
 50
324.8991158943591
 51
35.10088410564087
  0
ARC
  5
180
330
45
100
AcDbEntity
  8
0
  6
Continuous
 62
    16
100
AcDbCircle
 10
16.54699997534297
 20
8.894246613852772
 30
0.0
 40
0.121875
100
AcDbArc
 50
180.0
 51
263.2885414092329
  0
LINE
  5
181
330
45
100
AcDbEntity
  8
0
  6
Continuous
 62
    16
100
AcDbLine
 10
17.03918470633042
 20
8.713612467570272
 30
0.0
 11
16.53275652220262
 21
8.773206787069682
 31
0.0
  0
ARC
  5
182
330
45
100
AcDbEntity
  8
0
  6
Continuous
 62
    16
100
AcDbCircle
 10
17.02494125319006
 20
8.592572640787182
 30
0.0
 40
0.121875
100
AcDbArc
 50
270.0
 51
83.28854140923303
  0
ARC
  5
183
330
45
100
AcDbEntity
  8
0
  6
Continuous
 62
    16
100
AcDbCircle
 10
15.27949997534304
 20
8.88963475059785
 30
0.0
 40
0.121875
100
AcDbArc
 50
276.7114585907671
 51
0.0
  0
LINE
  5
184
330
45
100
AcDbEntity
  8
0
  6
Continuous
 62
    16
100
AcDbLine
 10
14.82650652220289
 20
8.713612467570272
 30
0.0
 11
15.29374342848294
 21
8.76859492381476
 31
0.0
  0
ARC
  5
185
330
45
100
AcDbEntity
  8
0
  6
Continuous
 62
    16
100
AcDbCircle
 10
14.84074997534324
 20
8.592572640787182
 30
0.0
 40
0.121875
100
AcDbArc
 50
96.71145859076694
 51
270.0
  0
LINE
  5
186
330
45
100
AcDbEntity
  8
0
  6
Continuous
 62
    16
100
AcDbLine
 10
15.27949997534304
 20
11.22308890377184
 30
0.0
 11
14.83350100315354
 21
11.24966341167914
 31
0.0
  0
ARC
  5
187
330
45
100
AcDbEntity
  8
0
  6
Continuous
 62
    16
100
AcDbCircle
 10
15.27949997534304
 20
11.10121390377157
 30
0.0
 40
0.121875
100
AcDbArc
 50
0.0
 51
90.0
  0
ARC
  5
188
330
45
100
AcDbEntity
  8
0
  6
Continuous
 62
    16
100
AcDbCircle
 10
13.03587211421134
 20
21.076802120031
 30
0.0
 40
9.75
100
AcDbArc
 50
280.5346603333461
 51
289.3281740229292
  0
ARC
  5
189
330
45
100
AcDbEntity
  8
0
  6
Continuous
 62
    16
100
AcDbCircle
 10
16.30324997534288
 20
11.761322640787
 30
0.0
 40
0.121875
100
AcDbArc
 50
0.0
 51
109.3281740229283
  0
ARC
  5
18A
330
45
100
AcDbEntity
  8
0
  6
Continuous
 62
    16
100
AcDbCircle
 10
14.84074997534324
 20
11.37132264078713
 30
0.0
 40
0.121875
100
AcDbArc
 50
100.534660333345
 51
266.5901063125458
  0
LINE
  5
18B
330
45
100
AcDbEntity
  8
0
  6
Continuous
 62
    16
100
AcDbLine
 10
16.42512497534315
 20
8.894246613852772
 30
0.0
 11
16.42512497534315
 21
11.761322640787
 31
0.0
  0
LINE
  5
18C
330
45
100
AcDbEntity
  8
0
  6
Continuous
 62
    16
100
AcDbLine
 10
15.40137497534286
 20
8.88963475059785
 30
0.0
 11
15.40137497534286
 21
11.10121390377157
 31
0.0
  0
LINE
  5
18D
330
45
100
AcDbEntity
  8
0
  6
Continuous
 62
    16
100
AcDbLine
 10
11.87888099084128
 20
8.470697640787364
 30
0.0
 11
14.07263099084119
 21
8.470697640787364
 31
0.0
  0
LINE
  5
18E
330
45
100
AcDbEntity
  8
0
  6
Continuous
 62
    16
100
AcDbLine
 10
12.6101309908411
 20
11.88319764078727
 30
0.0
 11
14.07263099084119
 21
11.88319764078727
 31
0.0
  0
ARC
  5
18F
330
45
100
AcDbEntity
  8
0
  6
Continuous
 62
    16
100
AcDbCircle
 10
12.83216940332139
 20
11.50272689024126
 30
0.0
 40
0.121875
100
AcDbArc
 50
308.233797137863
 51
86.30526971831486
  0
LINE
  5
190
330
45
100
AcDbEntity
  8
0
  6
Continuous
 62
    16
100
AcDbLine
 10
12.60227730176464
 20
11.63970095196095
 30
0.0
 11
12.84002309239739
 21
11.62434857906732
 31
0.0
  0
ARC
  5
191
330
45
100
AcDbEntity
  8
0
  6
Continuous
 62
    16
100
AcDbCircle
 10
12.6101309908411
 20
11.761322640787
 30
0.0
 40
0.121875
100
AcDbArc
 50
90.0
 51
266.3052697183143
  0
ARC
  5
192
330
45
100
AcDbEntity
  8
0
  6
Continuous
 62
    16
100
AcDbCircle
 10
12.22732675387513
 20
8.87301646384634
 30
0.0
 40
0.121875
100
AcDbArc
 50
275.8069532297311
 51
46.974934010882
  0
LINE
  5
193
330
45
100
AcDbEntity
  8
0
  6
Continuous
 62
    16
100
AcDbLine
 10
11.8665500400746
 20
8.713822231624306
 30
0.0
 11
12.23965770464181
 21
8.751766873009217
 31
0.0
  0
ARC
  5
194
330
45
100
AcDbEntity
  8
0
  6
Continuous
 62
    16
100
AcDbCircle
 10
11.87888099084128
 20
8.592572640787182
 30
0.0
 40
0.121875
100
AcDbArc
 50
95.80695322973123
 51
270.0
  0
LINE
  5
195
330
45
100
AcDbEntity
  8
0
  6
Continuous
 62
    16
100
AcDbLine
 10
11.50980059521433
 20
11.64018919042559
 30
0.0
 11
11.13777556898211
 21
11.59896151295101
 31
0.0
  0
ARC
  5
196
330
45
100
AcDbEntity
  8
0
  6
Continuous
 62
    16
100
AcDbCircle
 10
11.49637663050569
 20
11.761322640787
 30
0.0
 40
0.121875
100
AcDbArc
 50
276.3236945086078
 51
90.0
  0
ARC
  5
197
330
45
100
AcDbEntity
  8
0
  6
Continuous
 62
    16
100
AcDbCircle
 10
14.64047966075648
 20
9.26573688215234
 30
0.0
 40
2.4375
100
AcDbArc
 50
102.8188940537166
 51
128.2337971378629
  0
ARC
  5
198
330
45
100
AcDbEntity
  8
0
  6
Continuous
 62
    16
100
AcDbCircle
 10
14.07263099084119
 20
11.761322640787
 30
0.0
 40
0.121875
100
AcDbArc
 50
282.8188940537166
 51
90.0
  0
LINE
  5
199
330
45
100
AcDbEntity
  8
0
  6
Continuous
 62
    16
100
AcDbLine
 10
13.13197954540126
 20
11.18037357144152
 30
0.0
 11
12.13385424051447
 21
10.39397260775826
 31
0.0
  0
LINE
  5
19A
330
45
100
AcDbEntity
  8
0
  6
Continuous
 62
    16
100
AcDbLine
 10
12.90759440908894
 20
11.4069950557768
 30
0.0
 11
11.89947883930543
 21
10.61272298221996
 31
0.0
  0
ARC
  5
19B
330
45
100
AcDbEntity
  8
0
  6
Continuous
 62
    16
100
AcDbCircle
 10
14.35817478831385
 20
9.6516285908437
 30
0.0
 40
0.9750000000000001
100
AcDbArc
 50
226.9749340108821
 51
254.9106627487853
  0
ARC
  5
19C
330
45
100
AcDbEntity
  8
0
  6
Continuous
 62
    16
100
AcDbCircle
 10
14.07263099084119
 20
8.592572640787182
 30
0.0
 40
0.121875
100
AcDbArc
 50
270.0
 51
74.91066274878406
  0
LINE
  5
19D
330
45
100
AcDbEntity
  8
0
  6
Continuous
 62
    16
100
AcDbLine
 10
13.69291449421306
 20
8.938849704306847
 30
0.0
 11
12.13385424051447
 21
10.39397260775826
 31
0.0
  0
LINE
  5
19E
330
45
100
AcDbEntity
  8
0
  6
Continuous
 62
    16
100
AcDbLine
 10
12.31048429063802
 20
8.962113824663845
 30
0.0
 11
11.39774238196313
 21
9.81400627276065
 31
0.0
  0
ARC
  5
19F
330
45
100
AcDbEntity
  8
0
  6
Continuous
 62
    16
100
AcDbCircle
 10
29.51509055755585
 20
11.761322640787
 30
0.0
 40
0.121875
100
AcDbArc
 50
282.8188940537166
 51
90.0
  0
LINE
  5
1A0
330
45
100
AcDbEntity
  8
0
  6
Continuous
 62
    16
100
AcDbLine
 10
28.0447368684793
 20
11.63970095196095
 30
0.0
 11
28.2824826591125
 21
11.62434857906732
 31
0.0
  0
ARC
  5
1A1
330
45
100
AcDbEntity
  8
0
  6
Continuous
 62
    16
100
AcDbCircle
 10
28.27462897003605
 20
11.50272689024126
 30
0.0
 40
0.121875
100
AcDbArc
 50
308.233797137863
 51
86.30526971831486
  0
LINE
  5
1A2
330
45
100
AcDbEntity
  8
0
  6
Continuous
 62
    16
100
AcDbLine
 10
28.05259055755576
 20
11.88319764078727
 30
0.0
 11
29.51509055755585
 21
11.88319764078727
 31
0.0
  0
ARC
  5
1A3
330
45
100
AcDbEntity
  8
0
  6
Continuous
 62
    16
100
AcDbCircle
 10
26.93883619722035
 20
11.761322640787
 30
0.0
 40
0.121875
100
AcDbArc
 50
276.3236945086078
 51
90.0
  0
ARC
  5
1A4
330
45
100
AcDbEntity
  8
0
  6
Continuous
 62
    16
100
AcDbCircle
 10
26.5936591004054
 20
11.47782806258959
 30
0.0
 40
0.121875
100
AcDbArc
 50
96.32369450860737
 51
226.974934010882
  0
LINE
  5
1A5
330
45
100
AcDbEntity
  8
0
  6
Continuous
 62
    16
100
AcDbLine
 10
26.95226016192944
 20
11.64018919042559
 30
0.0
 11
26.58023513569677
 21
11.59896151295101
 31
0.0
  0
ARC
  5
1A6
330
45
100
AcDbEntity
  8
0
  6
Continuous
 62
    16
100
AcDbCircle
 10
28.05259055755576
 20
11.761322640787
 30
0.0
 40
0.121875
100
AcDbArc
 50
90.0
 51
266.3052697183143
  0
LINE
  5
1A7
330
45
100
AcDbEntity
  8
0
  6
Continuous
 62
    16
100
AcDbLine
 10
28.57443911211593
 20
11.18037357144152
 30
0.0
 11
27.57631380722913
 21
10.39397260775826
 31
0.0
  0
LINE
  5
1A8
330
45
100
AcDbEntity
  8
0
  6
Continuous
 62
    16
100
AcDbLine
 10
27.34193840602009
 20
10.61272298221996
 30
0.0
 11
26.51050156364298
 21
11.38873070177209
 31
0.0
  0
LINE
  5
1A9
330
45
100
AcDbEntity
  8
0
  6
Continuous
 62
    16
100
AcDbLine
 10
28.3500539758036
 20
11.4069950557768
 30
0.0
 11
27.34193840602009
 21
10.61272298221996
 31
0.0
  0
ARC
  5
1AA
330
45
100
AcDbEntity
  8
0
  6
Continuous
 62
    16
100
AcDbCircle
 10
30.08293922747114
 20
9.26573688215234
 30
0.0
 40
2.4375
100
AcDbArc
 50
102.8188940537166
 51
128.2337971378629
  0
ARC
  5
1AB
330
45
100
AcDbEntity
  8
0
  6
Continuous
 62
    16
100
AcDbCircle
 10
29.80063435502851
 20
9.6516285908437
 30
0.0
 40
0.9750000000000001
100
AcDbArc
 50
226.9749340108821
 51
254.9106627487853
  0
ARC
  5
1AC
330
45
100
AcDbEntity
  8
0
  6
Continuous
 62
    16
100
AcDbCircle
 10
29.51509055755585
 20
8.592572640787182
 30
0.0
 40
0.121875
100
AcDbArc
 50
270.0
 51
74.91066274878406
  0
LINE
  5
1AD
330
45
100
AcDbEntity
  8
0
  6
Continuous
 62
    16
100
AcDbLine
 10
27.30900960678926
 20
8.713822231624306
 30
0.0
 11
27.68211727135693
 21
8.751766873009217
 31
0.0
  0
ARC
  5
1AE
330
45
100
AcDbEntity
  8
0
  6
Continuous
 62
    16
100
AcDbCircle
 10
27.66978632059025
 20
8.87301646384634
 30
0.0
 40
0.121875
100
AcDbArc
 50
275.8069532297311
 51
46.974934010882
  0
LINE
  5
1AF
330
45
100
AcDbEntity
  8
0
  6
Continuous
 62
    16
100
AcDbLine
 10
26.21948995839583
 20
8.713864916282489
 30
0.0
 11
25.83120834315358
 21
8.751971313393767
 31
0.0
  0
ARC
  5
1B0
330
45
100
AcDbEntity
  8
0
  6
Continuous
 62
    16
100
AcDbCircle
 10
26.20758619722054
 20
8.592572640787182
 30
0.0
 40
0.121875
100
AcDbArc
 50
270.0
 51
84.3948769589973
  0
ARC
  5
1B1
330
45
100
AcDbEntity
  8
0
  6
Continuous
 62
    16
100
AcDbCircle
 10
27.32134055755594
 20
8.592572640787182
 30
0.0
 40
0.121875
100
AcDbArc
 50
95.80695322973123
 51
270.0
  0
LINE
  5
1B2
330
45
100
AcDbEntity
  8
0
  6
Continuous
 62
    16
100
AcDbLine
 10
27.32134055755594
 20
8.470697640787364
 30
0.0
 11
29.51509055755585
 21
8.470697640787364
 31
0.0
  0
LINE
  5
1B3
330
45
100
AcDbEntity
  8
0
  6
Continuous
 62
    16
100
AcDbLine
 10
27.75294385735313
 20
8.962113824663845
 30
0.0
 11
26.84020194867779
 21
9.81400627276065
 31
0.0
  0
LINE
  5
1B4
330
45
100
AcDbEntity
  8
0
  6
Continuous
 62
    16
100
AcDbLine
 10
26.84020194867779
 20
9.81400627276065
 30
0.0
 11
25.76768709856086
 21
8.968995423353533
 31
0.0
  0
LINE
  5
1B5
330
45
100
AcDbEntity
  8
0
  6
Continuous
 62
    16
100
AcDbLine
 10
29.13537406092772
 20
8.938849704306847
 30
0.0
 11
27.57631380722913
 21
10.39397260775826
 31
0.0
  0
ARC
  5
1B6
330
45
100
AcDbEntity
  8
0
  6
Continuous
 62
    16
100
AcDbCircle
 10
25.84311210432887
 20
8.873263588889074
 30
0.0
 40
0.121875
100
AcDbArc
 50
128.2337971378629
 51
264.3948769589975
  0
LINE
  5
1B7
330
45
100
AcDbEntity
  8
0
  6
Continuous
 62
    16
100
AcDbLine
 10
26.60582654746875
 20
10.0327566472219
 30
0.0
 11
25.41839075291526
 21
9.097202114562094
 31
0.0
  0
LINE
  5
1B8
330
45
100
AcDbEntity
  8
0
  6
Continuous
 62
    15
100
AcDbLine
 10
11.33347667260682
 20
3.151445566391601
 30
0.0
 11
12.13899439794341
 21
3.038984423767715
 31
0.0
  0
LINE
  5
1B9
330
45
100
AcDbEntity
  8
0
  6
Continuous
 62
    15
100
AcDbLine
 10
12.13899439794341
 20
3.038984423767715
 30
0.0
 11
12.95547558876996
 21
2.94659495457563
 31
0.0
  0
LINE
  5
1BA
330
45
100
AcDbEntity
  8
0
  6
Continuous
 62
    15
100
AcDbLine
 10
12.95547558876996
 20
2.94659495457563
 30
0.0
 11
13.78076733854263
 21
2.874501311141557
 31
0.0
  0
LINE
  5
1BB
330
45
100
AcDbEntity
  8
0
  6
Continuous
 62
    15
100
AcDbLine
 10
13.78076733854263
 20
2.874501311141557
 30
0.0
 11
14.61269026811576
 21
2.822879320588726
 31
0.0
  0
LINE
  5
1BC
330
45
100
AcDbEntity
  8
0
  6
Continuous
 62
    15
100
AcDbLine
 10
14.61269026811576
 20
2.822879320588726
 30
0.0
 11
15.44904507858504
 21
2.791855358557768
 31
0.0
  0
LINE
  5
1BD
330
45
100
AcDbEntity
  8
0
  6
Continuous
 62
    15
100
AcDbLine
 10
15.44904507858504
 20
2.791855358557768
 30
0.0
 11
16.28761916131023
 21
2.781505561156735
 31
0.0
  0
LINE
  5
1BE
330
45
100
AcDbEntity
  8
0
  6
Continuous
 62
    15
100
AcDbLine
 10
16.28761916131023
 20
2.781505561156735
 30
0.0
 11
17.12619324403542
 21
2.791855358557768
 31
0.0
  0
LINE
  5
1BF
330
45
100
AcDbEntity
  8
0
  6
Continuous
 62
    15
100
AcDbLine
 10
17.12619324403542
 20
2.791855358557768
 30
0.0
 11
17.96254805450519
 21
2.822879320588754
 31
0.0
  0
LINE
  5
1C0
330
45
100
AcDbEntity
  8
0
  6
Continuous
 62
    15
100
AcDbLine
 10
17.96254805450519
 20
2.822879320588754
 30
0.0
 11
18.79447098407783
 21
2.874501311141557
 31
0.0
  0
LINE
  5
1C1
330
45
100
AcDbEntity
  8
0
  6
Continuous
 62
    15
100
AcDbLine
 10
18.79447098407783
 20
2.874501311141557
 30
0.0
 11
19.61976273385048
 21
2.94659495457563
 31
0.0
  0
LINE
  5
1C2
330
45
100
AcDbEntity
  8
0
  6
Continuous
 62
    15
100
AcDbLine
 10
19.61976273385048
 20
2.94659495457563
 30
0.0
 11
20.436243924677
 21
3.038984423767715
 31
0.0
  0
LINE
  5
1C3
330
45
100
AcDbEntity
  8
0
  6
Continuous
 62
    15
100
AcDbLine
 10
20.436243924677
 20
3.038984423767715
 30
0.0
 11
21.24176165001373
 21
3.151445566391601
 31
0.0
  0
LINE
  5
1C4
330
45
100
AcDbEntity
  8
0
  6
Continuous
 62
    15
100
AcDbLine
 10
21.24176165001373
 20
3.151445566391601
 30
0.0
 11
22.03419594635264
 21
3.283707393598434
 31
0.0
  0
LINE
  5
1C5
330
45
100
AcDbEntity
  8
0
  6
Continuous
 62
    15
100
AcDbLine
 10
22.03419594635264
 20
3.283707393598434
 30
0.0
 11
22.81146614936264
 21
3.435453963751115
 31
0.0
  0
LINE
  5
1C6
330
45
100
AcDbEntity
  8
0
  6
Continuous
 62
    15
100
AcDbLine
 10
22.81146614936264
 20
3.435453963751115
 30
0.0
 11
23.5715370938226
 21
3.6063267033486
 31
0.0
  0
LINE
  5
1C7
330
45
100
AcDbEntity
  8
0
  6
Continuous
 62
    15
100
AcDbLine
 10
23.5715370938226
 20
3.6063267033486
 30
0.0
 11
24.31242510020135
 21
3.795927217531698
 31
0.0
  0
LINE
  5
1C8
330
45
100
AcDbEntity
  8
0
  6
Continuous
 62
    15
100
AcDbLine
 10
24.31242510020135
 20
3.795927217531698
 30
0.0
 11
25.03220366829177
 21
4.003820653048393
 31
0.0
  0
LINE
  5
1C9
330
45
100
AcDbEntity
  8
0
  6
Continuous
 62
    15
100
AcDbLine
 10
25.03220366829177
 20
4.003820653048393
 30
0.0
 11
25.72900876520501
 21
4.229539685723893
 31
0.0
  0
LINE
  5
1CA
330
45
100
AcDbEntity
  8
0
  6
Continuous
 62
    15
100
AcDbLine
 10
25.72900876520501
 20
4.229539685723893
 30
0.0
 11
26.40104354704479
 21
4.47258920930426
 31
0.0
  0
LINE
  5
1CB
330
45
100
AcDbEntity
  8
0
  6
Continuous
 62
    15
100
AcDbLine
 10
26.40104354704479
 20
4.47258920930426
 30
0.0
 11
27.04658228477456
 21
4.732451797268482
 31
0.0
  0
LINE
  5
1CC
330
45
100
AcDbEntity
  8
0
  6
Continuous
 62
    15
100
AcDbLine
 10
27.04658228477456
 20
4.732451797268482
 30
0.0
 11
27.66397316831993
 21
5.008593983541004
 31
0.0
  0
LINE
  5
1CD
330
45
100
AcDbEntity
  8
0
  6
Continuous
 62
    15
100
AcDbLine
 10
27.66397316831993
 20
5.008593983541004
 30
0.0
 11
28.25163953128725
 21
5.300473344271154
 31
0.0
  0
LINE
  5
1CE
330
45
100
AcDbEntity
  8
0
  6
Continuous
 62
    15
100
AcDbLine
 10
28.25163953128725
 20
5.300473344271154
 30
0.0
 11
28.80807886714524
 21
5.607546231788888
 31
0.0
  0
LINE
  5
1CF
330
45
100
AcDbEntity
  8
0
  6
Continuous
 62
    15
100
AcDbLine
 10
28.80807886714524
 20
5.607546231788888
 30
0.0
 11
29.33185880044485
 21
5.92927576784615
 31
0.0
  0
LINE
  5
1D0
330
45
100
AcDbEntity
  8
0
  6
Continuous
 62
    15
100
AcDbLine
 10
29.33185880044485
 20
5.92927576784615
 30
0.0
 11
29.82160896069675
 21
6.26513927983595
 31
0.0
  0
LINE
  5
1D1
330
45
100
AcDbEntity
  8
0
  6
Continuous
 62
    15
100
AcDbLine
 10
29.82160896069675
 20
6.26513927983595
 30
0.0
 11
30.27600755726559
 21
6.614633675587243
 31
0.0
  0
LINE
  5
1D2
330
45
100
AcDbEntity
  8
0
  6
Continuous
 62
    15
100
AcDbLine
 10
30.27600755726559
 20
6.614633675587243
 30
0.0
 11
30.6937615361413
 21
6.977276216025928
 31
0.0
  0
LINE
  5
1D3
330
45
100
AcDbEntity
  8
0
  6
Continuous
 62
    15
100
AcDbLine
 10
30.6937615361413
 20
6.977276216025928
 30
0.0
 11
31.0735798228325
 21
7.352596744011691
 31
0.0
  0
LINE
  5
1D4
330
45
100
AcDbEntity
  8
0
  6
Continuous
 62
    15
100
AcDbLine
 10
31.0735798228325
 20
7.352596744011691
 30
0.0
 11
31.41414080984256
 21
7.740115860302183
 31
0.0
  0
LINE
  5
1D5
330
45
100
AcDbEntity
  8
0
  6
Continuous
 62
    15
100
AcDbLine
 10
31.41414080984256
 20
7.740115860302183
 30
0.0
 11
31.71405853148738
 21
8.139302477707162
 31
0.0
  0
LINE
  5
1D6
330
45
100
AcDbEntity
  8
0
  6
Continuous
 62
    15
100
AcDbLine
 10
31.71405853148738
 20
8.139302477707162
 30
0.0
 11
31.97185722784576
 21
8.549505094442736
 31
0.0
  0
LINE
  5
1D7
330
45
100
AcDbEntity
  8
0
  6
Continuous
 62
    15
100
AcDbLine
 10
31.97185722784576
 20
8.549505094442736
 30
0.0
 11
32.18597044787569
 21
8.969856297881364
 31
0.0
  0
LINE
  5
1D8
330
45
100
AcDbEntity
  8
0
  6
Continuous
 62
    15
100
AcDbLine
 10
32.18597044787569
 20
8.969856297881364
 30
0.0
 11
32.35478528083135
 21
9.399161580508178
 31
0.0
  0
LINE
  5
1D9
330
45
100
AcDbEntity
  8
0
  6
Continuous
 62
    15
100
AcDbLine
 10
32.35478528083135
 20
9.399161580508178
 30
0.0
 11
32.47674859528755
 21
9.83580072311554
 31
0.0
  0
LINE
  5
1DA
330
45
100
AcDbEntity
  8
0
  6
Continuous
 62
    15
100
AcDbLine
 10
32.47674859528755
 20
9.83580072311554
 30
0.0
 11
32.55053399093714
 21
10.2776852649402
 31
0.0
  0
LINE
  5
1DB
330
45
100
AcDbEntity
  8
0
  6
Continuous
 62
    15
100
AcDbLine
 10
32.55053399093714
 20
10.2776852649402
 30
0.0
 11
32.57523663125571
 21
10.72231454833354
 31
0.0
  0
LINE
  5
1DC
330
45
100
AcDbEntity
  8
0
  6
Continuous
 62
    15
100
AcDbLine
 10
32.57523663125571
 20
10.72231454833354
 30
0.0
 11
32.55053399093717
 21
11.16694383172614
 31
0.0
  0
LINE
  5
1DD
330
45
100
AcDbEntity
  8
0
  6
Continuous
 62
    15
100
AcDbLine
 10
32.55053399093717
 20
11.16694383172614
 30
0.0
 11
32.47674859528755
 21
11.60882837355149
 31
0.0
  0
LINE
  5
1DE
330
45
100
AcDbEntity
  8
0
  6
Continuous
 62
    15
100
AcDbLine
 10
32.47674859528755
 20
11.60882837355149
 30
0.0
 11
32.35478528083138
 21
12.04546751615823
 31
0.0
  0
LINE
  5
1DF
330
45
100
AcDbEntity
  8
0
  6
Continuous
 62
    15
100
AcDbLine
 10
32.35478528083138
 20
12.04546751615823
 30
0.0
 11
32.18597044787566
 21
12.47477279878521
 31
0.0
  0
LINE
  5
1E0
330
45
100
AcDbEntity
  8
0
  6
Continuous
 62
    15
100
AcDbLine
 10
32.18597044787566
 20
12.47477279878521
 30
0.0
 11
31.97185722784573
 21
12.89512400222381
 31
0.0
  0
LINE
  5
1E1
330
45
100
AcDbEntity
  8
0
  6
Continuous
 62
    15
100
AcDbLine
 10
31.97185722784573
 20
12.89512400222381
 30
0.0
 11
31.71405853148741
 21
13.30532661895933
 31
0.0
  0
LINE
  5
1E2
330
45
100
AcDbEntity
  8
0
  6
Continuous
 62
    15
100
AcDbLine
 10
31.71405853148741
 20
13.30532661895933
 30
0.0
 11
31.41414080984265
 21
13.7045132363647
 31
0.0
  0
LINE
  5
1E3
330
45
100
AcDbEntity
  8
0
  6
Continuous
 62
    15
100
AcDbLine
 10
31.41414080984265
 20
13.7045132363647
 30
0.0
 11
31.07357982283247
 21
14.09203235265534
 31
0.0
  0
LINE
  5
1E4
330
45
100
AcDbEntity
  8
0
  6
Continuous
 62
    15
100
AcDbLine
 10
31.07357982283247
 20
14.09203235265534
 30
0.0
 11
30.69376153614101
 21
14.46735288064087
 31
0.0
  0
LINE
  5
1E5
330
45
100
AcDbEntity
  8
0
  6
Continuous
 62
    15
100
AcDbLine
 10
30.69376153614101
 20
14.46735288064087
 30
0.0
 11
30.27600755726584
 21
14.82999542107905
 31
0.0
  0
LINE
  5
1E6
330
45
100
AcDbEntity
  8
0
  6
Continuous
 62
    15
100
AcDbLine
 10
30.27600755726584
 20
14.82999542107905
 30
0.0
 11
29.82160896069692
 21
15.17948981683088
 31
0.0
  0
LINE
  5
1E7
330
45
100
AcDbEntity
  8
0
  6
Continuous
 62
    15
100
AcDbLine
 10
29.82160896069692
 20
15.17948981683088
 30
0.0
 11
29.33185880044479
 21
15.51535332882085
 31
0.0
  0
LINE
  5
1E8
330
45
100
AcDbEntity
  8
0
  6
Continuous
 62
    15
100
AcDbLine
 10
29.33185880044479
 20
15.51535332882085
 30
0.0
 11
28.8080788671455
 21
15.83708286487746
 31
0.0
  0
LINE
  5
1E9
330
45
100
AcDbEntity
  8
0
  6
Continuous
 62
    15
100
AcDbLine
 10
28.8080788671455
 20
15.83708286487746
 30
0.0
 11
28.25163953128705
 21
16.14415575239593
 31
0.0
  0
LINE
  5
1EA
330
45
100
AcDbEntity
  8
0
  6
Continuous
 62
    15
100
AcDbLine
 10
28.25163953128705
 20
16.14415575239593
 30
0.0
 11
27.6639731683201
 21
16.43603511312546
 31
0.0
  0
LINE
  5
1EB
330
45
100
AcDbEntity
  8
0
  6
Continuous
 62
    15
100
AcDbLine
 10
27.6639731683201
 20
16.43603511312546
 30
0.0
 11
27.04658228477467
 21
16.71217729939798
 31
0.0
  0
LINE
  5
1EC
330
45
100
AcDbEntity
  8
0
  6
Continuous
 62
    15
100
AcDbLine
 10
27.04658228477467
 20
16.71217729939798
 30
0.0
 11
26.4010435470444
 21
16.97203988736237
 31
0.0
  0
LINE
  5
1ED
330
45
100
AcDbEntity
  8
0
  6
Continuous
 62
    15
100
AcDbLine
 10
26.4010435470444
 20
16.97203988736237
 30
0.0
 11
25.72900876520561
 21
17.21508941094288
 31
0.0
  0
LINE
  5
1EE
330
45
100
AcDbEntity
  8
0
  6
Continuous
 62
    15
100
AcDbLine
 10
25.72900876520561
 20
17.21508941094288
 30
0.0
 11
25.03220366829126
 21
17.44080844361827
 31
0.0
  0
LINE
  5
1EF
330
45
100
AcDbEntity
  8
0
  6
Continuous
 62
    15
100
AcDbLine
 10
25.03220366829126
 20
17.44080844361827
 30
0.0
 11
24.31242510020132
 21
17.64870187913482
 31
0.0
  0
LINE
  5
1F0
330
45
100
AcDbEntity
  8
0
  6
Continuous
 62
    15
100
AcDbLine
 10
24.31242510020132
 20
17.64870187913482
 30
0.0
 11
23.57153709382277
 21
17.83830239331786
 31
0.0
  0
LINE
  5
1F1
330
45
100
AcDbEntity
  8
0
  6
Continuous
 62
    15
100
AcDbLine
 10
23.57153709382277
 20
17.83830239331786
 30
0.0
 11
22.81146614936259
 21
18.00917513291589
 31
0.0
  0
LINE
  5
1F2
330
45
100
AcDbEntity
  8
0
  6
Continuous
 62
    15
100
AcDbLine
 10
22.81146614936259
 20
18.00917513291589
 30
0.0
 11
22.0341959463529
 21
18.1609217030686
 31
0.0
  0
LINE
  5
1F3
330
45
100
AcDbEntity
  8
0
  6
Continuous
 62
    15
100
AcDbLine
 10
22.0341959463529
 20
18.1609217030686
 30
0.0
 11
21.24176165001356
 21
18.29318353027492
 31
0.0
  0
LINE
  5
1F4
330
45
100
AcDbEntity
  8
0
  6
Continuous
 62
    15
100
AcDbLine
 10
21.24176165001356
 20
18.29318353027492
 30
0.0
 11
20.43624392467694
 21
18.40564467289883
 31
0.0
  0
LINE
  5
1F5
330
45
100
AcDbEntity
  8
0
  6
Continuous
 62
    15
100
AcDbLine
 10
20.43624392467694
 20
18.40564467289883
 30
0.0
 11
19.61976273385051
 21
18.49803414209086
 31
0.0
  0
LINE
  5
1F6
330
45
100
AcDbEntity
  8
0
  6
Continuous
 62
    15
100
AcDbLine
 10
19.61976273385051
 20
18.49803414209086
 30
0.0
 11
18.79447098407789
 21
18.57012778552496
 31
0.0
  0
LINE
  5
1F7
330
45
100
AcDbEntity
  8
0
  6
Continuous
 62
    15
100
AcDbLine
 10
18.79447098407789
 20
18.57012778552496
 30
0.0
 11
17.96254805450519
 21
18.62174977607825
 31
0.0
  0
LINE
  5
1F8
330
45
100
AcDbEntity
  8
0
  6
Continuous
 62
    15
100
AcDbLine
 10
17.96254805450519
 20
18.62174977607825
 30
0.0
 11
17.12619324403548
 21
18.65277373810875
 31
0.0
  0
LINE
  5
1F9
330
45
100
AcDbEntity
  8
0
  6
Continuous
 62
    15
100
AcDbLine
 10
17.12619324403548
 20
18.65277373810875
 30
0.0
 11
16.28761916131023
 21
18.66312353550978
 31
0.0
  0
LINE
  5
1FA
330
45
100
AcDbEntity
  8
0
  6
Continuous
 62
    15
100
AcDbLine
 10
16.28761916131023
 20
18.66312353550978
 30
0.0
 11
15.44904507858499
 21
18.65277373810875
 31
0.0
  0
LINE
  5
1FB
330
45
100
AcDbEntity
  8
0
  6
Continuous
 62
    15
100
AcDbLine
 10
15.44904507858499
 20
18.65277373810875
 30
0.0
 11
14.61269026811581
 21
18.62174977607825
 31
0.0
  0
LINE
  5
1FC
330
45
100
AcDbEntity
  8
0
  6
Continuous
 62
    15
100
AcDbLine
 10
14.61269026811581
 20
18.62174977607825
 30
0.0
 11
13.78076733854257
 21
18.57012778552493
 31
0.0
  0
LINE
  5
1FD
330
45
100
AcDbEntity
  8
0
  6
Continuous
 62
    15
100
AcDbLine
 10
13.78076733854257
 20
18.57012778552493
 30
0.0
 11
12.95547558876993
 21
18.49803414209089
 31
0.0
  0
LINE
  5
1FE
330
45
100
AcDbEntity
  8
0
  6
Continuous
 62
    15
100
AcDbLine
 10
12.95547558876993
 20
18.49803414209089
 30
0.0
 11
12.13899439794341
 21
18.4056446728988
 31
0.0
  0
LINE
  5
1FF
330
45
100
AcDbEntity
  8
0
  6
Continuous
 62
    15
100
AcDbLine
 10
12.13899439794341
 20
18.4056446728988
 30
0.0
 11
11.33347667260654
 21
18.29318353027489
 31
0.0
  0
LINE
  5
200
330
45
100
AcDbEntity
  8
0
  6
Continuous
 62
    15
100
AcDbLine
 10
11.33347667260654
 20
18.29318353027489
 30
0.0
 11
10.54104237626834
 21
18.16092170306865
 31
0.0
  0
LINE
  5
201
330
45
100
AcDbEntity
  8
0
  6
Continuous
 62
    15
100
AcDbLine
 10
10.54104237626834
 20
18.16092170306865
 30
0.0
 11
9.763772173258019
 21
18.00917513291591
 31
0.0
  0
LINE
  5
202
330
45
100
AcDbEntity
  8
0
  6
Continuous
 62
    15
100
AcDbLine
 10
9.763772173258019
 20
18.00917513291591
 30
0.0
 11
9.003701228798036
 21
17.83830239331786
 31
0.0
  0
LINE
  5
203
330
45
100
AcDbEntity
  8
0
  6
Continuous
 62
    15
100
AcDbLine
 10
9.003701228798036
 20
17.83830239331786
 30
0.0
 11
8.262813222418771
 21
17.64870187913471
 31
0.0
  0
LINE
  5
204
330
45
100
AcDbEntity
  8
0
  6
Continuous
 62
    15
100
AcDbLine
 10
8.262813222418771
 20
17.64870187913471
 30
0.0
 11
7.543034654329347
 21
17.44080844361815
 31
0.0
  0
LINE
  5
205
330
45
100
AcDbEntity
  8
0
  6
Continuous
 62
    15
100
AcDbLine
 10
7.543034654329347
 20
17.44080844361815
 30
0.0
 11
6.846229557415455
 21
17.21508941094311
 31
0.0
  0
LINE
  5
206
330
45
100
AcDbEntity
  8
0
  6
Continuous
 62
    15
100
AcDbLine
 10
6.846229557415455
 20
17.21508941094311
 30
0.0
 11
6.174194775575899
 21
16.97203988736231
 31
0.0
  0
LINE
  5
207
330
45
100
AcDbEntity
  8
0
  6
Continuous
 62
    15
100
AcDbLine
 10
6.174194775575899
 20
16.97203988736231
 30
0.0
 11
5.528656037845707
 21
16.71217729939795
 31
0.0
  0
LINE
  5
208
330
45
100
AcDbEntity
  8
0
  6
Continuous
 62
    15
100
AcDbLine
 10
5.528656037845707
 20
16.71217729939795
 30
0.0
 11
4.911265154300793
 21
16.43603511312566
 31
0.0
  0
LINE
  5
209
330
45
100
AcDbEntity
  8
0
  6
Continuous
 62
    15
100
AcDbLine
 10
4.911265154300793
 20
16.43603511312566
 30
0.0
 11
4.323598791333183
 21
16.14415575239582
 31
0.0
  0
LINE
  5
20A
330
45
100
AcDbEntity
  8
0
  6
Continuous
 62
    15
100
AcDbLine
 10
4.323598791333183
 20
16.14415575239582
 30
0.0
 11
3.76715945547528
 21
15.83708286487766
 31
0.0
  0
LINE
  5
20B
330
45
100
AcDbEntity
  8
0
  6
Continuous
 62
    15
100
AcDbLine
 10
3.76715945547528
 20
15.83708286487766
 30
0.0
 11
3.243379522175331
 21
15.51535332882062
 31
0.0
  0
LINE
  5
20C
330
45
100
AcDbEntity
  8
0
  6
Continuous
 62
    15
100
AcDbLine
 10
3.243379522175331
 20
15.51535332882062
 30
0.0
 11
2.753629361923572
 21
15.17948981683094
 31
0.0
  0
LINE
  5
20D
330
45
100
AcDbEntity
  8
0
  6
Continuous
 62
    15
100
AcDbLine
 10
2.753629361923572
 20
15.17948981683094
 30
0.0
 11
2.299230765354935
 21
14.82999542107933
 31
0.0
  0
LINE
  5
20E
330
45
100
AcDbEntity
  8
0
  6
Continuous
 62
    15
100
AcDbLine
 10
2.299230765354935
 20
14.82999542107933
 30
0.0
 11
1.881476786478999
 21
14.46735288064048
 31
0.0
  0
LINE
  5
20F
330
45
100
AcDbEntity
  8
0
  6
Continuous
 62
    15
100
AcDbLine
 10
1.881476786478999
 20
14.46735288064048
 30
0.0
 11
1.501658499787993
 21
14.09203235265534
 31
0.0
  0
LINE
  5
210
330
45
100
AcDbEntity
  8
0
  6
Continuous
 62
    15
100
AcDbLine
 10
1.501658499787993
 20
14.09203235265534
 30
0.0
 11
1.161097512777815
 21
13.7045132363647
 31
0.0
  0
LINE
  5
211
330
45
100
AcDbEntity
  8
0
  6
Continuous
 62
    15
100
AcDbLine
 10
1.161097512777815
 20
13.7045132363647
 30
0.0
 11
0.8611797911330541
 21
13.3053266189593
 31
0.0
  0
LINE
  5
212
330
45
100
AcDbEntity
  8
0
  6
Continuous
 62
    15
100
AcDbLine
 10
0.8611797911330541
 20
13.3053266189593
 30
0.0
 11
0.6033810947748748
 21
12.89512400222407
 31
0.0
  0
LINE
  5
213
330
45
100
AcDbEntity
  8
0
  6
Continuous
 62
    15
100
AcDbLine
 10
0.6033810947748748
 20
12.89512400222407
 30
0.0
 11
0.3892678747449452
 21
12.47477279878547
 31
0.0
  0
LINE
  5
214
330
45
100
AcDbEntity
  8
0
  6
Continuous
 62
    15
100
AcDbLine
 10
0.3892678747449452
 20
12.47477279878547
 30
0.0
 11
0.2204530417890851
 21
12.04546751615825
 31
0.0
  0
LINE
  5
215
330
45
100
AcDbEntity
  8
0
  6
Continuous
 62
    15
100
AcDbLine
 10
0.2204530417890851
 20
12.04546751615825
 30
0.0
 11
0.0984897273329182
 21
11.60882837355155
 31
0.0
  0
LINE
  5
216
330
45
100
AcDbEntity
  8
0
  6
Continuous
 62
    15
100
AcDbLine
 10
0.0984897273329182
 20
11.60882837355155
 30
0.0
 11
0.0247043316832674
 21
11.16694383172592
 31
0.0
  0
LINE
  5
217
330
45
100
AcDbEntity
  8
0
  6
Continuous
 62
    15
100
AcDbLine
 10
0.0247043316832674
 20
11.16694383172592
 30
0.0
 11
0.0000016913647016
 21
10.72231454833292
 31
0.0
  0
LINE
  5
218
330
45
100
AcDbEntity
  8
0
  6
Continuous
 62
    15
100
AcDbLine
 10
0.0000016913647016
 20
10.72231454833292
 30
0.0
 11
0.0247043316832958
 21
10.2776852649404
 31
0.0
  0
LINE
  5
219
330
45
100
AcDbEntity
  8
0
  6
Continuous
 62
    15
100
AcDbLine
 10
0.0247043316832958
 20
10.2776852649404
 30
0.0
 11
0.0984897273328613
 21
9.835800723115653
 31
0.0
  0
LINE
  5
21A
330
45
100
AcDbEntity
  8
0
  6
Continuous
 62
    15
100
AcDbLine
 10
0.0984897273328613
 20
9.835800723115653
 30
0.0
 11
0.2204530417890567
 21
9.399161580508348
 31
0.0
  0
LINE
  5
21B
330
45
100
AcDbEntity
  8
0
  6
Continuous
 62
    15
100
AcDbLine
 10
0.2204530417890567
 20
9.399161580508348
 30
0.0
 11
0.3892678747449452
 21
8.969856297880995
 31
0.0
  0
LINE
  5
21C
330
45
100
AcDbEntity
  8
0
  6
Continuous
 62
    15
100
AcDbLine
 10
0.3892678747449452
 20
8.969856297880995
 30
0.0
 11
0.6033810947745337
 21
8.549505094443077
 31
0.0
  0
LINE
  5
21D
330
45
100
AcDbEntity
  8
0
  6
Continuous
 62
    15
100
AcDbLine
 10
0.6033810947745337
 20
8.549505094443077
 30
0.0
 11
0.8611797911329688
 21
8.13930247770736
 31
0.0
  0
LINE
  5
21E
330
45
100
AcDbEntity
  8
0
  6
Continuous
 62
    15
100
AcDbLine
 10
0.8611797911329688
 20
8.13930247770736
 30
0.0
 11
1.161097512778014
 21
7.740115860302012
 31
0.0
  0
LINE
  5
21F
330
45
100
AcDbEntity
  8
0
  6
Continuous
 62
    15
100
AcDbLine
 10
1.161097512778014
 20
7.740115860302012
 30
0.0
 11
1.501658499787993
 21
7.352596744011635
 31
0.0
  0
LINE
  5
220
330
45
100
AcDbEntity
  8
0
  6
Continuous
 62
    15
100
AcDbLine
 10
1.501658499787993
 20
7.352596744011635
 30
0.0
 11
1.881476786479652
 21
6.977276216025871
 31
0.0
  0
LINE
  5
221
330
45
100
AcDbEntity
  8
0
  6
Continuous
 62
    15
100
AcDbLine
 10
1.881476786479652
 20
6.977276216025871
 30
0.0
 11
2.299230765354764
 21
6.614633675587299
 31
0.0
  0
LINE
  5
222
330
45
100
AcDbEntity
  8
0
  6
Continuous
 62
    15
100
AcDbLine
 10
2.299230765354764
 20
6.614633675587299
 30
0.0
 11
2.753629361923515
 21
6.26513927983612
 31
0.0
  0
LINE
  5
223
330
45
100
AcDbEntity
  8
0
  6
Continuous
 62
    15
100
AcDbLine
 10
2.753629361923515
 20
6.26513927983612
 30
0.0
 11
3.243379522175672
 21
5.92927576784615
 31
0.0
  0
LINE
  5
224
330
45
100
AcDbEntity
  8
0
  6
Continuous
 62
    15
100
AcDbLine
 10
3.243379522175672
 20
5.92927576784615
 30
0.0
 11
3.767159455475053
 21
5.607546231789001
 31
0.0
  0
LINE
  5
225
330
45
100
AcDbEntity
  8
0
  6
Continuous
 62
    15
100
AcDbLine
 10
3.767159455475053
 20
5.607546231789001
 30
0.0
 11
4.323598791333978
 21
5.300473344270983
 31
0.0
  0
LINE
  5
226
330
45
100
AcDbEntity
  8
0
  6
Continuous
 62
    15
100
AcDbLine
 10
4.323598791333978
 20
5.300473344270983
 30
0.0
 11
4.911265154300139
 21
5.008593983541175
 31
0.0
  0
LINE
  5
227
330
45
100
AcDbEntity
  8
0
  6
Continuous
 62
    15
100
AcDbLine
 10
4.911265154300139
 20
5.008593983541175
 30
0.0
 11
5.52865603784582
 21
4.732451797268538
 31
0.0
  0
LINE
  5
228
330
45
100
AcDbEntity
  8
0
  6
Continuous
 62
    15
100
AcDbLine
 10
5.52865603784582
 20
4.732451797268538
 30
0.0
 11
6.174194775575813
 21
4.472589209304203
 31
0.0
  0
LINE
  5
229
330
45
100
AcDbEntity
  8
0
  6
Continuous
 62
    15
100
AcDbLine
 10
6.174194775575813
 20
4.472589209304203
 30
0.0
 11
6.846229557415171
 21
4.229539685723978
 31
0.0
  0
LINE
  5
22A
330
45
100
AcDbEntity
  8
0
  6
Continuous
 62
    15
100
AcDbLine
 10
6.846229557415171
 20
4.229539685723978
 30
0.0
 11
7.543034654329091
 21
4.003820653048422
 31
0.0
  0
LINE
  5
22B
330
45
100
AcDbEntity
  8
0
  6
Continuous
 62
    15
100
AcDbLine
 10
7.543034654329091
 20
4.003820653048422
 30
0.0
 11
8.262813222419226
 21
3.795927217531812
 31
0.0
  0
LINE
  5
22C
330
45
100
AcDbEntity
  8
0
  6
Continuous
 62
    15
100
AcDbLine
 10
8.262813222419226
 20
3.795927217531812
 30
0.0
 11
9.00370122879869
 21
3.606326703348515
 31
0.0
  0
LINE
  5
22D
330
45
100
AcDbEntity
  8
0
  6
Continuous
 62
    15
100
AcDbLine
 10
9.00370122879869
 20
3.606326703348515
 30
0.0
 11
9.763772173257905
 21
3.435453963751087
 31
0.0
  0
LINE
  5
22E
330
45
100
AcDbEntity
  8
0
  6
Continuous
 62
    15
100
AcDbLine
 10
9.763772173257905
 20
3.435453963751087
 30
0.0
 11
10.5410423762678
 21
3.283707393598434
 31
0.0
  0
LINE
  5
22F
330
45
100
AcDbEntity
  8
0
  6
Continuous
 62
    15
100
AcDbLine
 10
10.5410423762678
 20
3.283707393598434
 30
0.0
 11
11.33347667260682
 21
3.151445566391601
 31
0.0
  0
LINE
  5
230
330
45
100
AcDbEntity
  8
0
  6
Continuous
 62
    16
100
AcDbLine
 10
196.6714935923772
 20
0.0000072407879657
 30
0.0
 11
196.6714935923772
 21
278.0594585255471
 31
0.0
  0
ENDBLK
  5
47
330
45
100
AcDbEntity
  8
0
100
AcDbBlockEnd
  0
BLOCK
  5
232
330
231
100
AcDbEntity
  8
0
100
AcDbBlockBegin
  2
PROTO
 70
     0
 71
     0
 10
0.0
 20
0.0
 30
0.0
  3
PROTO
  1

  0
TEXT
  5
235
330
231
100
AcDbEntity
  8
0
  6
Continuous
 62
    15
100
AcDbText
 10
41.31317447727422
 20
6.753997802734375
 30
0.0
 40
1.759999990463257
  1
Mountplesent, Dundalk, Ireland
  7
ARIAL
100
AcDbText
  0
TEXT
  5
236
330
231
100
AcDbEntity
  8
0
  6
Continuous
 62
    15
100
AcDbText
 10
42.85794920663399
 20
3.76199746131897
 30
0.0
 40
1.759999990463257
  1
Telephone (353/42) 9371244
  7
ARIAL
100
AcDbText
  0
TEXT
  5
237
330
231
100
AcDbEntity
  8
0
  6
Continuous
 62
    15
100
AcDbText
 10
47.10607971237337
 20
0.7699971199035645
 30
0.0
 40
1.759999990463257
  1
Fax (353/42) 9371221
  7
ARIAL
100
AcDbText
  0
TEXT
  5
238
330
231
100
AcDbEntity
  8
0
  6
Continuous
 62
    16
100
AcDbText
 10
40.02586220280774
 20
11.70731353759766
 30
0.0
 40
3.529999971389771
  1
EXITEX LTD
  7
CALISTB
100
AcDbText
  0
TEXT
  5
239
330
231
100
AcDbEntity
  8
0
  6
Continuous
 62
    15
100
AcDbText
 10
118.7650737762451
 20
5.154260873794556
 30
0.0
 40
1.759999990463257
  1
DESCRIPTION
  7
ARIAL
100
AcDbText
  0
TEXT
  5
23A
330
231
100
AcDbEntity
  8
0
  6
Continuous
 62
    15
100
AcDbText
 10
118.7650737762451
 20
15.30853486061096
 30
0.0
 40
1.759999990463257
  1
CODE
  7
ARIAL
100
AcDbText
  0
TEXT
  5
23B
330
231
100
AcDbEntity
  8
0
  6
Continuous
 62
    15
100
AcDbText
 10
105.5728845596313
 20
25.15426087379456
 30
0.0
 40
1.759999990463257
  1
DRAWN
  7
ARIAL
100
AcDbText
  0
TEXT
  5
23C
330
231
100
AcDbEntity
  8
0
  6
Continuous
 62
    15
100
AcDbText
 10
137.2755126953125
 20
25.15426087379456
 30
0.0
 40
1.759999990463257
  1
DRAWING No
  7
ARIAL
100
AcDbText
  0
TEXT
  5
23D
330
231
100
AcDbEntity
  8
0
  6
Continuous
 62
    15
100
AcDbText
 10
137.2755126953125
 20
35.30853486061096
 30
0.0
 40
1.759999990463257
  1
SCALE
  7
ARIAL
100
AcDbText
  0
TEXT
  5
23E
330
231
100
AcDbEntity
  8
0
  6
Continuous
 62
    15
100
AcDbText
 10
168.3267059326172
 20
35.30853486061096
 30
0.0
 40
1.759999990463257
  1
APPROVED
  7
ARIAL
100
AcDbText
  0
TEXT
  5
23F
330
231
100
AcDbEntity
  8
0
  6
Continuous
 62
    15
100
AcDbText
 10
168.3267059326172
 20
25.15426087379456
 30
0.0
 40
1.759999990463257
  1
DATE
  7
ARIAL
100
AcDbText
  0
TEXT
  5
240
330
231
100
AcDbEntity
  8
0
  6
Continuous
 62
    15
100
AcDbText
 10
121.7850818634033
 20
273.1621387004852
 30
0.0
 40
1.059999942779541
  1
DATE
  7
ARIAL
100
AcDbText
  0
TEXT
  5
241
330
231
100
AcDbEntity
  8
0
  6
Continuous
 62
    15
100
AcDbText
 10
129.7850914001465
 20
273.1621387004852
 30
0.0
 40
1.059999942779541
  1
ISSUE
  7
ARIAL
100
AcDbText
  0
TEXT
  5
242
330
231
100
AcDbEntity
  8
0
  6
Continuous
 62
    15
100
AcDbText
 10
153.1041603088379
 20
273.1621387004852
 30
0.0
 40
1.059999942779541
  1
CHANGE
  7
ARIAL
100
AcDbText
  0
TEXT
  5
243
330
231
100
AcDbEntity
  8
0
  6
Continuous
 62
    15
100
AcDbText
 10
185.7850799560547
 20
273.1621387004852
 30
0.0
 40
1.059999942779541
  1
SIGNED
  7
ARIAL
100
AcDbText
  0
TEXT
  5
244
330
231
100
AcDbEntity
  8
0
  6
Continuous
 62
    15
100
AcDbText
 10
0.580291748046875
 20
273.5897967815399
 30
0.0
 40
1.059999942779541
  1
THIS DRAWING  IS  THE PROPERTY OF  EXITEX  LTD  AND  MUST
  7
ARIAL
100
AcDbText
  0
TEXT
  5
245
330
231
100
AcDbEntity
  8
0
  6
Continuous
 62
    15
100
AcDbText
 10
0.580291748046875
 20
271.7877966165543
 30
0.0
 40
1.059999942779541
  1
NOT BE REPRODUCED IN WHOLE OR IN PART WITHOUT CONSENT
  7
ARIAL
100
AcDbText
  0
TEXT
  5
246
330
231
100
AcDbEntity
  8
0
  6
Continuous
 62
    15
100
AcDbText
 10
0.580291748046875
 20
269.9857964515686
 30
0.0
 40
1.059999942779541
  1
C  COPYRIGHT EXITEX.
  7
ARIAL
100
AcDbText
  0
LINE
  5
247
330
231
100
AcDbEntity
  8
0
  6
Continuous
 62
     9
100
AcDbLine
 10
197.785087647553
 20
271.1921336964456
 30
0.0
 11
121.7850876475531
 21
271.1921336964456
 31
0.0
  0
CIRCLE
  5
248
330
231
100
AcDbEntity
  8
0
  6
Continuous
 62
    15
100
AcDbCircle
 10
1.351006260388772
 20
270.4871209009121
 30
0.0
 40
0.7858324255611161
  0
ENDBLK
  5
233
330
231
100
AcDbEntity
  8
0
100
AcDbBlockEnd
  0
BLOCK
  5
24A
330
249
100
AcDbEntity
  8
0
100
AcDbBlockBegin
  2
GEN_BLOCK00000
 70
     0
 71
     0
 10
0.0
 20
0.0
 30
0.0
  3
GEN_BLOCK00000
  1

  0
LINE
  5
24D
330
249
100
AcDbEntity
  8
0
  6
Continuous
 62
    16
100
AcDbLine
 10
0.0000026988430477
 20
0.0000072407879657
 30
0.0
 11
0.0000026988430477
 21
278.0594585255471
 31
0.0
  0
LINE
  5
24E
330
249
100
AcDbEntity
  8
0
  6
Continuous
 62
    16
100
AcDbLine
 10
0.0000026988430477
 20
0.0000072407879657
 30
0.0
 11
199.0200119639592
 21
0.0000072407879657
 31
0.0
  0
LINE
  5
24F
330
249
100
AcDbEntity
  8
0
  6
Continuous
 62
    16
100
AcDbLine
 10
0.0000026988430477
 20
278.0594585255471
 30
0.0
 11
199.0200119639592
 21
278.0594585255471
 31
0.0
  0
LINE
  5
250
330
249
100
AcDbEntity
  8
0
  6
Continuous
 62
    16
100
AcDbLine
 10
0.0000026988430477
 20
20.00000724078797
 30
0.0
 11
199.0200119639592
 21
20.00000724078798
 31
0.0
  0
LINE
  5
251
330
249
100
AcDbEntity
  8
0
  6
Continuous
 62
    16
100
AcDbLine
 10
120.000002698843
 20
20.00000724078797
 30
0.0
 11
120.000002698843
 21
0.0000072407879657
 31
0.0
  0
LINE
  5
252
330
249
100
AcDbEntity
  8
0
  6
Continuous
 62
    16
100
AcDbLine
 10
104.7450599639593
 20
30.00000724078797
 30
0.0
 11
104.7450599639593
 21
20.00000724078797
 31
0.0
  0
LINE
  5
253
330
249
100
AcDbEntity
  8
0
  6
Continuous
 62
    16
100
AcDbLine
 10
136.1700439639593
 20
20.00000724078797
 30
0.0
 11
136.1700439639593
 21
40.00000724078797
 31
0.0
  0
LINE
  5
254
330
249
100
AcDbEntity
  8
0
  6
Continuous
 62
    16
100
AcDbLine
 10
167.5950279639593
 20
20.00000724078797
 30
0.0
 11
167.5950279639593
 21
40.00000724078797
 31
0.0
  0
LINE
  5
255
330
249
100
AcDbEntity
  8
0
  6
Continuous
 62
    16
100
AcDbLine
 10
120.000002698843
 20
10.00000724078797
 30
0.0
 11
199.0200119639592
 21
10.00000724078801
 31
0.0
  0
LINE
  5
256
330
249
100
AcDbEntity
  8
0
  6
Continuous
 62
    16
100
AcDbLine
 10
136.1700439639593
 20
40.00000724078798
 30
0.0
 11
199.0200119639592
 21
40.00000724078797
 31
0.0
  0
LINE
  5
257
330
249
100
AcDbEntity
  8
0
  6
Continuous
 62
    16
100
AcDbLine
 10
104.7450599639593
 20
30.00000724078797
 30
0.0
 11
199.0200119639592
 21
30.00000724078797
 31
0.0
  0
ENDBLK
  5
24B
330
249
100
AcDbEntity
  8
0
100
AcDbBlockEnd
  0
BLOCK
  5
25A
330
259
100
AcDbEntity
  8
0
100
AcDbBlockBegin
  2
GEN_BLOCK00001
 70
     0
 71
     0
 10
0.0
 20
0.0
 30
0.0
  3
GEN_BLOCK00001
  1

  0
LINE
  5
25D
330
259
100
AcDbEntity
  8
1
  6
HIDDEN
 62
    15
100
AcDbLine
 10
0.0000001893828454
 20
0.000000028004564
 30
0.0
 11
0.0000001893828454
 21
0.000000028004564
 31
0.0
  0
ENDBLK
  5
25B
330
259
100
AcDbEntity
  8
0
100
AcDbBlockEnd
  0
BLOCK
  5
25F
330
25E
100
AcDbEntity
  8
0
100
AcDbBlockBegin
  2
GEN_BLOCK00002
 70
     0
 71
     0
 10
0.0
 20
0.0
 30
0.0
  3
GEN_BLOCK00002
  1

  0
LINE
  5
262
330
25E
100
AcDbEntity
  8
1
  6
Continuous
 62
    15
100
AcDbLine
 10
2.650000193681542
 20
1.000000089078775
 30
0.0
 11
2.444296488004176
 21
1.205703794756142
 31
0.0
  0
LINE
  5
263
330
25E
100
AcDbEntity
  8
1
  6
Continuous
 62
    15
100
AcDbLine
 10
2.367157598375164
 20
1.282842684385153
 30
0.0
 11
2.161453892697798
 21
1.48854639006252
 31
0.0
  0
LINE
  5
264
330
25E
100
AcDbEntity
  8
1
  6
Continuous
 62
    15
100
AcDbLine
 10
2.084315003068786
 20
1.565685279691532
 30
0.0
 11
1.87861129739142
 21
1.771388985368899
 31
0.0
  0
LINE
  5
265
330
25E
100
AcDbEntity
  8
1
  6
Continuous
 62
    15
100
AcDbLine
 10
2.650000269656914
 20
1.000000013103403
 30
0.0
 11
2.650000269656914
 21
1.000000013103403
 31
0.0
  0
LINE
  5
266
330
25E
100
AcDbEntity
  8
1
  6
Continuous
 62
    15
100
AcDbLine
 10
2.084315003068785
 20
1.000000089078776
 30
0.0
 11
1.878611297391419
 21
1.205703794756143
 31
0.0
  0
LINE
  5
267
330
25E
100
AcDbEntity
  8
1
  6
Continuous
 62
    15
100
AcDbLine
 10
2.850000158729032
 20
1.365685314644042
 30
0.0
 11
2.727139083310553
 21
1.48854639006252
 31
0.0
  0
LINE
  5
268
330
25E
100
AcDbEntity
  8
1
  6
Continuous
 62
    15
100
AcDbLine
 10
2.650000193681541
 20
1.565685279691532
 30
0.0
 11
2.465113634079652
 21
1.750571839293421
 31
0.0
  0
LINE
  5
269
330
25E
100
AcDbEntity
  8
1
  6
Continuous
 62
    15
100
AcDbLine
 10
2.850000158729031
 20
1.931370505256796
 30
0.0
 11
2.727139083310552
 21
2.054231580675275
 31
0.0
  0
LINE
  5
26A
330
25E
100
AcDbEntity
  8
1
  6
Continuous
 62
    15
100
AcDbLine
 10
2.65000019368154
 20
2.131370470304287
 30
0.0
 11
2.650000170649961
 21
2.131370493335865
 31
0.0
  0
LINE
  5
26B
330
25E
100
AcDbEntity
  8
1
  6
Continuous
 62
    15
100
AcDbLine
 10
2.850000158729034
 20
2.497055695869554
 30
0.0
 11
2.727139083310553
 21
2.619916771288034
 31
0.0
  0
LINE
  5
26C
330
25E
100
AcDbEntity
  8
1
  6
Continuous
 62
    15
100
AcDbLine
 10
2.650000193681541
 20
2.697055660917046
 30
0.0
 11
2.650000170649961
 21
2.697055683948626
 31
0.0
  0
LINE
  5
26D
330
25E
100
AcDbEntity
  8
1
  6
Continuous
 62
    15
100
AcDbLine
 10
3.162741032107936
 20
2.750000013103405
 30
0.0
 11
3.00998167861693
 21
2.902759366594411
 31
0.0
  0
LINE
  5
26E
330
25E
100
AcDbEntity
  8
1
  6
Continuous
 62
    15
100
AcDbLine
 10
2.932842788987919
 20
2.979898256223423
 30
0.0
 11
2.912741047009098
 21
2.999999998202245
 31
0.0
  0
LINE
  5
26F
330
25E
100
AcDbEntity
  8
1
  6
Continuous
 62
    15
100
AcDbLine
 10
3.57671174951948
 20
2.901714486304616
 30
0.0
 11
3.575666869229687
 21
2.90275936659441
 31
0.0
  0
LINE
  5
270
330
25E
100
AcDbEntity
  8
1
  6
Continuous
 62
    15
100
AcDbLine
 10
2.650000193681542
 20
1.000000089078773
 30
0.0
 11
2.650000117706172
 21
1.000000013103403
 31
0.0
  0
LINE
  5
271
330
25E
100
AcDbEntity
  8
1
  6
Continuous
 62
    15
100
AcDbLine
 10
2.727139083310554
 20
1.077138978707785
 30
0.0
 11
2.850000158729029
 21
1.20000005412626
 31
0.0
  0
LINE
  5
272
330
25E
100
AcDbEntity
  8
1
  6
Continuous
 62
    15
100
AcDbLine
 10
2.367157598375163
 20
1.282842684385152
 30
0.0
 11
2.161453892697797
 21
1.077138978707787
 31
0.0
  0
LINE
  5
273
330
25E
100
AcDbEntity
  8
1
  6
Continuous
 62
    15
100
AcDbLine
 10
2.084315003068785
 20
1.000000089078775
 30
0.0
 11
2.084314927093414
 21
1.000000013103403
 31
0.0
  0
LINE
  5
274
330
25E
100
AcDbEntity
  8
1
  6
Continuous
 62
    15
100
AcDbLine
 10
2.444296488004175
 20
1.359981574014164
 30
0.0
 11
2.650000193681541
 21
1.565685279691529
 31
0.0
  0
LINE
  5
275
330
25E
100
AcDbEntity
  8
1
  6
Continuous
 62
    15
100
AcDbLine
 10
2.727139083310553
 20
1.642824169320541
 30
0.0
 11
2.85000015872903
 21
1.765685244739018
 31
0.0
  0
LINE
  5
276
330
25E
100
AcDbEntity
  8
1
  6
Continuous
 62
    15
100
AcDbLine
 10
3.292824273923309
 20
2.774194550546049
 30
0.0
 11
3.496313886008253
 21
2.977684162630993
 31
0.0
  0
LINE
  5
277
330
25E
100
AcDbEntity
  8
1
  6
Continuous
 62
    15
100
AcDbLine
 10
2.65000017064996
 20
2.131370447272703
 30
0.0
 11
2.65000019368154
 21
2.131370470304283
 31
0.0
  0
LINE
  5
278
330
25E
100
AcDbEntity
  8
1
  6
Continuous
 62
    15
100
AcDbLine
 10
2.727139083310552
 20
2.208509359933295
 30
0.0
 11
2.85000015872903
 21
2.331370435351772
 31
0.0
  0
LINE
  5
279
330
25E
100
AcDbEntity
  8
1
  6
Continuous
 62
    15
100
AcDbLine
 10
2.084315003068784
 20
1.565685279691529
 30
0.0
 11
1.878611297391418
 21
1.359981574014164
 31
0.0
  0
LINE
  5
27A
330
25E
100
AcDbEntity
  8
1
  6
Continuous
 62
    15
100
AcDbLine
 10
2.161453892697796
 20
1.642824169320541
 30
0.0
 11
2.27438103384887
 21
1.755751310471615
 31
0.0
  0
LINE
  5
27B
330
25E
100
AcDbEntity
  8
1
  6
Continuous
 62
    15
100
AcDbLine
 10
2.650000170649959
 20
2.697055637885457
 30
0.0
 11
2.65000019368154
 21
2.697055660917039
 31
0.0
  0
LINE
  5
27C
330
25E
100
AcDbEntity
  8
1
  6
Continuous
 62
    15
100
AcDbLine
 10
2.727139083310552
 20
2.774194550546051
 30
0.0
 11
2.932842788987919
 21
2.979898256223416
 31
0.0
  0
LINE
  5
27D
330
25E
100
AcDbEntity
  8
1
  6
Continuous
 62
    15
100
AcDbLine
 10
2.952944530966738
 20
2.999999998202236
 30
0.0
 11
2.952944530966738
 21
2.999999998202236
 31
0.0
  0
LINE
  5
27E
330
25E
100
AcDbEntity
  8
1
  6
Continuous
 62
    15
100
AcDbLine
 10
1.878611297391418
 20
1.92566676462692
 30
0.0
 11
1.930649175829557
 21
1.977704643065058
 31
0.0
  0
LINE
  5
27F
330
25E
100
AcDbEntity
  8
1
  6
Continuous
 62
    15
100
AcDbLine
 10
3.400000195151105
 20
5.250000013103403
 30
0.0
 11
3.547055777440738
 21
5.102944430813771
 31
0.0
  0
LINE
  5
280
330
25E
100
AcDbEntity
  8
1
  6
Continuous
 62
    15
100
AcDbLine
 10
3.563349822369606
 20
5.086650385884903
 30
0.0
 11
3.563349822369606
 21
5.086650385884903
 31
0.0
  0
LINE
  5
281
330
25E
100
AcDbEntity
  8
1
  6
Continuous
 62
    15
100
AcDbLine
 10
2.400000161623495
 20
6.250000046631015
 30
0.0
 11
2.415685396215226
 21
6.234314812039285
 31
0.0
  0
LINE
  5
282
330
25E
100
AcDbEntity
  8
1
  6
Continuous
 62
    15
100
AcDbLine
 10
2.492824285844238
 20
6.157175922410273
 30
0.0
 11
2.698527991521604
 21
5.951472216732906
 31
0.0
  0
LINE
  5
283
330
25E
100
AcDbEntity
  8
1
  6
Continuous
 62
    15
100
AcDbLine
 10
2.775666881150616
 20
5.874333327103894
 30
0.0
 11
2.85000015872903
 21
5.80000004952548
 31
0.0
  0
LINE
  5
284
330
25E
100
AcDbEntity
  8
1
  6
Continuous
 62
    15
100
AcDbLine
 10
1.850000158729038
 20
6.800000049525473
 30
0.0
 11
1.85000015872903
 21
6.80000004952548
 31
0.0
  0
LINE
  5
285
330
25E
100
AcDbEntity
  8
1
  6
Continuous
 62
    15
100
AcDbLine
 10
2.650000170649959
 20
5.434314846991795
 30
0.0
 11
2.698527991521605
 21
5.38578702612015
 31
0.0
  0
LINE
  5
286
330
25E
100
AcDbEntity
  8
1
  6
Continuous
 62
    15
100
AcDbLine
 10
2.775666881150617
 20
5.308648136491138
 30
0.0
 11
2.981370586827983
 21
5.102944430813771
 31
0.0
  0
LINE
  5
287
330
25E
100
AcDbEntity
  8
1
  6
Continuous
 62
    15
100
AcDbLine
 10
3.058509476456995
 20
5.025805541184759
 30
0.0
 11
3.084314989637191
 21
5.000000028004564
 31
0.0
  0
LINE
  5
288
330
25E
100
AcDbEntity
  8
1
  6
Continuous
 62
    15
100
AcDbLine
 10
1.850000158729031
 20
6.234314858912724
 30
0.0
 11
1.850000205602471
 21
6.234314812039285
 31
0.0
  0
LINE
  5
289
330
25E
100
AcDbEntity
  8
1
  6
Continuous
 62
    15
100
AcDbLine
 10
1.927139095231483
 20
6.157175922410273
 30
0.0
 11
1.988691170173317
 21
6.095623847468439
 31
0.0
  0
LINE
  5
28A
330
25E
100
AcDbEntity
  8
1
  6
Continuous
 62
    15
100
AcDbLine
 10
2.215685385763864
 20
7.000000013103402
 30
0.0
 11
2.415685396215226
 21
6.80000000265204
 31
0.0
  0
LINE
  5
28B
330
25E
100
AcDbEntity
  8
1
  6
Continuous
 62
    15
100
AcDbLine
 10
2.492824285844238
 20
6.722861113023028
 30
0.0
 11
2.698527991521604
 21
6.517157407345662
 31
0.0
  0
LINE
  5
28C
330
25E
100
AcDbEntity
  8
1
  6
Continuous
 62
    15
100
AcDbLine
 10
2.775666881150616
 20
6.44001851771665
 30
0.0
 11
2.85000015872903
 21
6.365685240138236
 31
0.0
  0
LINE
  5
28D
330
25E
100
AcDbEntity
  8
1
  6
Continuous
 62
    15
100
AcDbLine
 10
1.850000205602469
 20
6.800000002652041
 30
0.0
 11
1.85000015872903
 21
6.799999955778602
 31
0.0
  0
LINE
  5
28E
330
25E
100
AcDbEntity
  8
1
  6
Continuous
 62
    15
100
AcDbLine
 10
1.927139095231481
 20
6.877138892281053
 30
0.0
 11
2.05000021605383
 21
7.000000013103402
 31
0.0
  0
LINE
  5
28F
330
25E
100
AcDbEntity
  8
1
  6
Continuous
 62
    15
100
AcDbLine
 10
2.132842800908848
 20
6.517157407345662
 30
0.0
 11
1.927139095231482
 21
6.311453701668296
 31
0.0
  0
LINE
  5
290
330
25E
100
AcDbEntity
  8
1
  6
Continuous
 62
    15
100
AcDbLine
 10
1.85000020560247
 20
6.234314812039284
 30
0.0
 11
1.85000015872903
 21
6.234314765165845
 31
0.0
  0
LINE
  5
291
330
25E
100
AcDbEntity
  8
1
  6
Continuous
 62
    15
100
AcDbLine
 10
2.20998169053786
 20
6.594296296974674
 30
0.0
 11
2.415685396215226
 21
6.80000000265204
 31
0.0
  0
LINE
  5
292
330
25E
100
AcDbEntity
  8
1
  6
Continuous
 62
    15
100
AcDbLine
 10
2.492824285844238
 20
6.877138892281052
 30
0.0
 11
2.615685406666587
 21
7.000000013103401
 31
0.0
  0
LINE
  5
293
330
25E
100
AcDbEntity
  8
1
  6
Continuous
 62
    15
100
AcDbLine
 10
2.492824285844238
 20
6.311453701668296
 30
0.0
 11
2.698527991521604
 21
6.517157407345662
 31
0.0
  0
LINE
  5
294
330
25E
100
AcDbEntity
  8
1
  6
Continuous
 62
    15
100
AcDbLine
 10
2.775666881150616
 20
6.594296296974674
 30
0.0
 11
2.850000158729033
 21
6.668629574553091
 31
0.0
  0
LINE
  5
295
330
25E
100
AcDbEntity
  8
1
  6
Continuous
 62
    15
100
AcDbLine
 10
2.698527991521604
 20
5.951472216732906
 30
0.0
 11
2.650000170649959
 21
5.90294439586126
 31
0.0
  0
LINE
  5
296
330
25E
100
AcDbEntity
  8
1
  6
Continuous
 62
    15
100
AcDbLine
 10
2.775666881150616
 20
6.028611106361918
 30
0.0
 11
2.850000158729032
 21
6.102944383940335
 31
0.0
  0
LINE
  5
297
330
25E
100
AcDbEntity
  8
1
  6
Continuous
 62
    15
100
AcDbLine
 10
2.850000158729031
 20
5.537259193327577
 30
0.0
 11
2.775666881150616
 21
5.462925915749162
 31
0.0
  0
LINE
  5
298
330
25E
100
AcDbEntity
  8
1
  6
Continuous
 62
    15
100
AcDbLine
 10
2.698527991521604
 20
5.38578702612015
 30
0.0
 11
2.65000017064996
 21
5.337259205248506
 31
0.0
  0
LINE
  5
299
330
25E
100
AcDbEntity
  8
1
  6
Continuous
 62
    15
100
AcDbLine
 10
3.128426169117616
 20
5.250000013103405
 30
0.0
 11
3.058509476456995
 21
5.180083320442783
 31
0.0
  0
LINE
  5
29A
330
25E
100
AcDbEntity
  8
1
  6
Continuous
 62
    15
100
AcDbLine
 10
2.981370586827983
 20
5.102944430813771
 30
0.0
 11
2.878426184018776
 21
5.000000028004566
 31
0.0
  0
LINE
  5
29B
330
25E
100
AcDbEntity
  8
1
  6
Continuous
 62
    15
100
AcDbLine
 10
3.54705577744074
 20
5.102944430813771
 30
0.0
 11
3.451144939431023
 21
5.007033592804055
 31
0.0
  0
LINE
  5
29C
330
25E
100
AcDbEntity
  8
1
  6
Continuous
 62
    15
100
AcDbLine
 10
3.592203040960272
 20
5.148091694333303
 30
0.0
 11
3.592203040960272
 21
5.148091694333303
 31
0.0
  0
LINE
  5
29D
330
25E
100
AcDbEntity
  8
1
  6
Continuous
 62
    15
100
AcDbLine
 10
1.85000015872903
 20
2.750000091248724
 30
0.0
 11
2.650000170649959
 21
1.950000079327795
 31
0.0
  0
LINE
  5
29E
330
25E
100
AcDbEntity
  8
1
  6
Continuous
 62
    15
100
AcDbLine
 10
1.85000015872903
 20
3.88137095800594
 30
0.0
 11
2.755243066356466
 21
2.976128050378502
 31
0.0
  0
LINE
  5
29F
330
25E
100
AcDbEntity
  8
1
  6
Continuous
 62
    15
100
AcDbLine
 10
1.85000015872903
 20
5.012741824763156
 30
0.0
 11
3.396863236769299
 21
3.465878746722886
 31
0.0
  0
LINE
  5
2A0
330
25E
100
AcDbEntity
  8
1
  6
Continuous
 62
    15
100
AcDbLine
 10
1.947489655626351
 20
6.04662319462305
 30
0.0
 11
2.650000170649962
 21
5.344112679599437
 31
0.0
  0
LINE
  5
2A1
330
25E
100
AcDbEntity
  8
1
  6
Continuous
 62
    15
100
AcDbLine
 10
2.994112822244836
 20
5.000000028004564
 30
0.0
 11
3.401688517119206
 21
4.592424333130193
 31
0.0
  0
LINE
  5
2A2
330
25E
100
AcDbEntity
  8
1
  6
Continuous
 62
    15
100
AcDbLine
 10
4.570000199260193
 20
8.000000072708048
 30
0.0
 11
15.74157506404489
 21
14.82011257544085
 31
0.0
  0
ARC
  5
2A3
330
25E
100
AcDbEntity
  8
1
  6
Continuous
 62
    15
100
AcDbCircle
 10
15.95000015872904
 20
14.47870522357814
 30
0.0
 40
0.3999999999999978
100
AcDbArc
 50
301.4035648056335
 51
121.4035648056335
  0
LINE
  5
2A4
330
25E
100
AcDbEntity
  8
1
  6
Continuous
 62
    15
100
AcDbLine
 10
16.15842525341318
 20
14.13729787171543
 30
0.0
 11
10.34583330808617
 21
10.58878018469078
 31
0.0
  0
ARC
  5
2A5
330
25E
100
AcDbEntity
  8
1
  6
Continuous
 62
    15
100
AcDbCircle
 10
9.100000158729031
 20
8.715174099099976
 30
0.0
 40
2.25
100
AcDbArc
 50
341.2610915308524
 51
56.37853017329314
  0
ARC
  5
2A6
330
25E
100
AcDbEntity
  8
1
  6
Continuous
 62
    15
100
AcDbCircle
 10
-7.709113826628247
 20
14.41747074407262
 30
0.0
 40
20.0
100
AcDbArc
 50
317.7260252640424
 51
341.2610915308523
  0
LINE
  5
2A7
330
25E
100
AcDbEntity
  8
1
  6
Continuous
 62
    15
100
AcDbLine
 10
5.166312754708429
 20
7.426744991639779
 30
0.0
 11
9.539973098420731
 21
10.09681218931718
 31
0.0
  0
ARC
  5
2A8
330
25E
100
AcDbEntity
  8
1
  6
Continuous
 62
    15
100
AcDbCircle
 10
9.100000158729031
 20
8.715174099099976
 30
0.0
 40
1.45
100
AcDbArc
 50
341.2610915308522
 51
72.33628937978912
  0
ARC
  5
2A9
330
25E
100
AcDbEntity
  8
1
  6
Continuous
 62
    15
100
AcDbCircle
 10
-7.709113826628247
 20
14.41747074407262
 30
0.0
 40
19.2
100
AcDbArc
 50
320.2523331915361
 51
341.2610915308523
  0
LINE
  5
2AA
330
25E
100
AcDbEntity
  8
1
  6
Continuous
 62
    15
100
AcDbLine
 10
3.627143035967165
 20
5.250000013103403
 30
0.0
 11
3.050000158729034
 21
5.250000013103403
 31
0.0
  0
LINE
  5
2AB
330
25E
100
AcDbEntity
  8
1
  6
Continuous
 62
    15
100
AcDbLine
 10
2.850000158729031
 20
5.450000013103399
 30
0.0
 11
2.850000158729031
 21
6.8000000131034
 31
0.0
  0
LINE
  5
2AC
330
25E
100
AcDbEntity
  8
1
  6
Continuous
 62
    15
100
AcDbLine
 10
2.650000158729036
 20
7.000000013103403
 30
0.0
 11
2.050000158729034
 21
7.000000013103403
 31
0.0
  0
LINE
  5
2AD
330
25E
100
AcDbEntity
  8
1
  6
Continuous
 62
    15
100
AcDbLine
 10
1.850000158729031
 20
6.8000000131034
 30
0.0
 11
1.850000158729031
 21
1.200000013103399
 31
0.0
  0
LINE
  5
2AE
330
25E
100
AcDbEntity
  8
1
  6
Continuous
 62
    15
100
AcDbLine
 10
2.050000158729034
 20
1.000000013103403
 30
0.0
 11
2.650000158729036
 21
1.000000013103403
 31
0.0
  0
LINE
  5
2AF
330
25E
100
AcDbEntity
  8
1
  6
Continuous
 62
    15
100
AcDbLine
 10
2.850000158729031
 20
1.200000013103399
 30
0.0
 11
2.850000158729031
 21
2.5500000131034
 31
0.0
  0
LINE
  5
2B0
330
25E
100
AcDbEntity
  8
1
  6
Continuous
 62
    15
100
AcDbLine
 10
3.050000158729034
 20
2.750000013103403
 30
0.0
 11
3.631339459664957
 21
2.750000013103403
 31
0.0
  0
ARC
  5
2B1
330
25E
100
AcDbEntity
  8
1
  6
Continuous
 62
    15
100
AcDbCircle
 10
2.650000158729036
 20
1.200000013103399
 30
0.0
 40
0.2
100
AcDbArc
 50
270.0
 51
0.0
  0
ARC
  5
2B2
330
25E
100
AcDbEntity
  8
1
  6
Continuous
 62
    15
100
AcDbCircle
 10
3.050000158729034
 20
2.5500000131034
 30
0.0
 40
0.2
100
AcDbArc
 50
90.0
 51
180.0
  0
ARC
  5
2B3
330
25E
100
AcDbEntity
  8
1
  6
Continuous
 62
    15
100
AcDbCircle
 10
3.050000158729034
 20
5.450000013103399
 30
0.0
 40
0.2
100
AcDbArc
 50
180.0
 51
270.0
  0
ARC
  5
2B4
330
25E
100
AcDbEntity
  8
1
  6
Continuous
 62
    15
100
AcDbCircle
 10
2.650000158729036
 20
6.8000000131034
 30
0.0
 40
0.2
100
AcDbArc
 50
0.0
 51
90.0
  0
ARC
  5
2B5
330
25E
100
AcDbEntity
  8
1
  6
Continuous
 62
    15
100
AcDbCircle
 10
2.050000158729034
 20
6.8000000131034
 30
0.0
 40
0.2
100
AcDbArc
 50
90.0
 51
180.0
  0
ARC
  5
2B6
330
25E
100
AcDbEntity
  8
1
  6
Continuous
 62
    15
100
AcDbCircle
 10
2.050000158729034
 20
1.200000013103399
 30
0.0
 40
0.2
100
AcDbArc
 50
180.0
 51
270.0
  0
LINE
  5
2B7
330
25E
100
AcDbEntity
  8
1
  6
Continuous
 62
    15
100
AcDbLine
 10
5.191714530653833
 20
7.50083350481389
 30
0.0
 11
3.991428762067386
 21
4.000000013103403
 31
0.0
  0
LINE
  5
2B8
330
25E
100
AcDbEntity
  8
1
  6
Continuous
 62
    15
100
AcDbLine
 10
0.0000001311618902
 20
5.000000028004557
 30
0.0
 11
0.0000001311618902
 21
5.000000028004557
 31
0.0
  0
LINE
  5
2B9
330
25E
100
AcDbEntity
  8
1
  6
Continuous
 62
    15
100
AcDbLine
 10
0.0000001311618902
 20
5.000000028004557
 30
0.0
 11
0.0000001311618902
 21
5.000000028004557
 31
0.0
  0
LINE
  5
2BA
330
25E
100
AcDbEntity
  8
1
  6
Continuous
 62
    15
100
AcDbLine
 10
0.0000001311618902
 20
5.000000028004557
 30
0.0
 11
0.0000001311618902
 21
5.000000028004557
 31
0.0
  0
LINE
  5
2BB
330
25E
100
AcDbEntity
  8
1
  6
Continuous
 62
    15
100
AcDbLine
 10
0.0000001311618902
 20
5.000000028004557
 30
0.0
 11
0.0000001311618902
 21
5.000000028004557
 31
0.0
  0
LINE
  5
2BC
330
25E
100
AcDbEntity
  8
1
  6
Continuous
 62
    15
100
AcDbLine
 10
0.0000001311618902
 20
5.000000028004557
 30
0.0
 11
0.0000001311618902
 21
5.000000028004557
 31
0.0
  0
LINE
  5
2BD
330
25E
100
AcDbEntity
  8
1
  6
Continuous
 62
    15
100
AcDbLine
 10
0.0000001311618902
 20
5.000000028004557
 30
0.0
 11
0.0000001311618902
 21
5.000000028004557
 31
0.0
  0
LINE
  5
2BE
330
25E
100
AcDbEntity
  8
1
  6
Continuous
 62
    15
100
AcDbLine
 10
0.0000001311618902
 20
5.000000028004557
 30
0.0
 11
0.0000001311618902
 21
5.000000028004557
 31
0.0
  0
LINE
  5
2BF
330
25E
100
AcDbEntity
  8
1
  6
Continuous
 62
    15
100
AcDbLine
 10
0.0000001311618902
 20
5.000000028004557
 30
0.0
 11
0.0000001311618902
 21
5.000000028004557
 31
0.0
  0
LINE
  5
2C0
330
25E
100
AcDbEntity
  8
1
  6
Continuous
 62
    15
100
AcDbLine
 10
3.594572524878657
 20
2.862253044088135
 30
0.0
 11
4.419271321108695
 21
0.3443673387840036
 31
0.0
  0
LINE
  5
2C1
330
25E
100
AcDbEntity
  8
1
  6
Continuous
 62
    15
100
AcDbLine
 10
4.894432866657695
 20
-0.0000000465012491
 30
0.0
 11
5.812277877939955
 21
-0.0000000465012491
 31
0.0
  0
ARC
  5
2C2
330
25E
100
AcDbEntity
  8
1
  6
Continuous
 62
    15
100
AcDbCircle
 10
2.650000170649975
 20
5.000000028004564
 30
0.0
 40
6.000000089406967
100
AcDbArc
 50
305.0968012275845
 51
317.7260252640424
  0
LINE
  5
2C3
330
25E
100
AcDbEntity
  8
1
  6
Continuous
 62
    15
100
AcDbLine
 10
4.570000199260193
 20
8.000000072708048
 30
0.0
 11
3.587760802384295
 21
5.135135165153372
 31
0.0
  0
LINE
  5
2C4
330
25E
100
AcDbEntity
  8
1
  6
Continuous
 62
    15
100
AcDbLine
 10
1.850000158729031
 20
5.750000039180428
 30
0.0
 11
1.850000158729031
 21
2.249999987026371
 31
0.0
  0
LINE
  5
2C5
330
25E
100
AcDbEntity
  8
1
  6
Continuous
 62
    15
100
AcDbLine
 10
5.07561724155218
 20
0.7499999646746218
 30
0.0
 11
5.732207218062911
 21
0.7499999646746218
 31
0.0
  0
ARC
  5
2C6
330
25E
100
AcDbEntity
  8
1
  6
Continuous
 62
    15
100
AcDbCircle
 10
2.650000170649975
 20
5.000000028004564
 30
0.0
 40
5.250000078231096
100
AcDbArc
 50
305.9505676196178
 51
327.0025763907773
  0
LINE
  5
2C7
330
25E
100
AcDbEntity
  8
1
  6
Continuous
 62
    15
100
AcDbLine
 10
5.017046081309807
 20
6.991383860893762
 30
0.0
 11
3.991428762067386
 21
4.000000013103403
 31
0.0
  0
LINE
  5
2C8
330
25E
100
AcDbEntity
  8
1
  6
Continuous
 62
    15
100
AcDbLine
 10
3.991428762067386
 20
4.000000013103403
 30
0.0
 11
5.07561724155218
 21
0.7499999646746218
 31
0.0
  0
ARC
  5
2C9
330
25E
100
AcDbEntity
  8
1
  6
Continuous
 62
    15
100
AcDbCircle
 10
5.812277877939955
 20
0.4999999609493386
 30
0.0
 40
0.5000000074505806
100
AcDbArc
 50
270.0
 51
305.0968012275845
  0
ARC
  5
2CA
330
25E
100
AcDbEntity
  8
1
  6
Continuous
 62
    15
100
AcDbCircle
 10
4.894432866657695
 20
0.4999999609493315
 30
0.0
 40
0.5000000074505806
100
AcDbArc
 50
198.1354962559053
 51
270.0
  0
LINE
  5
2CB
330
25E
100
AcDbEntity
  8
1
  6
HIDDEN
 62
    15
100
AcDbLine
 10
3.587760802384295
 20
5.135135165153372
 30
0.0
 11
3.210512176684752
 21
4.0348266735297
 31
0.0
  0
LINE
  5
2CC
330
25E
100
AcDbEntity
  8
1
  6
HIDDEN
 62
    15
100
AcDbLine
 10
3.210512176684752
 20
4.0348266735297
 30
0.0
 11
3.59457252487865
 21
2.862253044088135
 31
0.0
  0
ENDBLK
  5
260
330
25E
100
AcDbEntity
  8
0
100
AcDbBlockEnd
  0
BLOCK
  5
2CE
330
2CD
100
AcDbEntity
  8
0
100
AcDbBlockBegin
  2
GEN_BLOCK00003
 70
     0
 71
     0
 10
0.0
 20
0.0
 30
0.0
  3
GEN_BLOCK00003
  1

  0
LINE
  5
2D1
330
2CD
100
AcDbEntity
  8
1
  6
HIDDEN
 62
    15
100
AcDbLine
 10
0.0000005296093804
 20
-0.0000015265268303
 30
0.0
 11
0.0000005296093804
 21
-0.0000015265268303
 31
0.0
  0
ENDBLK
  5
2CF
330
2CD
100
AcDbEntity
  8
0
100
AcDbBlockEnd
  0
BLOCK
  5
2D3
330
2D2
100
AcDbEntity
  8
0
100
AcDbBlockBegin
  2
GEN_BLOCK00004
 70
     0
 71
     0
 10
0.0
 20
0.0
 30
0.0
  3
GEN_BLOCK00004
  1

  0
ARC
  5
2D6
330
2D2
100
AcDbEntity
  8
0
  6
Continuous
 62
    15
100
AcDbCircle
 10
6.558093569810694
 20
-3.345789812830951
 30
0.0
 40
8.177165026246895
100
AcDbArc
 50
117.0209269307648
 51
138.8194993480197
  0
ARC
  5
2D7
330
2D2
100
AcDbEntity
  8
0
  6
Continuous
 62
    15
100
AcDbCircle
 10
7.974496062658218
 20
-4.00445869498045
 30
0.0
 40
9.318469936955477
100
AcDbArc
 50
82.52882873452248
 51
101.6307449866929
  0
ARC
  5
2D8
330
2D2
100
AcDbEntity
  8
0
  6
Continuous
 62
    15
100
AcDbCircle
 10
6.123077964971841
 20
4.373171110584543
 30
0.0
 40
0.75
100
AcDbArc
 50
92.07978686061502
 51
110.0
  0
ARC
  5
2D9
330
2D2
100
AcDbEntity
  8
0
  6
Continuous
 62
    15
100
AcDbCircle
 10
6.123077964971841
 20
4.373171110584543
 30
0.0
 40
0.75
100
AcDbArc
 50
110.0
 51
200.0
  0
LINE
  5
2DA
330
2D2
100
AcDbEntity
  8
0
  6
Continuous
 62
    15
100
AcDbLine
 10
5.418308499382405
 20
4.116656003090291
 30
0.0
 11
5.777429649874364
 21
3.129978751265092
 31
0.0
  0
ARC
  5
2DB
330
2D2
100
AcDbEntity
  8
0
  6
Continuous
 62
    15
100
AcDbCircle
 10
6.153306698188729
 20
3.266786808595356
 30
0.0
 40
0.4
100
AcDbArc
 50
200.0
 51
289.9999999999999
  0
LINE
  5
2DC
330
2D2
100
AcDbEntity
  8
0
  6
Continuous
 62
    15
100
AcDbLine
 10
6.290114755518985
 20
2.890909760280991
 30
0.0
 11
7.041868852147715
 21
3.164525874941525
 31
0.0
  0
ARC
  5
2DD
330
2D2
100
AcDbEntity
  8
0
  6
Continuous
 62
    15
100
AcDbCircle
 10
7.298383959641967
 20
2.459756409352096
 30
0.0
 40
0.75
100
AcDbArc
 50
20.00000000000009
 51
110.0
  0
LINE
  5
2DE
330
2D2
100
AcDbEntity
  8
0
  6
Continuous
 62
    15
100
AcDbLine
 10
8.003153425231389
 20
2.716271516846348
 30
0.0
 11
8.139961482561674
 21
2.340394468531983
 31
0.0
  0
ARC
  5
2DF
330
2D2
100
AcDbEntity
  8
0
  6
Continuous
 62
    15
100
AcDbCircle
 10
7.435192016972238
 20
2.083879361037731
 30
0.0
 40
0.75
100
AcDbArc
 50
290.0000000000001
 51
20.0
  0
LINE
  5
2E0
330
2D2
100
AcDbEntity
  8
0
  6
Continuous
 62
    15
100
AcDbLine
 10
7.69170712446649
 20
1.379109895448302
 30
0.0
 11
4.026905903401442
 21
0.0452313364781887
 31
0.0
  0
ARC
  5
2E1
330
2D2
100
AcDbEntity
  8
0
  6
Continuous
 62
    15
100
AcDbCircle
 10
3.77039079590719
 20
0.7500008020676248
 30
0.0
 40
0.75
100
AcDbArc
 50
199.9999999999998
 51
289.9999999999998
  0
ARC
  5
2E2
330
2D2
100
AcDbEntity
  8
0
  6
Continuous
 62
    15
100
AcDbCircle
 10
3.77039079590719
 20
0.7500008020676248
 30
0.0
 40
0.75
100
AcDbArc
 50
199.9999999999998
 51
289.9999999999998
  0
LINE
  5
2E3
330
2D2
100
AcDbEntity
  8
0
  6
Continuous
 62
    15
100
AcDbLine
 10
3.065621330317761
 20
0.4934856945733728
 30
0.0
 11
2.92881327298749
 21
0.8693627428877377
 31
0.0
  0
ARC
  5
2E4
330
2D2
100
AcDbEntity
  8
0
  6
Continuous
 62
    15
100
AcDbCircle
 10
3.633582738576926
 20
1.12587785038199
 30
0.0
 40
0.75
100
AcDbArc
 50
109.9999999999999
 51
199.9999999999998
  0
LINE
  5
2E5
330
2D2
100
AcDbEntity
  8
0
  6
Continuous
 62
    15
100
AcDbLine
 10
3.377067631082674
 20
1.830647315971419
 30
0.0
 11
4.128821727711397
 21
2.104263430631953
 31
0.0
  0
ARC
  5
2E6
330
2D2
100
AcDbEntity
  8
0
  6
Continuous
 62
    15
100
AcDbCircle
 10
3.992013670381134
 20
2.480140478946318
 30
0.0
 40
0.4
100
AcDbArc
 50
290.0
 51
20.00000000000003
  0
LINE
  5
2E7
330
2D2
100
AcDbEntity
  8
0
  6
Continuous
 62
    15
100
AcDbLine
 10
4.367890718695492
 20
2.616948536276588
 30
0.0
 11
4.008769568203547
 21
3.603625788101787
 31
0.0
  0
ARC
  5
2E8
330
2D2
100
AcDbEntity
  8
0
  6
Continuous
 62
    15
100
AcDbCircle
 10
3.304000102614111
 20
3.347110680607535
 30
0.0
 40
0.75
100
AcDbArc
 50
20.00000000000005
 51
110.0
  0
LINE
  5
2E9
330
2D2
100
AcDbEntity
  8
0
  6
Continuous
 62
    15
100
AcDbLine
 10
3.047484995119859
 20
4.051880146196972
 30
0.0
 11
2.84307744794841
 21
3.93876117407131
 31
0.0
  0
ARC
  5
2EA
330
2D2
100
AcDbEntity
  8
0
  6
Continuous
 62
    15
100
AcDbCircle
 10
0.2499990850599119
 20
2.23554521479911
 30
0.0
 40
0.25
100
AcDbArc
 50
290.0000000000001
 51
318.4979393479002
  0
ARC
  5
2EB
330
2D2
100
AcDbEntity
  8
0
  6
Continuous
 62
    15
100
AcDbCircle
 10
0.2499990850599119
 20
2.23554521479911
 30
0.0
 40
0.25
100
AcDbArc
 50
200.0
 51
290.0000000000001
  0
ARC
  5
2EC
330
2D2
100
AcDbEntity
  8
0
  6
Continuous
 62
    15
100
AcDbCircle
 10
0.2499990850599119
 20
2.23554521479911
 30
0.0
 40
0.25
100
AcDbArc
 50
145.0568016610933
 51
200.0
  0
ARC
  5
2ED
330
2D2
100
AcDbEntity
  8
0
  6
Continuous
 62
    15
100
AcDbCircle
 10
7.027980285935158
 20
-2.500441209944498
 30
0.0
 40
8.51862846715127
100
AcDbArc
 50
117.9632131752917
 51
145.0568016610933
  0
ARC
  5
2EE
330
2D2
100
AcDbEntity
  8
0
  6
Continuous
 62
    15
100
AcDbCircle
 10
2.799104196199337
 20
5.46525188269797
 30
0.0
 40
0.5
100
AcDbArc
 50
297.9632131752921
 51
20.00000000000002
  0
LINE
  5
2EF
330
2D2
100
AcDbEntity
  8
0
  6
Continuous
 62
    15
100
AcDbLine
 10
3.268950506592297
 20
5.636261954360805
 30
0.0
 11
3.108233900638801
 21
6.077827200149422
 31
0.0
  0
ARC
  5
2F0
330
2D2
100
AcDbEntity
  8
0
  6
Continuous
 62
    15
100
AcDbCircle
 10
3.578080211031754
 20
6.248837271812256
 30
0.0
 40
0.5
100
AcDbArc
 50
132.1062713386105
 51
200.0
  0
LINE
  5
2F1
330
2D2
100
AcDbEntity
  8
0
  6
Continuous
 62
    15
100
AcDbLine
 10
3.242826296889426
 20
6.619788499134991
 30
0.0
 11
5.044212574001733
 21
8.247824089265983
 31
0.0
  0
ARC
  5
2F2
330
2D2
100
AcDbEntity
  8
0
  6
Continuous
 62
    15
100
AcDbCircle
 10
2.788381567546573
 20
13.53517416324716
 30
0.0
 40
0.5
100
AcDbArc
 50
109.9999999999999
 51
190.7906041440173
  0
ARC
  5
2F3
330
2D2
100
AcDbEntity
  8
0
  6
Continuous
 62
    15
100
AcDbCircle
 10
2.788381567546573
 20
13.53517416324716
 30
0.0
 40
0.5
100
AcDbArc
 50
10.79060414401775
 51
109.9999999999999
  0
ARC
  5
2F4
330
2D2
100
AcDbEntity
  8
0
  6
Continuous
 62
    15
100
AcDbCircle
 10
12.12040224382768
 20
15.31376633051369
 30
0.0
 40
9.0
100
AcDbArc
 50
190.7906041440177
 51
228.1340402720335
  0
ARC
  5
2F5
330
2D2
100
AcDbEntity
  8
0
  6
Continuous
 62
    15
100
AcDbCircle
 10
5.780195048286487
 20
8.239038581857365
 30
0.0
 40
0.5
100
AcDbArc
 50
312.1062713386107
 51
48.13404027203386
  0
ARC
  5
2F6
330
2D2
100
AcDbEntity
  8
0
  6
Continuous
 62
    15
100
AcDbCircle
 10
5.780195048286487
 20
8.239038581857365
 30
0.0
 40
0.5
100
AcDbArc
 50
312.1062713386107
 51
48.13404027203386
  0
LINE
  5
2F7
330
2D2
100
AcDbEntity
  8
0
  6
Continuous
 62
    15
100
AcDbLine
 10
6.115448962428829
 20
7.86808735453463
 30
0.0
 11
4.813137726746
 21
6.691099904337179
 31
0.0
  0
ARC
  5
2F8
330
2D2
100
AcDbEntity
  8
0
  6
Continuous
 62
    15
100
AcDbCircle
 10
5.148391640888335
 20
6.320148677014437
 30
0.0
 40
0.5
100
AcDbArc
 50
132.1062713386108
 51
282.0292962315108
  0
ARC
  5
2F9
330
2D2
100
AcDbEntity
  8
0
  6
Continuous
 62
    15
100
AcDbCircle
 10
9.17707898252604
 20
5.484736576392969
 30
0.0
 40
0.25
100
AcDbArc
 50
262.7773055416432
 51
290.0000000000001
  0
ARC
  5
2FA
330
2D2
100
AcDbEntity
  8
0
  6
Continuous
 62
    15
100
AcDbCircle
 10
9.17707898252604
 20
5.484736576392969
 30
0.0
 40
0.25
100
AcDbArc
 50
290.0000000000001
 51
74.93657560321527
  0
ARC
  5
2FB
330
2D2
100
AcDbEntity
  8
0
  6
Continuous
 62
    15
100
AcDbCircle
 10
7.027980285935158
 20
-2.500441209944498
 30
0.0
 40
8.51862846715127
100
AcDbArc
 50
74.9365756032154
 51
102.0292962315111
  0
ARC
  5
2FC
330
2D2
100
AcDbEntity
  8
0
  6
Continuous
 62
    15
100
AcDbCircle
 10
12.12040224382768
 20
15.31376633051369
 30
0.0
 40
10.0
100
AcDbArc
 50
190.7906041440177
 51
224.9584833242026
  0
ENDBLK
  5
2D4
330
2D2
100
AcDbEntity
  8
0
100
AcDbBlockEnd
  0
BLOCK
  5
2FE
330
2FD
100
AcDbEntity
  8
0
100
AcDbBlockBegin
  2
GEN_BLOCK00005
 70
     0
 71
     0
 10
0.0
 20
0.0
 30
0.0
  3
GEN_BLOCK00005
  1

  0
LINE
  5
301
330
2FD
100
AcDbEntity
  8
1
  6
HIDDEN
 62
    15
100
AcDbLine
 10
13.52191925048828
 20
46.10700225830078
 30
0.0
 11
27.25942039489746
 21
46.10700225830078
 31
0.0
  0
LINE
  5
302
330
2FD
100
AcDbEntity
  8
1
  6
HIDDEN
 62
    15
100
AcDbLine
 10
27.25942039489746
 20
46.10700225830078
 30
0.0
 11
27.25942039489746
 21
55.79450225830078
 31
0.0
  0
LINE
  5
303
330
2FD
100
AcDbEntity
  8
1
  6
HIDDEN
 62
    15
100
AcDbLine
 10
27.25942039489746
 20
55.79450225830078
 30
0.0
 11
13.52191925048828
 21
55.79450225830078
 31
0.0
  0
LINE
  5
304
330
2FD
100
AcDbEntity
  8
1
  6
HIDDEN
 62
    15
100
AcDbLine
 10
13.52191925048828
 20
55.79450225830078
 30
0.0
 11
13.52191925048828
 21
46.10700225830078
 31
0.0
  0
TEXT
  5
305
330
2FD
100
AcDbEntity
  8
1
  6
Continuous
 62
    15
100
AcDbText
 10
14.89566898345947
 20
52.20075225830078
 30
0.0
 40
2.5
  1
44mm
100
AcDbText
  0
TEXT
  5
306
330
2FD
100
AcDbEntity
  8
1
  6
Continuous
 62
    15
100
AcDbText
 10
14.89566898345947
 20
47.20075225830078
 30
0.0
 40
2.5
  1
DOOR
100
AcDbText
  0
LINE
  5
307
330
2FD
100
AcDbEntity
  8
1
  6
HIDDEN
 62
    15
100
AcDbLine
 10
0.0000000270453739
 20
78.94267011750263
 30
0.0
 11
17.18078761978659
 21
74.51792620807761
 31
0.0
  0
LINE
  5
308
330
2FD
100
AcDbEntity
  8
1
  6
HIDDEN
 62
    15
100
AcDbLine
 10
17.18078761978659
 20
74.51792620807761
 30
0.0
 11
17.18078761978659
 21
70.95145115534446
 31
0.0
  0
LINE
  5
309
330
2FD
100
AcDbEntity
  8
1
  6
HIDDEN
 62
    15
100
AcDbLine
 10
17.18078761978659
 20
70.95145115534446
 30
0.0
 11
44.00000002704537
 21
74.51792620807761
 31
0.0
  0
LINE
  5
30A
330
2FD
100
AcDbEntity
  8
1
  6
HIDDEN
 62
    15
100
AcDbLine
 10
0.0000000270453739
 20
78.94267011750263
 30
0.0
 11
0.0000000270453739
 21
-0.0000002133794652
 31
0.0
  0
LINE
  5
30B
330
2FD
100
AcDbEntity
  8
1
  6
HIDDEN
 62
    15
100
AcDbLine
 10
0.0000000270453739
 20
-0.0000002133794652
 30
0.0
 11
44.00000002704537
 21
-0.0000002133794723
 31
0.0
  0
LINE
  5
30C
330
2FD
100
AcDbEntity
  8
1
  6
HIDDEN
 62
    15
100
AcDbLine
 10
44.00000002704537
 20
-0.0000002133794723
 30
0.0
 11
44.00000002704537
 21
74.51792620807761
 31
0.0
  0
ENDBLK
  5
2FF
330
2FD
100
AcDbEntity
  8
0
100
AcDbBlockEnd
  0
BLOCK
  5
30E
330
30D
100
AcDbEntity
  8
0
100
AcDbBlockBegin
  2
GEN_BLOCK00006
 70
     0
 71
     0
 10
0.0
 20
0.0
 30
0.0
  3
GEN_BLOCK00006
  1

  0
LINE
  5
311
330
30D
100
AcDbEntity
  8
1
  6
Continuous
 62
    15
100
AcDbLine
 10
0.000000538336181
 20
-0.0000003279003096
 30
0.0
 11
0.000000538336181
 21
98.5337107689907
 31
0.0
  0
LINE
  5
312
330
30D
100
AcDbEntity
  8
1
  6
Continuous
 62
    15
100
AcDbLine
 10
0.000000538336181
 20
98.5337107689907
 30
0.0
 11
22.45576670490182
 21
98.5337107689907
 31
0.0
  0
LINE
  5
313
330
30D
100
AcDbEntity
  8
1
  6
Continuous
 62
    15
100
AcDbLine
 10
22.45576670490182
 20
98.5337107689907
 30
0.0
 11
22.45576670490182
 21
15.49999967209969
 31
0.0
  0
LINE
  5
314
330
30D
100
AcDbEntity
  8
1
  6
Continuous
 62
    15
100
AcDbLine
 10
22.45576670490182
 20
98.5337107689907
 30
0.0
 11
26.45576670490182
 21
98.5337107689907
 31
0.0
  0
LINE
  5
315
330
30D
100
AcDbEntity
  8
1
  6
Continuous
 62
    15
100
AcDbLine
 10
26.45576670490182
 20
98.5337107689907
 30
0.0
 11
41.21558908972439
 21
94.96169309453704
 31
0.0
  0
LINE
  5
316
330
30D
100
AcDbEntity
  8
1
  6
Continuous
 62
    15
100
AcDbLine
 10
41.21558908972439
 20
94.96169309453704
 30
0.0
 11
54.40457742616864
 21
101.2814166724166
 31
0.0
  0
LINE
  5
317
330
30D
100
AcDbEntity
  8
1
  6
Continuous
 62
    15
100
AcDbLine
 10
54.40457742616864
 20
101.2814166724166
 30
0.0
 11
66.2197128108999
 21
94.4121519138519
 31
0.0
  0
LINE
  5
318
330
30D
100
AcDbEntity
  8
1
  6
Continuous
 62
    15
100
AcDbLine
 10
66.2197128108999
 20
94.4121519138519
 30
0.0
 11
73.45576670490182
 21
98.5337107689907
 31
0.0
  0
LINE
  5
319
330
30D
100
AcDbEntity
  8
1
  6
Continuous
 62
    15
100
AcDbLine
 10
73.45576670490182
 20
98.5337107689907
 30
0.0
 11
73.45576670490182
 21
7.844387691895975
 31
0.0
  0
ENDBLK
  5
30F
330
30D
100
AcDbEntity
  8
0
100
AcDbBlockEnd
  0
BLOCK
  5
31B
330
31A
100
AcDbEntity
  8
0
100
AcDbBlockBegin
  2
GEN_BLOCK00007
 70
     0
 71
     0
 10
0.0
 20
0.0
 30
0.0
  3
GEN_BLOCK00007
  1

  0
TEXT
  5
31E
330
31A
100
AcDbEntity
  8
1
  6
Continuous
 62
    15
100
AcDbText
 10
1.091525077819824
 20
158.0485591888428
 30
0.0
 40
2.0
  1
Inward
100
AcDbText
  0
TEXT
  5
31F
330
31A
100
AcDbEntity
  8
1
  6
Continuous
 62
    15
100
AcDbText
 10
1.091525077819824
 20
154.0485591888428
 30
0.0
 40
2.0
  1
opening
100
AcDbText
  0
TEXT
  5
320
330
31A
100
AcDbEntity
  8
1
  6
Continuous
 62
    15
100
AcDbText
 10
36.03581428527832
 20
30.42867279052734
 30
0.0
 40
2.0
  1
1:1          PBA
100
AcDbText
  0
TEXT
  5
321
330
31A
100
AcDbEntity
  8
1
  6
Continuous
 62
    15
100
AcDbText
 10
27.24315452575684
 20
11.46950531005859
 30
0.0
 40
2.0
  1
MXS 15 FS 72
100
AcDbText
  0
TEXT
  5
322
330
31A
100
AcDbEntity
  8
1
  6
Continuous
 62
    15
100
AcDbText
 10
14.05416679382324
 20
4.875007629394531
 30
0.0
 40
2.0
  1
         MXS 15
100
AcDbText
  0
TEXT
  5
323
330
31A
100
AcDbEntity
  8
1
  6
Continuous
 62
    15
100
AcDbText
 10
14.05416679382324
 20
0.8750076293945312
 30
0.0
 40
2.0
  1
Frame specfic 
100
AcDbText
  0
TEXT
  5
324
330
31A
100
AcDbEntity
  8
1
  6
Continuous
 62
    15
100
AcDbText
 10
62.23738670349121
 20
21.28903961181641
 30
0.0
 40
2.0
  1
14.04.2011
100
AcDbText
  0
ENDBLK
  5
31C
330
31A
100
AcDbEntity
  8
0
100
AcDbBlockEnd
  0
BLOCK
  5
327
330
326
100
AcDbEntity
  8
0
100
AcDbBlockBegin
  2
8569S
 70
     0
 71
     0
 10
0.0
 20
0.0
 30
0.0
  3
8569S
  1

  0
LINE
  5
32A
330
326
100
AcDbEntity
  8
FIXING
  6
Continuous
 62
    15
100
AcDbLine
 10
2.148800442670989
 20
9.403999829978737
 30
0.0
 11
2.148700442670787
 21
7.700599829978721
 31
0.0
  0
LINE
  5
32B
330
326
100
AcDbEntity
  8
FIXING
  6
Continuous
 62
    15
100
AcDbLine
 10
2.148700442670787
 20
7.700599829978721
 30
0.0
 11
1.220500442670954
 21
7.325899829978731
 31
0.0
  0
LINE
  5
32C
330
326
100
AcDbEntity
  8
FIXING
  6
Continuous
 62
    15
100
AcDbLine
 10
2.148600442671039
 20
6.96199982997873
 30
0.0
 11
1.220600442671156
 21
7.325999829978734
 31
0.0
  0
LINE
  5
32D
330
326
100
AcDbEntity
  8
FIXING
  6
Continuous
 62
    15
100
AcDbLine
 10
1.220600442671156
 20
7.325999829978734
 30
0.0
 11
5.420700442671176
 21
8.179199829978721
 31
0.0
  0
LINE
  5
32E
330
326
100
AcDbEntity
  8
FIXING
  6
Continuous
 62
    15
100
AcDbLine
 10
5.420700442671176
 20
8.179199829978721
 30
0.0
 11
4.492700442670838
 21
7.815099829978713
 31
0.0
  0
LINE
  5
32F
330
326
100
AcDbEntity
  8
FIXING
  6
Continuous
 62
    15
100
AcDbLine
 10
4.492700442670838
 20
7.815099829978713
 30
0.0
 11
2.148600442671039
 21
6.96199982997873
 31
0.0
  0
LINE
  5
330
330
326
100
AcDbEntity
  8
FIXING
  6
Continuous
 62
    15
100
AcDbLine
 10
2.148500442670837
 20
7.700499829978718
 30
0.0
 11
4.492700442670838
 21
8.553699829978733
 31
0.0
  0
LINE
  5
331
330
326
100
AcDbEntity
  8
FIXING
  6
Continuous
 62
    15
100
AcDbLine
 10
4.492700442670838
 20
6.111899829978732
 30
0.0
 11
4.492700442670838
 21
7.815099829978713
 31
0.0
  0
LINE
  5
332
330
326
100
AcDbEntity
  8
FIXING
  6
Continuous
 62
    15
100
AcDbLine
 10
4.492700442670838
 20
7.815099829978713
 30
0.0
 11
4.492700442670838
 21
6.111899829978732
 31
0.0
  0
LINE
  5
333
330
326
100
AcDbEntity
  8
FIXING
  6
Continuous
 62
    15
100
AcDbLine
 10
4.492700442670838
 20
6.111899829978732
 30
0.0
 11
4.492700442670838
 21
7.815099829978713
 31
0.0
  0
LINE
  5
334
330
326
100
AcDbEntity
  8
FIXING
  6
Continuous
 62
    15
100
AcDbLine
 10
4.492700442670838
 20
7.815099829978713
 30
0.0
 11
5.420700442671176
 21
8.179199829978721
 31
0.0
  0
LINE
  5
335
330
326
100
AcDbEntity
  8
FIXING
  6
Continuous
 62
    15
100
AcDbLine
 10
5.420700442671176
 20
8.179199829978721
 30
0.0
 11
4.49300044267099
 21
8.553699829978733
 31
0.0
  0
LINE
  5
336
330
326
100
AcDbEntity
  8
FIXING
  6
Continuous
 62
    15
100
AcDbLine
 10
4.492300442670938
 20
1.227699829978711
 30
0.0
 11
5.42000044267111
 21
0.8531998299787276
 31
0.0
  0
LINE
  5
337
330
326
100
AcDbEntity
  8
FIXING
  6
Continuous
 62
    15
100
AcDbLine
 10
5.42000044267111
 20
0.8531998299787276
 30
0.0
 11
1.21990044267109
 21
0.0000998299787156
 31
0.0
  0
LINE
  5
338
330
326
100
AcDbEntity
  8
FIXING
  6
Continuous
 62
    15
100
AcDbLine
 10
4.492100442670974
 20
0.4891998299787232
 30
0.0
 11
4.492000442670772
 21
0.4891998299787232
 31
0.0
  0
LINE
  5
339
330
326
100
AcDbEntity
  8
FIXING
  6
Continuous
 62
    15
100
AcDbLine
 10
4.492000442670772
 20
0.4891998299787232
 30
0.0
 11
5.42000044267111
 21
0.8531998299787276
 31
0.0
  0
LINE
  5
33A
330
326
100
AcDbEntity
  8
FIXING
  6
Continuous
 62
    15
100
AcDbLine
 10
4.49260044267109
 20
5.373199829978738
 30
0.0
 11
4.492500442670888
 21
5.373199829978738
 31
0.0
  0
LINE
  5
33B
330
326
100
AcDbEntity
  8
FIXING
  6
Continuous
 62
    15
100
AcDbLine
 10
4.492500442670888
 20
5.373199829978738
 30
0.0
 11
4.492500442670888
 21
3.669899829978725
 31
0.0
  0
LINE
  5
33C
330
326
100
AcDbEntity
  8
FIXING
  6
Continuous
 62
    15
100
AcDbLine
 10
4.492500442670888
 20
3.669899829978725
 30
0.0
 11
4.492500442670888
 21
5.373199829978738
 31
0.0
  0
LINE
  5
33D
330
326
100
AcDbEntity
  8
FIXING
  6
Continuous
 62
    15
100
AcDbLine
 10
4.492500442670888
 20
5.373199829978738
 30
0.0
 11
5.420500442670772
 21
5.737199829978714
 31
0.0
  0
LINE
  5
33E
330
326
100
AcDbEntity
  8
FIXING
  6
Continuous
 62
    15
100
AcDbLine
 10
4.492500442670888
 20
3.669699829978718
 30
0.0
 11
5.420200442671074
 21
3.295199829978735
 31
0.0
  0
LINE
  5
33F
330
326
100
AcDbEntity
  8
FIXING
  6
Continuous
 62
    15
100
AcDbLine
 10
5.420200442671074
 20
3.295199829978735
 30
0.0
 11
4.492200442670736
 21
2.931199829978731
 31
0.0
  0
LINE
  5
340
330
326
100
AcDbEntity
  8
FIXING
  6
Continuous
 62
    15
100
AcDbLine
 10
4.492200442670736
 20
2.931199829978731
 30
0.0
 11
4.492300442670938
 21
2.931199829978731
 31
0.0
  0
LINE
  5
341
330
326
100
AcDbEntity
  8
FIXING
  6
Continuous
 62
    15
100
AcDbLine
 10
4.492300442670938
 20
2.931199829978731
 30
0.0
 11
4.492200442670736
 21
2.931199829978731
 31
0.0
  0
LINE
  5
342
330
326
100
AcDbEntity
  8
FIXING
  6
Continuous
 62
    15
100
AcDbLine
 10
4.492200442670736
 20
2.931199829978731
 30
0.0
 11
5.420200442671074
 21
3.295199829978735
 31
0.0
  0
LINE
  5
343
330
326
100
AcDbEntity
  8
FIXING
  6
Continuous
 62
    15
100
AcDbLine
 10
5.420200442671074
 20
3.295199829978735
 30
0.0
 11
4.492500442670888
 21
3.669699829978718
 31
0.0
  0
LINE
  5
344
330
326
100
AcDbEntity
  8
FIXING
  6
Continuous
 62
    15
100
AcDbLine
 10
4.492100442670974
 20
0.4891998299787232
 30
0.0
 11
4.492000442670772
 21
0.4890998299787199
 31
0.0
  0
LINE
  5
345
330
326
100
AcDbEntity
  8
FIXING
  6
Continuous
 62
    15
100
AcDbLine
 10
1.21990044267109
 20
-0.0000001700212593
 30
0.0
 11
5.42000044267111
 21
0.8531998299787276
 31
0.0
  0
LINE
  5
346
330
326
100
AcDbEntity
  8
FIXING
  6
Continuous
 62
    15
100
AcDbLine
 10
5.42000044267111
 20
0.8531998299787276
 30
0.0
 11
4.492200442670736
 21
1.227699829978711
 31
0.0
  0
LINE
  5
347
330
326
100
AcDbEntity
  8
FIXING
  6
Continuous
 62
    15
100
AcDbLine
 10
4.492200442670736
 20
1.227699829978711
 30
0.0
 11
5.42000044267111
 21
0.8531998299787276
 31
0.0
  0
LINE
  5
348
330
326
100
AcDbEntity
  8
FIXING
  6
Continuous
 62
    15
100
AcDbLine
 10
2.148100442670938
 20
2.077999829978715
 30
0.0
 11
2.148100442670923
 21
0.3746998299787307
 31
0.0
  0
LINE
  5
349
330
326
100
AcDbEntity
  8
FIXING
  6
Continuous
 62
    15
100
AcDbLine
 10
2.148100442670923
 20
0.3746998299787307
 30
0.0
 11
1.21990044267109
 21
-0.0000001700212593
 31
0.0
  0
LINE
  5
34A
330
326
100
AcDbEntity
  8
FIXING
  6
Continuous
 62
    15
100
AcDbLine
 10
1.21990044267109
 20
-0.0000001700212593
 30
0.0
 11
5.42000044267111
 21
0.8531998299787276
 31
0.0
  0
LINE
  5
34B
330
326
100
AcDbEntity
  8
FIXING
  6
Continuous
 62
    15
100
AcDbLine
 10
5.42000044267111
 20
0.8531998299787276
 30
0.0
 11
4.492000442670772
 21
0.4890998299787199
 31
0.0
  0
LINE
  5
34C
330
326
100
AcDbEntity
  8
FIXING
  6
Continuous
 62
    15
100
AcDbLine
 10
2.148100442670923
 20
0.3746998299787307
 30
0.0
 11
1.21990044267109
 21
-0.0000001700212593
 31
0.0
  0
LINE
  5
34D
330
326
100
AcDbEntity
  8
FIXING
  6
Continuous
 62
    15
100
AcDbLine
 10
4.492000442670772
 20
0.4890998299787199
 30
0.0
 11
5.42000044267111
 21
0.8531998299787276
 31
0.0
  0
LINE
  5
34E
330
326
100
AcDbEntity
  8
FIXING
  6
Continuous
 62
    15
100
AcDbLine
 10
5.42000044267111
 20
0.8531998299787276
 30
0.0
 11
1.21990044267109
 21
-0.0000001700212593
 31
0.0
  0
LINE
  5
34F
330
326
100
AcDbEntity
  8
FIXING
  6
Continuous
 62
    15
100
AcDbLine
 10
4.492000442670772
 20
0.4890998299787199
 30
0.0
 11
4.492100442670974
 21
0.4891998299787232
 31
0.0
  0
LINE
  5
350
330
326
100
AcDbEntity
  8
FIXING
  6
Continuous
 62
    15
100
AcDbLine
 10
4.49280044267104
 20
6.111699829978726
 30
0.0
 11
5.420500442670772
 21
5.737199829978714
 31
0.0
  0
LINE
  5
351
330
326
100
AcDbEntity
  8
FIXING
  6
Continuous
 62
    15
100
AcDbLine
 10
5.420500442670772
 20
5.737199829978714
 30
0.0
 11
1.220400442670751
 21
4.88409982997873
 31
0.0
  0
LINE
  5
352
330
326
100
AcDbEntity
  8
FIXING
  6
Continuous
 62
    15
100
AcDbLine
 10
1.220400442670751
 20
4.88409982997873
 30
0.0
 11
2.14840044267109
 21
4.519999829978723
 31
0.0
  0
LINE
  5
353
330
326
100
AcDbEntity
  8
FIXING
  6
Continuous
 62
    15
100
AcDbLine
 10
2.14840044267109
 20
4.519999829978723
 30
0.0
 11
4.492500442670888
 21
5.373199829978738
 31
0.0
  0
LINE
  5
354
330
326
100
AcDbEntity
  8
FIXING
  6
Continuous
 62
    15
100
AcDbLine
 10
4.492500442670888
 20
5.373199829978738
 30
0.0
 11
4.492500442670888
 21
3.669899829978725
 31
0.0
  0
LINE
  5
355
330
326
100
AcDbEntity
  8
FIXING
  6
Continuous
 62
    15
100
AcDbLine
 10
2.148100442670938
 20
2.077999829978715
 30
0.0
 11
4.492200442670736
 21
2.931199829978731
 31
0.0
  0
LINE
  5
356
330
326
100
AcDbEntity
  8
FIXING
  6
Continuous
 62
    15
100
AcDbLine
 10
4.492200442670736
 20
2.931199829978731
 30
0.0
 11
5.420200442671074
 21
3.295199829978735
 31
0.0
  0
LINE
  5
357
330
326
100
AcDbEntity
  8
FIXING
  6
Continuous
 62
    15
100
AcDbLine
 10
5.420200442671074
 20
3.295199829978735
 30
0.0
 11
1.220100442671054
 21
2.44199982997872
 31
0.0
  0
LINE
  5
358
330
326
100
AcDbEntity
  8
FIXING
  6
Continuous
 62
    15
100
AcDbLine
 10
1.220100442671054
 20
2.44199982997872
 30
0.0
 11
2.148300442670887
 21
2.81669982997871
 31
0.0
  0
LINE
  5
359
330
326
100
AcDbEntity
  8
FIXING
  6
Continuous
 62
    15
100
AcDbLine
 10
2.148300442670887
 20
2.81669982997871
 30
0.0
 11
2.148300442670887
 21
3.669699829978718
 31
0.0
  0
LINE
  5
35A
330
326
100
AcDbEntity
  8
FIXING
  6
Continuous
 62
    15
100
AcDbLine
 10
2.148300442670887
 20
3.669699829978718
 30
0.0
 11
2.148300442670887
 21
2.81669982997871
 31
0.0
  0
LINE
  5
35B
330
326
100
AcDbEntity
  8
FIXING
  6
Continuous
 62
    15
100
AcDbLine
 10
2.148300442670887
 20
2.81669982997871
 30
0.0
 11
1.220100442671054
 21
2.44199982997872
 31
0.0
  0
LINE
  5
35C
330
326
100
AcDbEntity
  8
FIXING
  6
Continuous
 62
    15
100
AcDbLine
 10
1.220100442671054
 20
2.44199982997872
 30
0.0
 11
5.420200442671074
 21
3.295199829978735
 31
0.0
  0
LINE
  5
35D
330
326
100
AcDbEntity
  8
FIXING
  6
Continuous
 62
    15
100
AcDbLine
 10
5.420200442671074
 20
3.295199829978735
 30
0.0
 11
4.492200442670736
 21
2.931199829978731
 31
0.0
  0
LINE
  5
35E
330
326
100
AcDbEntity
  8
FIXING
  6
Continuous
 62
    15
100
AcDbLine
 10
4.492200442670736
 20
2.931199829978731
 30
0.0
 11
2.148100442670938
 21
2.077999829978715
 31
0.0
  0
LINE
  5
35F
330
326
100
AcDbEntity
  8
FIXING
  6
Continuous
 62
    15
100
AcDbLine
 10
2.148100442670938
 20
2.077999829978715
 30
0.0
 11
1.220100442671054
 21
2.44199982997872
 31
0.0
  0
LINE
  5
360
330
326
100
AcDbEntity
  8
FIXING
  6
Continuous
 62
    15
100
AcDbLine
 10
1.220100442671054
 20
2.44199982997872
 30
0.0
 11
2.148300442670887
 21
2.81669982997871
 31
0.0
  0
LINE
  5
361
330
326
100
AcDbEntity
  8
FIXING
  6
Continuous
 62
    15
100
AcDbLine
 10
2.148300442670887
 20
2.81669982997871
 30
0.0
 11
2.148300442670887
 21
4.519999829978723
 31
0.0
  0
LINE
  5
362
330
326
100
AcDbEntity
  8
FIXING
  6
Continuous
 62
    15
100
AcDbLine
 10
4.492200442670736
 20
2.931199829978731
 30
0.0
 11
4.492300442670938
 21
2.931199829978731
 31
0.0
  0
LINE
  5
363
330
326
100
AcDbEntity
  8
FIXING
  6
Continuous
 62
    15
100
AcDbLine
 10
4.492300442670938
 20
2.931199829978731
 30
0.0
 11
4.492200442670736
 21
2.931199829978731
 31
0.0
  0
LINE
  5
364
330
326
100
AcDbEntity
  8
FIXING
  6
Continuous
 62
    15
100
AcDbLine
 10
4.492200442670736
 20
2.931199829978731
 30
0.0
 11
2.148100442670938
 21
2.077999829978715
 31
0.0
  0
LINE
  5
365
330
326
100
AcDbEntity
  8
FIXING
  6
Continuous
 62
    15
100
AcDbLine
 10
2.148100442670938
 20
2.077999829978715
 30
0.0
 11
1.220100442671054
 21
2.44199982997872
 31
0.0
  0
LINE
  5
366
330
326
100
AcDbEntity
  8
FIXING
  6
Continuous
 62
    15
100
AcDbLine
 10
1.220100442671054
 20
2.44199982997872
 30
0.0
 11
5.420200442671074
 21
3.295199829978735
 31
0.0
  0
LINE
  5
367
330
326
100
AcDbEntity
  8
FIXING
  6
Continuous
 62
    15
100
AcDbLine
 10
5.420200442671074
 20
3.295199829978735
 30
0.0
 11
4.492200442670736
 21
2.931199829978731
 31
0.0
  0
LINE
  5
368
330
326
100
AcDbEntity
  8
FIXING
  6
Continuous
 62
    15
100
AcDbLine
 10
4.492200442670736
 20
2.931199829978731
 30
0.0
 11
2.148100442670938
 21
2.077999829978715
 31
0.0
  0
LINE
  5
369
330
326
100
AcDbEntity
  8
FIXING
  6
Continuous
 62
    15
100
AcDbLine
 10
2.148100442670938
 20
2.077999829978715
 30
0.0
 11
1.220100442671054
 21
2.44199982997872
 31
0.0
  0
LINE
  5
36A
330
326
100
AcDbEntity
  8
FIXING
  6
Continuous
 62
    15
100
AcDbLine
 10
1.220100442671054
 20
2.44199982997872
 30
0.0
 11
2.148300442670887
 21
2.81669982997871
 31
0.0
  0
LINE
  5
36B
330
326
100
AcDbEntity
  8
FIXING
  6
Continuous
 62
    15
100
AcDbLine
 10
2.148300442670887
 20
2.81669982997871
 30
0.0
 11
2.148300442670887
 21
4.519999829978723
 31
0.0
  0
LINE
  5
36C
330
326
100
AcDbEntity
  8
FIXING
  6
Continuous
 62
    15
100
AcDbLine
 10
2.148300442670887
 20
4.519999829978723
 30
0.0
 11
2.148300442670887
 21
2.81669982997871
 31
0.0
  0
LINE
  5
36D
330
326
100
AcDbEntity
  8
FIXING
  6
Continuous
 62
    15
100
AcDbLine
 10
4.492200442670736
 20
1.227899829978718
 30
0.0
 11
4.492200442670736
 21
2.931199829978731
 31
0.0
  0
LINE
  5
36E
330
326
100
AcDbEntity
  8
FIXING
  6
Continuous
 62
    15
100
AcDbLine
 10
4.492200442670736
 20
2.931199829978731
 30
0.0
 11
4.492200442670736
 21
1.227899829978718
 31
0.0
  0
LINE
  5
36F
330
326
100
AcDbEntity
  8
FIXING
  6
Continuous
 62
    15
100
AcDbLine
 10
4.492200442670736
 20
1.227899829978718
 30
0.0
 11
4.492200442670736
 21
2.931199829978731
 31
0.0
  0
LINE
  5
370
330
326
100
AcDbEntity
  8
FIXING
  6
Continuous
 62
    15
100
AcDbLine
 10
4.492200442670736
 20
2.931199829978731
 30
0.0
 11
5.420200442671074
 21
3.295199829978735
 31
0.0
  0
LINE
  5
371
330
326
100
AcDbEntity
  8
FIXING
  6
Continuous
 62
    15
100
AcDbLine
 10
5.420200442671074
 20
3.295199829978735
 30
0.0
 11
4.492500442670888
 21
3.669699829978718
 31
0.0
  0
LINE
  5
372
330
326
100
AcDbEntity
  8
FIXING
  6
Continuous
 62
    15
100
AcDbLine
 10
4.492500442670888
 20
3.669699829978718
 30
0.0
 11
5.420200442671074
 21
3.295199829978735
 31
0.0
  0
LINE
  5
373
330
326
100
AcDbEntity
  8
FIXING
  6
Continuous
 62
    15
100
AcDbLine
 10
5.420200442671074
 20
3.295199829978735
 30
0.0
 11
1.220100442671054
 21
2.44199982997872
 31
0.0
  0
LINE
  5
374
330
326
100
AcDbEntity
  8
FIXING
  6
Continuous
 62
    15
100
AcDbLine
 10
1.220100442671054
 20
2.44199982997872
 30
0.0
 11
2.148100442670938
 21
2.077999829978715
 31
0.0
  0
LINE
  5
375
330
326
100
AcDbEntity
  8
FIXING
  6
Continuous
 62
    15
100
AcDbLine
 10
2.148100442670938
 20
2.077999829978715
 30
0.0
 11
4.492200442670736
 21
2.931199829978731
 31
0.0
  0
LINE
  5
376
330
326
100
AcDbEntity
  8
FIXING
  6
Continuous
 62
    15
100
AcDbLine
 10
4.492200442670736
 20
2.931199829978731
 30
0.0
 11
4.492300442670938
 21
2.931199829978731
 31
0.0
  0
LINE
  5
377
330
326
100
AcDbEntity
  8
FIXING
  6
Continuous
 62
    15
100
AcDbLine
 10
2.148100442670938
 20
1.227699829978711
 30
0.0
 11
2.148100442670923
 21
0.3746998299787307
 31
0.0
  0
LINE
  5
378
330
326
100
AcDbEntity
  8
FIXING
  6
Continuous
 62
    15
100
AcDbLine
 10
2.148100442670923
 20
0.3746998299787307
 30
0.0
 11
2.148100442670938
 21
2.077999829978715
 31
0.0
  0
LINE
  5
379
330
326
100
AcDbEntity
  8
FIXING
  6
Continuous
 62
    15
100
AcDbLine
 10
2.148100442670938
 20
2.077999829978715
 30
0.0
 11
2.148100442670923
 21
0.3746998299787307
 31
0.0
  0
LINE
  5
37A
330
326
100
AcDbEntity
  8
FIXING
  6
Continuous
 62
    15
100
AcDbLine
 10
2.148100442670923
 20
0.3746998299787307
 30
0.0
 11
2.148100442670938
 21
1.227699829978711
 31
0.0
  0
LINE
  5
37B
330
326
100
AcDbEntity
  8
FIXING
  6
Continuous
 62
    15
100
AcDbLine
 10
2.147900442670974
 20
0.3744998299787241
 30
0.0
 11
4.492100442670989
 21
1.227699829978711
 31
0.0
  0
LINE
  5
37C
330
326
100
AcDbEntity
  8
FIXING
  6
Continuous
 62
    15
100
AcDbLine
 10
4.492100442670989
 20
1.227699829978711
 30
0.0
 11
2.147900442670974
 21
0.3744998299787241
 31
0.0
  0
LINE
  5
37D
330
326
100
AcDbEntity
  8
FIXING
  6
Continuous
 62
    15
100
AcDbLine
 10
1.220600442671156
 20
7.325999829978734
 30
0.0
 11
2.148800442670989
 21
7.700699829978724
 31
0.0
  0
LINE
  5
37E
330
326
100
AcDbEntity
  8
FIXING
  6
Continuous
 62
    15
100
AcDbLine
 10
1.220400442670751
 20
4.88409982997873
 30
0.0
 11
2.148600442671039
 21
5.258699829978717
 31
0.0
  0
LINE
  5
37F
330
326
100
AcDbEntity
  8
FIXING
  6
Continuous
 62
    15
100
AcDbLine
 10
2.148300442670887
 20
3.669699829978718
 30
0.0
 11
2.148300442670887
 21
2.81669982997871
 31
0.0
  0
LINE
  5
380
330
326
100
AcDbEntity
  8
FIXING
  6
Continuous
 62
    15
100
AcDbLine
 10
2.148300442670887
 20
2.81669982997871
 30
0.0
 11
2.148300442670887
 21
4.519999829978723
 31
0.0
  0
LINE
  5
381
330
326
100
AcDbEntity
  8
FIXING
  6
Continuous
 62
    15
100
AcDbLine
 10
2.148300442670887
 20
4.519999829978723
 30
0.0
 11
2.148300442670887
 21
2.81669982997871
 31
0.0
  0
LINE
  5
382
330
326
100
AcDbEntity
  8
FIXING
  6
Continuous
 62
    15
100
AcDbLine
 10
2.148300442670887
 20
2.81669982997871
 30
0.0
 11
2.148300442670887
 21
3.669699829978718
 31
0.0
  0
LINE
  5
383
330
326
100
AcDbEntity
  8
FIXING
  6
Continuous
 62
    15
100
AcDbLine
 10
2.14840044267109
 20
5.258599829978742
 30
0.0
 11
4.49260044267109
 21
6.111799829978729
 31
0.0
  0
LINE
  5
384
330
326
100
AcDbEntity
  8
FIXING
  6
Continuous
 62
    15
100
AcDbLine
 10
2.148100442670938
 20
2.816499829978731
 30
0.0
 11
4.492300442670938
 21
3.669799829978722
 31
0.0
  0
LINE
  5
385
330
326
100
AcDbEntity
  8
FIXING
  6
Continuous
 62
    15
100
AcDbLine
 10
4.492300442670938
 20
3.669799829978722
 30
0.0
 11
2.148100442670938
 21
2.816499829978731
 31
0.0
  0
LINE
  5
386
330
326
100
AcDbEntity
  8
FIXING
  6
Continuous
 62
    15
100
AcDbLine
 10
2.148100442670938
 20
2.816499829978731
 30
0.0
 11
4.492300442670938
 21
3.669799829978722
 31
0.0
  0
LINE
  5
387
330
326
100
AcDbEntity
  8
FIXING
  6
Continuous
 62
    15
100
AcDbLine
 10
2.148600442671039
 20
6.96199982997873
 30
0.0
 11
2.148600442671039
 21
5.258699829978717
 31
0.0
  0
LINE
  5
388
330
326
100
AcDbEntity
  8
FIXING
  6
Continuous
 62
    15
100
AcDbLine
 10
2.148600442671039
 20
5.258699829978717
 30
0.0
 11
2.148600442671039
 21
6.111699829978726
 31
0.0
  0
LINE
  5
389
330
326
100
AcDbEntity
  8
FIXING
  6
Continuous
 62
    15
100
AcDbLine
 10
5.420600442670974
 20
8.179099829978746
 30
0.0
 11
4.492900442670788
 21
8.55359982997873
 31
0.0
  0
LINE
  5
38A
330
326
100
AcDbEntity
  8
FIXING
  6
Continuous
 62
    15
100
AcDbLine
 10
5.420800442670924
 20
10.62109982997872
 30
0.0
 11
4.493100442670737
 21
10.99559982997871
 31
0.0
  0
LINE
  5
38B
330
326
100
AcDbEntity
  8
FIXING
  6
Continuous
 62
    15
100
AcDbLine
 10
4.49280044267104
 20
8.553799829978708
 30
0.0
 11
4.49280044267104
 21
10.25699982997875
 31
0.0
  0
LINE
  5
38C
330
326
100
AcDbEntity
  8
FIXING
  6
Continuous
 62
    15
100
AcDbLine
 10
4.49280044267104
 20
10.25699982997875
 30
0.0
 11
4.49280044267104
 21
8.553799829978708
 31
0.0
  0
LINE
  5
38D
330
326
100
AcDbEntity
  8
FIXING
  6
Continuous
 62
    15
100
AcDbLine
 10
4.49280044267104
 20
8.553799829978708
 30
0.0
 11
4.49280044267104
 21
10.25699982997875
 31
0.0
  0
LINE
  5
38E
330
326
100
AcDbEntity
  8
FIXING
  6
Continuous
 62
    15
100
AcDbLine
 10
4.49280044267104
 20
10.25699982997875
 30
0.0
 11
5.420800442670924
 21
10.62109982997872
 31
0.0
  0
LINE
  5
38F
330
326
100
AcDbEntity
  8
FIXING
  6
Continuous
 62
    15
100
AcDbLine
 10
5.420800442670924
 20
10.62109982997872
 30
0.0
 11
4.493100442670737
 21
10.99559982997871
 31
0.0
  0
LINE
  5
390
330
326
100
AcDbEntity
  8
FIXING
  6
Continuous
 62
    15
100
AcDbLine
 10
1.72540044267086
 20
13.87829982997871
 30
0.0
 11
0.9553004426711311
 21
14.32279982997871
 31
0.0
  0
LINE
  5
391
330
326
100
AcDbEntity
  8
FIXING
  6
Continuous
 62
    15
100
AcDbLine
 10
0.9553004426711311
 20
14.32279982997871
 30
0.0
 11
5.686500442670848
 21
14.32269982997874
 31
0.0
  0
LINE
  5
392
330
326
100
AcDbEntity
  8
FIXING
  6
Continuous
 62
    15
100
AcDbLine
 10
5.686500442670848
 20
14.32269982997874
 30
0.0
 11
6.641800442670927
 21
15.27809982997874
 31
0.0
  0
LINE
  5
393
330
326
100
AcDbEntity
  8
FIXING
  6
Continuous
 62
    15
100
AcDbLine
 10
6.641800442670927
 20
15.27809982997874
 30
0.0
 11
0.0000004426710518
 21
15.27819982997871
 31
0.0
  0
LINE
  5
394
330
326
100
AcDbEntity
  8
FIXING
  6
Continuous
 62
    15
100
AcDbLine
 10
0.9553004426711311
 20
16.03209982997873
 30
0.0
 11
5.686500442670848
 21
16.03199982997872
 31
0.0
  0
LINE
  5
395
330
326
100
AcDbEntity
  8
FIXING
  6
Continuous
 62
    15
100
AcDbLine
 10
5.686500442670848
 20
16.03199982997872
 30
0.0
 11
6.641800442670927
 21
15.64599982997873
 31
0.0
  0
LINE
  5
396
330
326
100
AcDbEntity
  8
FIXING
  6
Continuous
 62
    15
100
AcDbLine
 10
6.641800442670927
 20
15.64599982997873
 30
0.0
 11
0.0000004426710518
 21
15.64609982997873
 31
0.0
  0
LINE
  5
397
330
326
100
AcDbEntity
  8
FIXING
  6
Continuous
 62
    15
100
AcDbLine
 10
5.686500442670848
 20
16.03199982997872
 30
0.0
 11
0.9553004426711311
 21
16.03209982997873
 31
0.0
  0
LINE
  5
398
330
326
100
AcDbEntity
  8
FIXING
  6
Continuous
 62
    15
100
AcDbLine
 10
0.9553004426711311
 20
16.03209982997873
 30
0.0
 11
0.0000004426710518
 21
15.64609982997873
 31
0.0
  0
LINE
  5
399
330
326
100
AcDbEntity
  8
FIXING
  6
Continuous
 62
    15
100
AcDbLine
 10
0.0000004426710518
 20
15.64609982997873
 30
0.0
 11
0.0000004426710518
 21
15.27819982997871
 31
0.0
  0
LINE
  5
39A
330
326
100
AcDbEntity
  8
FIXING
  6
Continuous
 62
    15
100
AcDbLine
 10
0.0000004426710518
 20
15.27819982997871
 30
0.0
 11
0.9553004426711311
 21
14.32279982997871
 31
0.0
  0
LINE
  5
39B
330
326
100
AcDbEntity
  8
FIXING
  6
Continuous
 62
    15
100
AcDbLine
 10
0.9553004426711311
 20
14.32279982997871
 30
0.0
 11
5.686500442670848
 21
14.32269982997874
 31
0.0
  0
LINE
  5
39C
330
326
100
AcDbEntity
  8
FIXING
  6
Continuous
 62
    15
100
AcDbLine
 10
5.686500442670848
 20
14.32269982997874
 30
0.0
 11
4.916600442671069
 21
13.87829982997871
 31
0.0
  0
LINE
  5
39D
330
326
100
AcDbEntity
  8
FIXING
  6
Continuous
 62
    15
100
AcDbLine
 10
2.148800442670989
 20
9.403999829978737
 30
0.0
 11
1.220800442671106
 21
9.767999829978713
 31
0.0
  0
LINE
  5
39E
330
326
100
AcDbEntity
  8
FIXING
  6
Continuous
 62
    15
100
AcDbLine
 10
1.220800442671106
 20
9.767999829978713
 30
0.0
 11
5.420900442671126
 21
10.62119982997873
 31
0.0
  0
LINE
  5
39F
330
326
100
AcDbEntity
  8
FIXING
  6
Continuous
 62
    15
100
AcDbLine
 10
5.420900442671126
 20
10.62119982997873
 30
0.0
 11
4.492900442670788
 21
10.25709982997872
 31
0.0
  0
LINE
  5
3A0
330
326
100
AcDbEntity
  8
FIXING
  6
Continuous
 62
    15
100
AcDbLine
 10
4.492900442670788
 20
10.25709982997872
 30
0.0
 11
2.148800442670989
 21
9.403999829978737
 31
0.0
  0
ARC
  5
3A1
330
326
100
AcDbEntity
  8
FIXING
  6
Continuous
 62
    15
100
AcDbCircle
 10
5.11190044267093
 20
13.53989982997873
 30
0.0
 40
0.3907
100
AcDbArc
 50
120.0004000000002
 51
180.0
  0
ARC
  5
3A2
330
326
100
AcDbEntity
  8
FIXING
  6
Continuous
 62
    15
100
AcDbCircle
 10
1.530000442670797
 20
13.53989982997873
 30
0.0
 40
0.3907
100
AcDbArc
 50
0.0
 51
59.99950000000186
  0
LINE
  5
3A3
330
326
100
AcDbEntity
  8
FIXING
  6
Continuous
 62
    15
100
AcDbLine
 10
3.446400442670864
 20
8.291399829978722
 30
0.0
 11
3.446400442670864
 21
8.291399829978722
 31
0.0
  0
LINE
  5
3A4
330
326
100
AcDbEntity
  8
FIXING
  6
Continuous
 62
    15
100
AcDbLine
 10
4.49260044267109
 20
7.815099829978713
 30
0.0
 11
4.492700442670838
 21
7.815099829978713
 31
0.0
  0
LINE
  5
3A5
330
326
100
AcDbEntity
  8
FIXING
  6
Continuous
 62
    15
100
AcDbLine
 10
4.492700442670838
 20
7.815099829978713
 30
0.0
 11
4.49280044267104
 21
7.815199829978745
 31
0.0
  0
LINE
  5
3A6
330
326
100
AcDbEntity
  8
FIXING
  6
Continuous
 62
    15
100
AcDbLine
 10
4.492900442670788
 20
10.25709982997872
 30
0.0
 11
4.49300044267099
 21
10.25719982997872
 31
0.0
  0
LINE
  5
3A7
330
326
100
AcDbEntity
  8
FIXING
  6
Continuous
 62
    15
100
AcDbLine
 10
4.49280044267104
 20
10.25709982997872
 30
0.0
 11
4.492900442670788
 21
10.25709982997872
 31
0.0
  0
LINE
  5
3A8
330
326
100
AcDbEntity
  8
FIXING
  6
Continuous
 62
    15
100
AcDbLine
 10
3.446600442670814
 20
10.73339982997873
 30
0.0
 11
3.446600442670814
 21
10.73339982997873
 31
0.0
  0
LINE
  5
3A9
330
326
100
AcDbEntity
  8
FIXING
  6
Continuous
 62
    15
100
AcDbLine
 10
1.220800442671106
 20
9.767999829978713
 30
0.0
 11
2.149000442670939
 21
10.14269982997873
 31
0.0
  0
LINE
  5
3AA
330
326
100
AcDbEntity
  8
FIXING
  6
Continuous
 62
    15
100
AcDbLine
 10
2.148900442670737
 20
10.99559982997871
 30
0.0
 11
2.148900442670737
 21
10.14259982997873
 31
0.0
  0
LINE
  5
3AB
330
326
100
AcDbEntity
  8
FIXING
  6
Continuous
 62
    15
100
AcDbLine
 10
2.148900442670737
 20
10.14259982997873
 30
0.0
 11
1.220700442670903
 21
9.767899829978738
 31
0.0
  0
LINE
  5
3AC
330
326
100
AcDbEntity
  8
FIXING
  6
Continuous
 62
    15
100
AcDbLine
 10
4.721200442671005
 20
13.53989982997873
 30
0.0
 11
4.721200442671005
 21
13.27709982997873
 31
0.0
  0
LINE
  5
3AD
330
326
100
AcDbEntity
  8
FIXING
  6
Continuous
 62
    15
100
AcDbLine
 10
4.721200442671005
 20
13.27709982997873
 30
0.0
 11
4.068600442671112
 21
13.27709982997873
 31
0.0
  0
LINE
  5
3AE
330
326
100
AcDbEntity
  8
FIXING
  6
Continuous
 62
    15
100
AcDbLine
 10
4.068600442671112
 20
13.27709982997873
 30
0.0
 11
1.996200442671096
 21
12.52279982997873
 31
0.0
  0
LINE
  5
3AF
330
326
100
AcDbEntity
  8
FIXING
  6
Continuous
 62
    15
100
AcDbLine
 10
1.920800442670924
 20
13.53989982997873
 30
0.0
 11
1.920800442670924
 21
13.27709982997873
 31
0.0
  0
LINE
  5
3B0
330
326
100
AcDbEntity
  8
FIXING
  6
Continuous
 62
    15
100
AcDbLine
 10
1.920800442670924
 20
13.27709982997873
 30
0.0
 11
1.996200442671096
 21
12.52279982997873
 31
0.0
  0
LINE
  5
3B1
330
326
100
AcDbEntity
  8
FIXING
  6
Continuous
 62
    15
100
AcDbLine
 10
1.996200442671096
 20
12.52279982997873
 30
0.0
 11
1.46280044267084
 21
12.30749982997875
 31
0.0
  0
LINE
  5
3B2
330
326
100
AcDbEntity
  8
FIXING
  6
Continuous
 62
    15
100
AcDbLine
 10
1.46280044267084
 20
12.30749982997875
 30
0.0
 11
1.46280044267084
 21
12.11479982997874
 31
0.0
  0
LINE
  5
3B3
330
326
100
AcDbEntity
  8
FIXING
  6
Continuous
 62
    15
100
AcDbLine
 10
1.46280044267084
 20
12.11479982997874
 30
0.0
 11
4.883400442670762
 21
12.90779982997872
 31
0.0
  0
LINE
  5
3B4
330
326
100
AcDbEntity
  8
FIXING
  6
Continuous
 62
    15
100
AcDbLine
 10
4.883400442670762
 20
12.90779982997872
 30
0.0
 11
4.883400442670762
 21
13.21809982997873
 31
0.0
  0
LINE
  5
3B5
330
326
100
AcDbEntity
  8
FIXING
  6
Continuous
 62
    15
100
AcDbLine
 10
4.883400442670762
 20
13.21809982997873
 30
0.0
 11
4.721200442671005
 21
13.27709982997873
 31
0.0
  0
LINE
  5
3B6
330
326
100
AcDbEntity
  8
FIXING
  6
Continuous
 62
    15
100
AcDbLine
 10
4.493100442670737
 20
10.99559982997871
 30
0.0
 11
2.148900442670737
 21
10.99559982997871
 31
0.0
  0
LINE
  5
3B7
330
326
100
AcDbEntity
  8
FIXING
  6
Continuous
 62
    15
100
AcDbLine
 10
2.148900442670737
 20
10.99559982997871
 30
0.0
 11
2.060400442670897
 21
11.88039982997872
 31
0.0
  0
LINE
  5
3B8
330
326
100
AcDbEntity
  8
FIXING
  6
Continuous
 62
    15
100
AcDbLine
 10
2.060400442670897
 20
11.88039982997872
 30
0.0
 11
1.46280044267084
 21
12.11479982997874
 31
0.0
  0
LINE
  5
3B9
330
326
100
AcDbEntity
  8
FIXING
  6
Continuous
 62
    15
100
AcDbLine
 10
1.46280044267084
 20
12.11479982997874
 30
0.0
 11
1.46280044267084
 21
12.30749982997875
 31
0.0
  0
LINE
  5
3BA
330
326
100
AcDbEntity
  8
FIXING
  6
Continuous
 62
    15
100
AcDbLine
 10
1.46280044267084
 20
12.30749982997875
 30
0.0
 11
4.883400442670762
 21
13.21809982997873
 31
0.0
  0
LINE
  5
3BB
330
326
100
AcDbEntity
  8
FIXING
  6
Continuous
 62
    15
100
AcDbLine
 10
4.883400442670762
 20
13.21809982997873
 30
0.0
 11
4.883400442670762
 21
12.90779982997872
 31
0.0
  0
LINE
  5
3BC
330
326
100
AcDbEntity
  8
FIXING
  6
Continuous
 62
    15
100
AcDbLine
 10
4.883400442670762
 20
12.90779982997872
 30
0.0
 11
2.060400442670897
 21
11.88039982997872
 31
0.0
  0
LINE
  5
3BD
330
326
100
AcDbEntity
  8
FIXING
  6
Continuous
 62
    15
100
AcDbLine
 10
2.060200442670947
 20
13.27709982997873
 30
0.0
 11
3.779200442670998
 21
13.27709982997873
 31
0.0
  0
LINE
  5
3BE
330
326
100
AcDbEntity
  8
FIXING
  6
Continuous
 62
    15
100
AcDbLine
 10
2.148900442670737
 20
10.14239982997872
 30
0.0
 11
4.493100442670737
 21
10.99559982997871
 31
0.0
  0
LINE
  5
3BF
330
326
100
AcDbEntity
  8
FIXING
  6
Continuous
 62
    15
100
AcDbLine
 10
4.493100442670737
 20
10.99559982997871
 30
0.0
 11
4.676800442670782
 21
12.83269982997873
 31
0.0
  0
LINE
  5
3C0
330
326
100
AcDbEntity
  8
FIXING
  6
Continuous
 62
    15
100
AcDbLine
 10
1.920800442670924
 20
13.76549982997872
 30
0.0
 11
4.721200442671005
 21
13.76549982997872
 31
0.0
  0
LINE
  5
3C1
330
326
100
AcDbEntity
  8
FIXING
  6
Continuous
 62
    15
100
AcDbLine
 10
6.641800442670927
 20
15.64599982997873
 30
0.0
 11
6.641800442670927
 21
15.27809982997874
 31
0.0
  0
ENDBLK
  5
328
330
326
100
AcDbEntity
  8
0
100
AcDbBlockEnd
  0
BLOCK
  5
3C3
330
3C2
100
AcDbEntity
  8
0
100
AcDbBlockBegin
  2
GEN_BLOCK00008
 70
     0
 71
     0
 10
0.0
 20
0.0
 30
0.0
  3
GEN_BLOCK00008
  1

  0
LINE
  5
3C6
330
3C2
100
AcDbEntity
  8
1
  6
Continuous
 62
    15
100
AcDbLine
 10
2.999999541248968
 20
34.68282246112823
 30
0.0
 11
3.000000226766922
 21
19.00000027726427
 31
0.0
  0
LINE
  5
3C7
330
3C2
100
AcDbEntity
  8
1
  6
Continuous
 62
    15
100
AcDbLine
 10
3.000001057283335
 20
0.000000172357062
 30
0.0
 11
3.000000882437774
 21
4.000000172357058
 31
0.0
  0
LINE
  5
3C8
330
3C2
100
AcDbEntity
  8
1
  6
Continuous
 62
    15
100
AcDbLine
 10
3.625000139344145
 20
21.00000030458388
 30
0.0
 11
3.000000226766922
 21
19.00000027726427
 31
0.0
  0
LINE
  5
3C9
330
3C2
100
AcDbEntity
  8
1
  6
Continuous
 62
    15
100
AcDbLine
 10
3.000000226766922
 20
19.00000027726427
 30
0.0
 11
2.375000139344145
 21
21.00000024994464
 31
0.0
  0
LINE
  5
3CA
330
3C2
100
AcDbEntity
  8
1
  6
Continuous
 62
    15
100
AcDbLine
 10
2.375000969860551
 20
2.000000145037443
 30
0.0
 11
3.000000882437774
 21
4.000000172357058
 31
0.0
  0
LINE
  5
3CB
330
3C2
100
AcDbEntity
  8
1
  6
Continuous
 62
    15
100
AcDbLine
 10
3.000000882437774
 20
4.000000172357058
 30
0.0
 11
3.625000969860551
 21
2.000000199676681
 31
0.0
  0
LINE
  5
3CC
330
3C2
100
AcDbEntity
  8
1
  6
Continuous
 62
    15
100
AcDbLine
 10
37.79198217391968
 20
19.00000179807016
 30
0.0
 11
0.4000002267669274
 21
19.00000016361465
 31
0.0
  0
LINE
  5
3CD
330
3C2
100
AcDbEntity
  8
1
  6
Continuous
 62
    15
100
AcDbLine
 10
40.19197988510132
 20
4.000001798070159
 30
0.0
 11
0.4000008824377801
 21
4.000000058707442
 31
0.0
  0
TEXT
  5
3CE
330
3C2
100
AcDbEntity
  8
1
  6
Continuous
 62
    15
100
AcDbText
 10
2.49996839652254
 20
26.27652005026322
 30
0.0
 40
2.5
  1
15.0
 50
89.71352388012032
100
AcDbText
  0
LINE
  5
3CF
330
3C2
100
AcDbEntity
  8
1
  6
Continuous
 62
    15
100
AcDbLine
 10
103.9725424131757
 20
0.0000022391526286
 30
0.0
 11
103.9725422383302
 21
4.000002239152625
 31
0.0
  0
LINE
  5
3D0
330
3C2
100
AcDbEntity
  8
1
  6
Continuous
 62
    15
100
AcDbLine
 10
103.9725414421249
 20
22.21505500793457
 30
0.0
 11
103.9725419391525
 21
10.84438928266812
 31
0.0
  0
LINE
  5
3D1
330
3C2
100
AcDbEntity
  8
1
  6
Continuous
 62
    15
100
AcDbLine
 10
103.347542325753
 20
2.00000221183301
 30
0.0
 11
103.9725422383302
 21
4.000002239152625
 31
0.0
  0
LINE
  5
3D2
330
3C2
100
AcDbEntity
  8
1
  6
Continuous
 62
    15
100
AcDbLine
 10
103.9725422383302
 20
4.000002239152625
 30
0.0
 11
104.597542325753
 21
2.000002266472247
 31
0.0
  0
LINE
  5
3D3
330
3C2
100
AcDbEntity
  8
1
  6
Continuous
 62
    15
100
AcDbLine
 10
104.5975418517297
 20
12.84438930998774
 30
0.0
 11
103.9725419391525
 21
10.84438928266812
 31
0.0
  0
LINE
  5
3D4
330
3C2
100
AcDbEntity
  8
1
  6
Continuous
 62
    15
100
AcDbLine
 10
103.9725419391525
 20
10.84438928266812
 30
0.0
 11
103.3475418517297
 21
12.8443892553485
 31
0.0
  0
LINE
  5
3D5
330
3C2
100
AcDbEntity
  8
1
  6
Continuous
 62
    15
100
AcDbLine
 10
98.88175201416016
 20
4.000002016627107
 30
0.0
 11
106.5725422383302
 21
4.000002352802237
 31
0.0
  0
LINE
  5
3D6
330
3C2
100
AcDbEntity
  8
1
  6
Continuous
 62
    15
100
AcDbLine
 10
99.13175201416016
 20
10.84438907107046
 30
0.0
 11
106.5725419391525
 21
10.84438939631773
 31
0.0
  0
TEXT
  5
3D7
330
3C2
100
AcDbEntity
  8
1
  6
Continuous
 62
    15
100
AcDbText
 10
103.4725102712284
 20
15.90876572185313
 30
0.0
 40
2.5
  1
6.8
 50
89.71352388012032
100
AcDbText
  0
ENDBLK
  5
3C4
330
3C2
100
AcDbEntity
  8
0
100
AcDbBlockEnd
  0
BLOCK
  5
3D9
330
3D8
100
AcDbEntity
  8
0
100
AcDbBlockBegin
  2
GEN_BLOCK00009
 70
     0
 71
     0
 10
0.0
 20
0.0
 30
0.0
  3
GEN_BLOCK00009
  1

  0
LINE
  5
3DC
330
3D8
100
AcDbEntity
  8
1
  6
Continuous
 62
    15
100
AcDbLine
 10
35.75796066091259
 20
2.622681775745669
 30
0.0
 11
35.99999997491648
 21
2.380642461741779
 31
0.0
  0
LINE
  5
3DD
330
3D8
100
AcDbEntity
  8
1
  6
Continuous
 62
    15
100
AcDbLine
 10
35.99999997491648
 20
2.380642461741779
 30
0.0
 11
36.25880162379312
 21
2.63944411061842
 31
0.0
  0
LINE
  5
3DE
330
3D8
100
AcDbEntity
  8
1
  6
Continuous
 62
    15
100
AcDbLine
 10
24.40033033940917
 20
6.19999986568768
 30
0.0
 11
26.64798807192446
 21
6.19999986568768
 31
0.0
  0
ARC
  5
3DF
330
3D8
100
AcDbEntity
  8
1
  6
Continuous
 62
    15
100
AcDbCircle
 10
26.64798807192446
 20
6.82499986568768
 30
0.0
 40
0.625
100
AcDbArc
 50
270.0
 51
90.0
  0
LINE
  5
3E0
330
3D8
100
AcDbEntity
  8
1
  6
Continuous
 62
    15
100
AcDbLine
 10
26.64798807192446
 20
7.44999986568768
 30
0.0
 11
22.16022693746109
 21
7.449999865687666
 31
0.0
  0
LINE
  5
3E1
330
3D8
100
AcDbEntity
  8
1
  6
Continuous
 62
    15
100
AcDbLine
 10
17.55140789235857
 20
3.607360156806372
 30
0.0
 11
18.16378032805436
 21
3.253806766213096
 31
0.0
  0
LINE
  5
3E2
330
3D8
100
AcDbEntity
  8
1
  6
Continuous
 62
    15
100
AcDbLine
 10
18.16378032805436
 20
3.253806766213096
 30
0.0
 11
17.86468861198291
 21
2.735764717854359
 31
0.0
  0
LINE
  5
3E3
330
3D8
100
AcDbEntity
  8
1
  6
Continuous
 62
    15
100
AcDbLine
 10
17.86468861198291
 20
2.735764717854359
 30
0.0
 11
17.81022693746108
 21
2.641434330517278
 31
0.0
  0
LINE
  5
3E4
330
3D8
100
AcDbEntity
  8
1
  6
Continuous
 62
    15
100
AcDbLine
 10
17.81022693746108
 20
2.641434330517278
 30
0.0
 11
17.81022693746108
 21
-0.000000134312323
 31
0.0
  0
LINE
  5
3E5
330
3D8
100
AcDbEntity
  8
1
  6
Continuous
 62
    15
100
AcDbLine
 10
57.47635312302457
 20
0.1507683137229137
 30
0.0
 11
61.24054502571794
 21
1.520822122369161
 31
0.0
  0
LINE
  5
3E6
330
3D8
100
AcDbEntity
  8
1
  6
Continuous
 62
    15
100
AcDbLine
 10
61.81218979477292
 20
1.350127678501387
 30
0.0
 11
61.82997110597661
 21
1.326314321372543
 31
0.0
  0
ARC
  5
3E7
330
3D8
100
AcDbEntity
  8
1
  6
Continuous
 62
    15
100
AcDbCircle
 10
62.30475902212847
 20
1.735037524465049
 30
0.0
 40
0.6264808233857041
100
AcDbArc
 50
220.7236554207954
 51
40.7236554207955
  0
ARC
  5
3E8
330
3D8
100
AcDbEntity
  8
1
  6
Continuous
 62
    15
100
AcDbCircle
 10
64.18075871789145
 20
3.349999865687671
 30
0.0
 40
1.85
100
AcDbArc
 50
319.2517007137775
 51
220.7236554207953
  0
ARC
  5
3E9
330
3D8
100
AcDbEntity
  8
1
  6
Continuous
 62
    15
100
AcDbCircle
 10
66.05580736542615
 20
1.734451563409287
 30
0.0
 40
0.6251429817379978
100
AcDbArc
 50
139.2517007137774
 51
319.2517007137775
  0
ARC
  5
3EA
330
3D8
100
AcDbEntity
  8
1
  6
Continuous
 62
    15
100
AcDbCircle
 10
64.18075871789145
 20
3.349999865687671
 30
0.0
 40
3.1
100
AcDbArc
 50
319.2517007137775
 51
13.97489179347239
  0
ARC
  5
3EB
330
3D8
100
AcDbEntity
  8
1
  6
Continuous
 62
    15
100
AcDbCircle
 10
61.77789517611966
 20
6.323186199743766
 30
0.0
 40
0.7228923319537902
100
AcDbArc
 50
234.5799295400786
 51
308.9443781271985
  0
ARC
  5
3EC
330
3D8
100
AcDbEntity
  8
1
  6
Continuous
 62
    15
100
AcDbCircle
 10
61.77789517611966
 20
6.323186199743766
 30
0.0
 40
0.7228923319537902
100
AcDbArc
 50
308.9443781271986
 51
0.0
  0
LINE
  5
3ED
330
3D8
100
AcDbEntity
  8
1
  6
Continuous
 62
    15
100
AcDbLine
 10
62.50078750807344
 20
6.323186199743766
 30
0.0
 11
62.50078750807344
 21
6.344387885483961
 31
0.0
  0
LINE
  5
3EE
330
3D8
100
AcDbEntity
  8
1
  6
Continuous
 62
    15
100
AcDbLine
 10
63.00078750807344
 20
6.844387885483961
 30
0.0
 11
62.99999984080603
 21
6.844387885483961
 31
0.0
  0
ARC
  5
3EF
330
3D8
100
AcDbEntity
  8
1
  6
Continuous
 62
    15
100
AcDbCircle
 10
63.87499985384454
 20
7.585736022514816
 30
0.0
 40
1.146831322861616
100
AcDbArc
 50
220.2731054855313
 51
319.7268945144686
  0
LINE
  5
3F0
330
3D8
100
AcDbEntity
  8
1
  6
Continuous
 62
    15
100
AcDbLine
 10
17.80029155284849
 20
9.362252913626172
 30
0.0
 11
18.42660469705092
 21
7.449999865687666
 31
0.0
  0
ARC
  5
3F1
330
3D8
100
AcDbEntity
  8
1
  6
Continuous
 62
    15
100
AcDbCircle
 10
23.77581444336946
 20
6.224972058973911
 30
0.0
 40
0.6250149716957305
100
AcDbArc
 50
229.249857885374
 51
357.7101632768781
  0
ARC
  5
3F2
330
3D8
100
AcDbEntity
  8
1
  6
Continuous
 62
    15
100
AcDbCircle
 10
22.16022693746109
 20
4.349999865687671
 30
0.0
 40
1.85
100
AcDbArc
 50
49.24985788537405
 51
310.7486165669955
  0
ARC
  5
3F3
330
3D8
100
AcDbEntity
  8
1
  6
Continuous
 62
    15
100
AcDbCircle
 10
23.77576622717005
 20
2.474982675469199
 30
0.0
 40
0.6250253276533118
100
AcDbArc
 50
14.58992868082882
 51
130.7486165669953
  0
LINE
  5
3F4
330
3D8
100
AcDbEntity
  8
1
  6
Continuous
 62
    15
100
AcDbLine
 10
71.74999997119119
 20
6.844387885483961
 30
0.0
 11
71.4999999674659
 21
6.844387885483961
 31
0.0
  0
ARC
  5
3F5
330
3D8
100
AcDbEntity
  8
1
  6
Continuous
 62
    15
100
AcDbCircle
 10
70.62499995442738
 20
6.844387885483961
 30
0.0
 40
0.875000013038516
100
AcDbArc
 50
180.0
 51
0.0
  0
LINE
  5
3F6
330
3D8
100
AcDbEntity
  8
1
  6
Continuous
 62
    15
100
AcDbLine
 10
69.74999994138886
 20
6.844387885483961
 30
0.0
 11
69.24999993393828
 21
6.844387885483961
 31
0.0
  0
ARC
  5
3F7
330
3D8
100
AcDbEntity
  8
1
  6
Continuous
 62
    15
100
AcDbCircle
 10
68.37499992089977
 20
6.844387885483961
 30
0.0
 40
0.875000013038516
100
AcDbArc
 50
180.0
 51
0.0
  0
LINE
  5
3F8
330
3D8
100
AcDbEntity
  8
1
  6
Continuous
 62
    15
100
AcDbLine
 10
67.49999990786125
 20
6.844387885483961
 30
0.0
 11
66.99999990041067
 21
6.844387885483961
 31
0.0
  0
ARC
  5
3F9
330
3D8
100
AcDbEntity
  8
1
  6
Continuous
 62
    15
100
AcDbCircle
 10
72.86933385674122
 20
2.537334228033565
 30
0.0
 40
1.451970758583345
100
AcDbArc
 50
232.0129704852096
 51
232.0129704852108
  0
LINE
  5
3FA
330
3D8
100
AcDbEntity
  8
1
  6
Continuous
 62
    15
100
AcDbLine
 10
71.74999997119119
 20
6.844387885483961
 30
0.0
 11
71.4999999674659
 21
6.844387885483961
 31
0.0
  0
ARC
  5
3FB
330
3D8
100
AcDbEntity
  8
1
  6
Continuous
 62
    15
100
AcDbCircle
 10
72.86933385674122
 20
2.537334228033565
 30
0.0
 40
1.451970758583345
100
AcDbArc
 50
232.0129704852096
 51
232.0129704852108
  0
ARC
  5
3FC
330
3D8
100
AcDbEntity
  8
1
  6
Continuous
 62
    15
100
AcDbCircle
 10
66.12499988737216
 20
6.844387885483961
 30
0.0
 40
0.875000013038516
100
AcDbArc
 50
180.0
 51
0.0
  0
LINE
  5
3FD
330
3D8
100
AcDbEntity
  8
1
  6
Continuous
 62
    15
100
AcDbLine
 10
65.24999987433364
 20
6.844387885483961
 30
0.0
 11
64.74999986688306
 21
6.844387885483961
 31
0.0
  0
ARC
  5
3FE
330
3D8
100
AcDbEntity
  8
1
  6
Continuous
 62
    15
100
AcDbCircle
 10
71.74999997119119
 20
6.594387881758671
 30
0.0
 40
0.2500000037252903
100
AcDbArc
 50
0.0
 51
90.0
  0
ARC
  5
3FF
330
3D8
100
AcDbEntity
  8
1
  6
Continuous
 62
    15
100
AcDbCircle
 10
3.41022693746109
 20
7.800250593264998
 30
0.0
 40
0.5
100
AcDbArc
 50
39.11799697235669
 51
220.2639316620706
  0
ARC
  5
400
330
3D8
100
AcDbEntity
  8
1
  6
Continuous
 62
    15
100
AcDbCircle
 10
6.91022693746109
 20
10.23287991805675
 30
0.0
 40
0.5
100
AcDbArc
 50
29.33752438578988
 51
210.4834590755055
  0
ARC
  5
401
330
3D8
100
AcDbEntity
  8
1
  6
Continuous
 62
    15
100
AcDbCircle
 10
10.41022693746109
 20
11.89958016384835
 30
0.0
 40
0.5
100
AcDbArc
 50
20.44412722497315
 51
201.5900619146865
  0
ARC
  5
402
330
3D8
100
AcDbEntity
  8
1
  6
Continuous
 62
    15
100
AcDbCircle
 10
19.37638877259198
 20
-11.4372564243922
 30
0.0
 40
25.0
100
AcDbArc
 50
130.8368990069276
 51
139.9677811587691
  0
ARC
  5
403
330
3D8
100
AcDbEntity
  8
1
  6
Continuous
 62
    15
100
AcDbCircle
 10
19.37638877259198
 20
-11.4372564243922
 30
0.0
 40
25.0
100
AcDbArc
 50
121.0564264203621
 51
128.5450296274992
  0
ARC
  5
404
330
3D8
100
AcDbEntity
  8
1
  6
Continuous
 62
    15
100
AcDbCircle
 10
19.37638877259198
 20
-11.4372564243922
 30
0.0
 40
25.0
100
AcDbArc
 50
112.1630292595445
 51
118.7645570409336
  0
ARC
  5
405
330
3D8
100
AcDbEntity
  8
1
  6
Continuous
 62
    15
100
AcDbCircle
 10
19.37638877259198
 20
-11.4372564243922
 30
0.0
 40
25.0
100
AcDbArc
 50
103.5307464986789
 51
109.8711598801153
  0
ARC
  5
406
330
3D8
100
AcDbEntity
  8
1
  6
Continuous
 62
    15
100
AcDbCircle
 10
0.9999999749164772
 20
3.999982148508927
 30
0.0
 40
1.0
100
AcDbArc
 50
139.9677811587691
 51
316.9560632782728
  0
ARC
  5
407
330
3D8
100
AcDbEntity
  8
1
  6
Continuous
 62
    15
100
AcDbCircle
 10
20.00159304517823
 20
-13.74655161986909
 30
0.0
 40
25.0
100
AcDbArc
 50
107.1859379357977
 51
136.9560632782728
  0
LINE
  5
408
330
3D8
100
AcDbEntity
  8
1
  6
Continuous
 62
    15
100
AcDbLine
 10
13.91022693746109
 20
9.181870190764123
 30
0.0
 11
13.91022693746109
 21
6.999999865687677
 31
0.0
  0
LINE
  5
409
330
3D8
100
AcDbEntity
  8
1
  6
Continuous
 62
    15
100
AcDbLine
 10
23.91022693746109
 20
-0.000000134312323
 30
0.0
 11
23.91022693746109
 21
0.3999998656876684
 31
0.0
  0
LINE
  5
40A
330
3D8
100
AcDbEntity
  8
1
  6
Continuous
 62
    15
100
AcDbLine
 10
23.91022693746109
 20
0.3999998656876684
 30
0.0
 11
54.24272606917344
 21
1.730342212280384
 31
0.0
  0
LINE
  5
40B
330
3D8
100
AcDbEntity
  8
1
  6
Continuous
 62
    15
100
AcDbLine
 10
24.88123820957691
 20
2.258655512800395
 30
0.0
 11
35.75796066091259
 21
2.622681775745669
 31
0.0
  0
LINE
  5
40C
330
3D8
100
AcDbEntity
  8
1
  6
Continuous
 62
    15
100
AcDbLine
 10
36.25880162379312
 20
2.63944411061842
 30
0.0
 11
53.91421636447244
 21
3.230342212280384
 31
0.0
  0
ARC
  5
40D
330
3D8
100
AcDbEntity
  8
1
  6
Continuous
 62
    15
100
AcDbCircle
 10
56.62130276471039
 20
2.499999865687677
 30
0.0
 40
2.5
100
AcDbArc
 50
270.0
 51
290.0000000000001
  0
ARC
  5
40E
330
3D8
100
AcDbEntity
  8
1
  6
Continuous
 62
    15
100
AcDbCircle
 10
56.62130276471039
 20
2.499999865687677
 30
0.0
 40
2.5
100
AcDbArc
 50
197.9304957389324
 51
270.0
  0
ARC
  5
40F
330
3D8
100
AcDbEntity
  8
1
  6
Continuous
 62
    15
100
AcDbCircle
 10
17.61022693746108
 20
9.299999865687688
 30
0.0
 40
0.2
100
AcDbArc
 50
18.13549625590597
 51
180.0
  0
LINE
  5
410
330
3D8
100
AcDbEntity
  8
1
  6
Continuous
 62
    15
100
AcDbLine
 10
17.41022693746109
 20
9.299999865687688
 30
0.0
 11
17.41022693746109
 21
7.999999865687677
 31
0.0
  0
LINE
  5
411
330
3D8
100
AcDbEntity
  8
1
  6
Continuous
 62
    15
100
AcDbLine
 10
17.41022693746109
 20
7.999999865687677
 30
0.0
 11
15.91022693746109
 21
7.999999865687677
 31
0.0
  0
LINE
  5
412
330
3D8
100
AcDbEntity
  8
1
  6
Continuous
 62
    15
100
AcDbLine
 10
15.91022693746109
 20
7.999999865687677
 30
0.0
 11
15.91022693746109
 21
13.99999986568768
 31
0.0
  0
LINE
  5
413
330
3D8
100
AcDbEntity
  8
1
  6
Continuous
 62
    15
100
AcDbLine
 10
15.91022693746109
 20
13.99999986568768
 30
0.0
 11
17.41022693746109
 21
13.99999986568768
 31
0.0
  0
LINE
  5
414
330
3D8
100
AcDbEntity
  8
1
  6
Continuous
 62
    15
100
AcDbLine
 10
17.41022693746109
 20
13.99999986568768
 30
0.0
 11
17.41022693746109
 21
12.69999986568767
 31
0.0
  0
ARC
  5
415
330
3D8
100
AcDbEntity
  8
1
  6
Continuous
 62
    15
100
AcDbCircle
 10
17.61022693746108
 20
12.69999986568767
 30
0.0
 40
0.2
100
AcDbArc
 50
180.0
 51
341.0753555839485
  0
LINE
  5
416
330
3D8
100
AcDbEntity
  8
1
  6
Continuous
 62
    15
100
AcDbLine
 10
17.79941612665027
 20
12.63513500082281
 30
0.0
 11
18.41022693746109
 21
14.41666653235433
 31
0.0
  0
ARC
  5
417
330
3D8
100
AcDbEntity
  8
1
  6
Continuous
 62
    15
100
AcDbCircle
 10
17.91022693746109
 20
14.49999986568768
 30
0.0
 40
0.5
100
AcDbArc
 50
0.0
 51
90.0
  0
ARC
  5
418
330
3D8
100
AcDbEntity
  8
1
  6
Continuous
 62
    15
100
AcDbCircle
 10
17.91022693746109
 20
14.49999986568768
 30
0.0
 40
0.5
100
AcDbArc
 50
341.0753555839473
 51
0.0
  0
ARC
  5
419
330
3D8
100
AcDbEntity
  8
1
  6
Continuous
 62
    15
100
AcDbCircle
 10
17.91022693746109
 20
14.49999986568768
 30
0.0
 40
0.5
100
AcDbArc
 50
0.0
 51
90.0
  0
ARC
  5
41A
330
3D8
100
AcDbEntity
  8
1
  6
Continuous
 62
    15
100
AcDbCircle
 10
47.87202157612867
 20
2.824496352424582
 30
0.0
 40
1.451970736947295
100
AcDbArc
 50
232.0129704852096
 51
232.0129704852108
  0
LINE
  5
41B
330
3D8
100
AcDbEntity
  8
1
  6
Continuous
 62
    15
100
AcDbLine
 10
17.91022693746109
 20
14.99999986568768
 30
0.0
 11
15.41022693746109
 21
14.99999986568768
 31
0.0
  0
LINE
  5
41C
330
3D8
100
AcDbEntity
  8
1
  6
Continuous
 62
    15
100
AcDbLine
 10
13.91022693746109
 20
13.49999986568768
 30
0.0
 11
13.91022693746109
 21
13.35497850828435
 31
0.0
  0
ARC
  5
41D
330
3D8
100
AcDbEntity
  8
1
  6
Continuous
 62
    15
100
AcDbCircle
 10
15.41022693746109
 20
13.49999986568768
 30
0.0
 40
1.5
100
AcDbArc
 50
90.0
 51
180.0
  0
LINE
  5
41E
330
3D8
100
AcDbEntity
  8
1
  6
Continuous
 62
    15
100
AcDbLine
 10
17.81022693746108
 20
-0.000000134312323
 30
0.0
 11
19.66022693746109
 21
-0.000000134312323
 31
0.0
  0
LINE
  5
41F
330
3D8
100
AcDbEntity
  8
1
  6
Continuous
 62
    15
100
AcDbLine
 10
20.16022693746109
 20
-0.000000134312323
 30
0.0
 11
20.66022693746109
 21
-0.000000134312323
 31
0.0
  0
LINE
  5
420
330
3D8
100
AcDbEntity
  8
1
  6
Continuous
 62
    15
100
AcDbLine
 10
21.16022693746109
 20
-0.000000134312323
 30
0.0
 11
21.66022693746109
 21
-0.000000134312323
 31
0.0
  0
LINE
  5
421
330
3D8
100
AcDbEntity
  8
1
  6
Continuous
 62
    15
100
AcDbLine
 10
22.16022693746109
 20
-0.000000134312323
 30
0.0
 11
22.66022693746109
 21
-0.000000134312323
 31
0.0
  0
LINE
  5
422
330
3D8
100
AcDbEntity
  8
1
  6
Continuous
 62
    15
100
AcDbLine
 10
23.16022693746109
 20
-0.000000134312323
 30
0.0
 11
23.91022693746109
 21
-0.000000134312323
 31
0.0
  0
ARC
  5
423
330
3D8
100
AcDbEntity
  8
1
  6
Continuous
 62
    15
100
AcDbCircle
 10
22.91022693746109
 20
-0.000000134312323
 30
0.0
 40
0.25
100
AcDbArc
 50
0.0
 51
180.0
  0
ARC
  5
424
330
3D8
100
AcDbEntity
  8
1
  6
Continuous
 62
    15
100
AcDbCircle
 10
21.91022693746109
 20
-0.000000134312323
 30
0.0
 40
0.25
100
AcDbArc
 50
0.0
 51
180.0
  0
ARC
  5
425
330
3D8
100
AcDbEntity
  8
1
  6
Continuous
 62
    15
100
AcDbCircle
 10
20.91022693746109
 20
-0.000000134312323
 30
0.0
 40
0.25
100
AcDbArc
 50
0.0
 51
180.0
  0
ARC
  5
426
330
3D8
100
AcDbEntity
  8
1
  6
Continuous
 62
    15
100
AcDbCircle
 10
19.91022693746109
 20
-0.000000134312323
 30
0.0
 40
0.25
100
AcDbArc
 50
0.0
 51
180.0
  0
ARC
  5
427
330
3D8
100
AcDbEntity
  8
1
  6
Continuous
 62
    15
100
AcDbCircle
 10
59.91022693746108
 20
3.69707036732752
 30
0.0
 40
2.5
100
AcDbArc
 50
54.5799295400786
 51
93.6702573747949
  0
ARC
  5
428
330
3D8
100
AcDbEntity
  8
1
  6
Continuous
 62
    15
100
AcDbCircle
 10
59.91022693746108
 20
3.69707036732752
 30
0.0
 40
2.5
100
AcDbArc
 50
93.6702573747949
 51
109.2360336359783
  0
ARC
  5
429
330
3D8
100
AcDbEntity
  8
1
  6
Continuous
 62
    15
100
AcDbCircle
 10
59.91022693746108
 20
3.69707036732752
 30
0.0
 40
1.25
100
AcDbArc
 50
289.9999999999999
 51
109.236033635978
  0
ARC
  5
42A
330
3D8
100
AcDbEntity
  8
1
  6
Continuous
 62
    15
100
AcDbCircle
 10
56.62130276471039
 20
2.499999865687677
 30
0.0
 40
1.25
100
AcDbArc
 50
109.9999999999994
 51
290.0000000000007
  0
LINE
  5
42B
330
3D8
100
AcDbEntity
  8
1
  6
Continuous
 62
    15
100
AcDbLine
 10
57.04882794386749
 20
1.325384089705302
 30
0.0
 11
58.30325791324474
 21
1.781959259530076
 31
0.0
  0
ARC
  5
42C
330
3D8
100
AcDbEntity
  8
1
  6
Continuous
 62
    15
100
AcDbCircle
 10
55.95657968634605
 20
4.253216403680007
 30
0.0
 40
0.625
100
AcDbArc
 50
290.7639663640226
 51
110.7639663640213
  0
ARC
  5
42D
330
3D8
100
AcDbEntity
  8
1
  6
Continuous
 62
    15
100
AcDbCircle
 10
59.29248849013602
 20
5.467387912486124
 30
0.0
 40
0.625
100
AcDbArc
 50
109.2360336359775
 51
289.2360336359785
  0
LINE
  5
42E
330
3D8
100
AcDbEntity
  8
1
  6
Continuous
 62
    15
100
AcDbLine
 10
60.33775211661818
 20
2.522454591345145
 30
0.0
 11
58.30325791324474
 21
1.781959259530076
 31
0.0
  0
ARC
  5
42F
330
3D8
100
AcDbEntity
  8
1
  6
Continuous
 62
    15
100
AcDbCircle
 10
56.62130276471039
 20
2.499999865687677
 30
0.0
 40
2.5
100
AcDbArc
 50
110.0
 51
155.8061175462502
  0
ARC
  5
430
330
3D8
100
AcDbEntity
  8
1
  6
Continuous
 62
    15
100
AcDbCircle
 10
59.98117190484369
 20
2.662252369450492
 30
0.0
 40
1.451970736947295
100
AcDbArc
 50
232.0129704852096
 51
232.0129704852108
  0
ARC
  5
431
330
3D8
100
AcDbEntity
  8
1
  6
Continuous
 62
    15
100
AcDbCircle
 10
53.88481112771581
 20
3.729476795385274
 30
0.0
 40
0.5
100
AcDbArc
 50
273.3715373382716
 51
335.8061175462503
  0
ARC
  5
432
330
3D8
100
AcDbEntity
  8
1
  6
Continuous
 62
    15
100
AcDbCircle
 10
59.91022693746108
 20
3.69707036732752
 30
0.0
 40
2.5
100
AcDbArc
 50
54.5799295400786
 51
93.6702573747949
  0
ARC
  5
433
330
3D8
100
AcDbEntity
  8
1
  6
Continuous
 62
    15
100
AcDbCircle
 10
59.91022693746108
 20
3.69707036732752
 30
0.0
 40
2.5
100
AcDbArc
 50
93.6702573747949
 51
109.2360336359783
  0
ARC
  5
434
330
3D8
100
AcDbEntity
  8
1
  6
Continuous
 62
    15
100
AcDbCircle
 10
59.91022693746108
 20
3.69707036732752
 30
0.0
 40
1.25
100
AcDbArc
 50
289.9999999999999
 51
109.236033635978
  0
ARC
  5
435
330
3D8
100
AcDbEntity
  8
1
  6
Continuous
 62
    15
100
AcDbCircle
 10
59.29248849013602
 20
5.467387912486124
 30
0.0
 40
0.625
100
AcDbArc
 50
109.2360336359775
 51
289.2360336359785
  0
LINE
  5
436
330
3D8
100
AcDbEntity
  8
1
  6
Continuous
 62
    15
100
AcDbLine
 10
60.33775211661818
 20
2.522454591345145
 30
0.0
 11
58.30325791324474
 21
1.781959259530076
 31
0.0
  0
ARC
  5
437
330
3D8
100
AcDbEntity
  8
1
  6
Continuous
 62
    15
100
AcDbCircle
 10
59.98117190484369
 20
2.662252369450492
 30
0.0
 40
1.451970736947295
100
AcDbArc
 50
232.0129704852096
 51
232.0129704852108
  0
ARC
  5
438
330
3D8
100
AcDbEntity
  8
1
  6
Continuous
 62
    15
100
AcDbCircle
 10
12.91022693746109
 20
9.181870190764123
 30
0.0
 40
1.0
100
AcDbArc
 50
0.0
 51
107.1859379357978
  0
ARC
  5
439
330
3D8
100
AcDbEntity
  8
1
  6
Continuous
 62
    15
100
AcDbCircle
 10
13.41022693746109
 20
13.35497850828435
 30
0.0
 40
0.5
100
AcDbArc
 50
283.5307464986788
 51
0.0
  0
LINE
  5
43A
330
3D8
100
AcDbEntity
  8
1
  6
Continuous
 62
    15
100
AcDbLine
 10
71.99999997491648
 20
6.594387881758671
 30
0.0
 11
71.99999997491648
 21
0.499999865687677
 31
0.0
  0
LINE
  5
43B
330
3D8
100
AcDbEntity
  8
1
  6
Continuous
 62
    15
100
AcDbLine
 10
71.49999997491648
 20
-0.000000134312323
 30
0.0
 11
71.24999997491648
 21
-0.000000134312323
 31
0.0
  0
LINE
  5
43C
330
3D8
100
AcDbEntity
  8
1
  6
Continuous
 62
    15
100
AcDbLine
 10
70.74999997491648
 20
1.719387872445445
 30
0.0
 11
70.74999997491648
 21
4.219387872445445
 31
0.0
  0
LINE
  5
43D
330
3D8
100
AcDbEntity
  8
1
  6
Continuous
 62
    15
100
AcDbLine
 10
70.24999997491648
 20
4.719387872445445
 30
0.0
 11
67.67420465188066
 21
4.719387872445445
 31
0.0
  0
ARC
  5
43E
330
3D8
100
AcDbEntity
  8
1
  6
Continuous
 62
    15
100
AcDbCircle
 10
70.24999997491648
 20
4.219387872445445
 30
0.0
 40
0.5
100
AcDbArc
 50
0.0
 51
90.0
  0
ARC
  5
43F
330
3D8
100
AcDbEntity
  8
1
  6
Continuous
 62
    15
100
AcDbCircle
 10
71.49999997491648
 20
0.499999865687677
 30
0.0
 40
0.5
100
AcDbArc
 50
270.0
 51
0.0
  0
ARC
  5
440
330
3D8
100
AcDbEntity
  8
1
  6
Continuous
 62
    15
100
AcDbCircle
 10
71.24999997491648
 20
0.499999865687677
 30
0.0
 40
0.5
100
AcDbArc
 50
214.1404868935876
 51
270.0
  0
ARC
  5
441
330
3D8
100
AcDbEntity
  8
1
  6
Continuous
 62
    15
100
AcDbCircle
 10
67.67420465188066
 20
4.219387872445445
 30
0.0
 40
0.5
100
AcDbArc
 50
90.0
 51
193.9748917934724
  0
ARC
  5
442
330
3D8
100
AcDbEntity
  8
1
  6
Continuous
 62
    15
100
AcDbCircle
 10
61.41155509738077
 20
1.050975811976208
 30
0.0
 40
0.5
100
AcDbArc
 50
36.74850782711038
 51
110.0000000000001
  0
ARC
  5
443
330
3D8
100
AcDbEntity
  8
1
  6
Continuous
 62
    15
100
AcDbCircle
 10
63.00078750807344
 20
6.344387885483961
 30
0.0
 40
0.5
100
AcDbArc
 50
90.0
 51
180.0
  0
LINE
  5
444
330
3D8
100
AcDbEntity
  8
1
  6
Continuous
 62
    15
100
AcDbLine
 10
15.41022693746109
 20
5.499999865687677
 30
0.0
 11
16.17001671236216
 21
5.499999865687677
 31
0.0
  0
ARC
  5
445
330
3D8
100
AcDbEntity
  8
1
  6
Continuous
 62
    15
100
AcDbCircle
 10
15.41022693746109
 20
6.999999865687677
 30
0.0
 40
1.5
100
AcDbArc
 50
180.0
 51
270.0
  0
LINE
  5
446
330
3D8
100
AcDbEntity
  8
1
  6
Continuous
 62
    15
100
AcDbLine
 10
18.41022693746109
 20
7.44999986568768
 30
0.0
 11
22.16022693746109
 21
7.44999986568768
 31
0.0
  0
ARC
  5
447
330
3D8
100
AcDbEntity
  8
1
  6
Continuous
 62
    15
100
AcDbCircle
 10
24.86451338475517
 20
2.758375714748119
 30
0.0
 40
0.5
100
AcDbArc
 50
194.5899286808287
 51
271.9168813238778
  0
LINE
  5
448
330
3D8
100
AcDbEntity
  8
1
  6
Continuous
 62
    15
100
AcDbLine
 10
16.60302941425438
 20
5.249999865687677
 30
0.0
 11
17.55140789235855
 21
3.607360156806386
 31
0.0
  0
ARC
  5
449
330
3D8
100
AcDbEntity
  8
1
  6
Continuous
 62
    15
100
AcDbCircle
 10
16.17001671236216
 20
4.999999865687677
 30
0.0
 40
0.5
100
AcDbArc
 50
29.99999999999993
 51
90.0
  0
LINE
  5
44A
330
3D8
100
AcDbEntity
  8
1
  6
Continuous
 62
    15
100
AcDbLine
 10
70.24999997491648
 20
1.219387872445445
 30
0.0
 11
69.74999997491648
 21
1.219387872445445
 31
0.0
  0
ARC
  5
44B
330
3D8
100
AcDbEntity
  8
1
  6
Continuous
 62
    15
100
AcDbCircle
 10
69.74999997491648
 20
0.719387872445445
 30
0.0
 40
0.5
100
AcDbArc
 50
90.0
 51
270.0
  0
LINE
  5
44C
330
3D8
100
AcDbEntity
  8
1
  6
Continuous
 62
    15
100
AcDbLine
 10
69.74999997491648
 20
0.219387872445445
 30
0.0
 11
70.83616799301002
 21
0.219387872445445
 31
0.0
  0
ARC
  5
44D
330
3D8
100
AcDbEntity
  8
1
  6
Continuous
 62
    15
100
AcDbCircle
 10
70.24999997491648
 20
1.719387872445445
 30
0.0
 40
0.5
100
AcDbArc
 50
270.0
 51
0.0
  0
ENDBLK
  5
3DA
330
3D8
100
AcDbEntity
  8
0
100
AcDbBlockEnd
  0
BLOCK
  5
450
330
44F
100
AcDbEntity
  8
0
100
AcDbBlockBegin
  2
GEN_BLOCK00010
 70
     0
 71
     0
 10
0.0
 20
0.0
 30
0.0
  3
GEN_BLOCK00010
  1

  0
LINE
  5
453
330
44F
100
AcDbEntity
  8
GEN_LAYER
  6
Continuous
 62
    15
100
AcDbLine
 10
35.99939346313477
 20
26.27035140991211
 30
0.0
 11
71.99878692626953
 21
26.27035140991211
 31
0.0
  0
LINE
  5
454
330
44F
100
AcDbEntity
  8
GEN_LAYER
  6
Continuous
 62
    15
100
AcDbLine
 10
35.99939346313477
 20
26.27035140991211
 30
0.0
 11
0.0
 21
26.27035140991211
 31
0.0
  0
LINE
  5
455
330
44F
100
AcDbEntity
  8
GEN_LAYER
  6
Continuous
 62
    15
100
AcDbLine
 10
69.99878692626953
 20
26.89535140991211
 30
0.0
 11
71.99878692626953
 21
26.27035140991211
 31
0.0
  0
LINE
  5
456
330
44F
100
AcDbEntity
  8
GEN_LAYER
  6
Continuous
 62
    15
100
AcDbLine
 10
71.99878692626953
 20
26.27035140991211
 30
0.0
 11
69.99878692626953
 21
25.64535140991211
 31
0.0
  0
LINE
  5
457
330
44F
100
AcDbEntity
  8
GEN_LAYER
  6
Continuous
 62
    15
100
AcDbLine
 10
2.0
 20
25.64535140991211
 30
0.0
 11
0.0
 21
26.27035140991211
 31
0.0
  0
LINE
  5
458
330
44F
100
AcDbEntity
  8
GEN_LAYER
  6
Continuous
 62
    15
100
AcDbLine
 10
0.0
 20
26.27035140991211
 30
0.0
 11
2.0
 21
26.89535140991211
 31
0.0
  0
LINE
  5
459
330
44F
100
AcDbEntity
  8
GEN_LAYER
  6
Continuous
 62
    15
100
AcDbLine
 10
71.99878692626953
 20
0.0
 30
0.0
 11
71.99878692626953
 21
28.87035140991211
 31
0.0
  0
LINE
  5
45A
330
44F
100
AcDbEntity
  8
GEN_LAYER
  6
Continuous
 62
    15
100
AcDbLine
 10
0.0
 20
3.549221038818359
 30
0.0
 11
0.0
 21
28.87035140991211
 31
0.0
  0
TEXT
  5
45B
330
44F
100
AcDbEntity
  8
GEN_LAYER
  6
Continuous
 62
    15
100
AcDbText
 10
31.79939346313476
 20
26.77035140991211
 30
0.0
 40
2.5
  1
72.0
100
AcDbText
  0
ENDBLK
  5
451
330
44F
100
AcDbEntity
  8
0
100
AcDbBlockEnd
  0
BLOCK
  5
45D
330
45C
100
AcDbEntity
  8
0
100
AcDbBlockBegin
  2
GEN_BLOCK00011
 70
     0
 71
     0
 10
0.0
 20
0.0
 30
0.0
  3
GEN_BLOCK00011
  1

  0
TEXT
  5
460
330
45C
100
AcDbEntity
  8
1
  6
Continuous
 62
    15
100
AcDbText
 10
19.71435451507568
 20
8.574111938476562
 30
0.0
 40
2.5
  1
CILL OF WOOD-
100
AcDbText
  0
TEXT
  5
461
330
45C
100
AcDbEntity
  8
1
  6
Continuous
 62
    15
100
AcDbText
 10
19.71435451507568
 20
3.574111938476562
 30
0.0
 40
2.5
  1
CONCRETE ETC
100
AcDbText
  0
LINE
  5
462
330
45C
100
AcDbEntity
  8
1
  6
DOT
 62
    15
100
AcDbLine
 10
-0.0000000609580439
 20
0.0000017491753042
 30
0.0
 11
-0.0000000609580439
 21
19.61508459970891
 31
0.0
  0
LINE
  5
463
330
45C
100
AcDbEntity
  8
1
  6
DOT
 62
    15
100
AcDbLine
 10
-0.0000000609580439
 20
19.61508459970891
 30
0.0
 11
25.4225191414467
 21
22.96202274766902
 31
0.0
  0
LINE
  5
464
330
45C
100
AcDbEntity
  8
1
  6
DOT
 62
    15
100
AcDbLine
 10
25.4225191414467
 20
22.96202274766902
 30
0.0
 11
83.97742123343299
 21
22.96202274766902
 31
0.0
  0
LINE
  5
465
330
45C
100
AcDbEntity
  8
1
  6
DOT
 62
    15
100
AcDbLine
 10
83.97742123343299
 20
22.96202274766902
 30
0.0
 11
83.97742123343299
 21
0.0000017491753042
 31
0.0
  0
LINE
  5
466
330
45C
100
AcDbEntity
  8
1
  6
Continuous
 62
    15
100
AcDbLine
 10
25.4225191414467
 20
23.46202274766902
 30
0.0
 11
25.4225191414467
 21
23.46202274766902
 31
0.0
  0
LINE
  5
467
330
45C
100
AcDbEntity
  8
1
  6
Continuous
 62
    15
100
AcDbLine
 10
25.4225191414467
 20
23.46202274766902
 30
0.0
 11
25.4225191414467
 21
23.46202274766902
 31
0.0
  0
LINE
  5
468
330
45C
100
AcDbEntity
  8
1
  6
Continuous
 62
    15
100
AcDbLine
 10
25.4225191414467
 20
23.46202274766902
 30
0.0
 11
25.4225191414467
 21
23.46202274766902
 31
0.0
  0
LINE
  5
469
330
45C
100
AcDbEntity
  8
1
  6
Continuous
 62
    15
100
AcDbLine
 10
25.4225191414467
 20
23.46202274766902
 30
0.0
 11
25.4225191414467
 21
23.46202274766902
 31
0.0
  0
LINE
  5
46A
330
45C
100
AcDbEntity
  8
1
  6
Continuous
 62
    15
100
AcDbLine
 10
69.4225191414467
 20
23.46202274766902
 30
0.0
 11
69.4225191414467
 21
23.46202274766902
 31
0.0
  0
ENDBLK
  5
45E
330
45C
100
AcDbEntity
  8
0
100
AcDbBlockEnd
  0
BLOCK
  5
46C
330
46B
100
AcDbEntity
  8
0
100
AcDbBlockBegin
  2
GEN_BLOCK00012
 70
     0
 71
     0
 10
0.0
 20
0.0
 30
0.0
  3
GEN_BLOCK00012
  1

  0
ARC
  5
46F
330
46B
100
AcDbEntity
  8
1
  6
Continuous
 62
    15
100
AcDbCircle
 10
31.15108383444844
 20
4.898946964062262
 30
0.0
 40
0.25
100
AcDbArc
 50
0.0
 51
177.845830724474
  0
ARC
  5
470
330
46B
100
AcDbEntity
  8
1
  6
Continuous
 62
    15
100
AcDbCircle
 10
31.15108383444844
 20
4.898946964062262
 30
0.0
 40
0.25
100
AcDbArc
 50
357.8458307244773
 51
0.0
  0
ARC
  5
471
330
46B
100
AcDbEntity
  8
1
  6
Continuous
 62
    15
100
AcDbCircle
 10
25.15108383444844
 20
5.124637395461292
 30
0.0
 40
0.25
100
AcDbArc
 50
0.0
 51
177.845830724474
  0
ARC
  5
472
330
46B
100
AcDbEntity
  8
1
  6
Continuous
 62
    15
100
AcDbCircle
 10
25.15108383444844
 20
5.124637395461292
 30
0.0
 40
0.25
100
AcDbArc
 50
357.845830724474
 51
0.0
  0
ARC
  5
473
330
46B
100
AcDbEntity
  8
1
  6
Continuous
 62
    15
100
AcDbCircle
 10
19.15108383444844
 20
5.350327826860308
 30
0.0
 40
0.25
100
AcDbArc
 50
0.0
 51
177.845830724474
  0
ARC
  5
474
330
46B
100
AcDbEntity
  8
1
  6
Continuous
 62
    15
100
AcDbCircle
 10
19.15108383444844
 20
5.350327826860308
 30
0.0
 40
0.25
100
AcDbArc
 50
357.845830724474
 51
0.0
  0
ARC
  5
475
330
46B
100
AcDbEntity
  8
1
  6
Continuous
 62
    15
100
AcDbCircle
 10
13.15108383444844
 20
5.576018258259339
 30
0.0
 40
0.25
100
AcDbArc
 50
0.0
 51
177.845830724474
  0
ARC
  5
476
330
46B
100
AcDbEntity
  8
1
  6
Continuous
 62
    15
100
AcDbCircle
 10
13.15108383444844
 20
5.576018258259339
 30
0.0
 40
0.25
100
AcDbArc
 50
357.845830724474
 51
0.0
  0
ARC
  5
477
330
46B
100
AcDbEntity
  8
1
  6
Continuous
 62
    15
100
AcDbCircle
 10
7.151083834448443
 20
5.801708689658355
 30
0.0
 40
0.25
100
AcDbArc
 50
0.0
 51
177.845830724474
  0
ARC
  5
478
330
46B
100
AcDbEntity
  8
1
  6
Continuous
 62
    15
100
AcDbCircle
 10
7.151083834448443
 20
5.801708689658355
 30
0.0
 40
0.25
100
AcDbArc
 50
357.845830724474
 51
0.0
  0
LINE
  5
479
330
46B
100
AcDbEntity
  8
1
  6
Continuous
 62
    15
100
AcDbLine
 10
32.08736659438907
 20
4.863728620728523
 30
0.0
 11
31.40090716020354
 21
4.889549841701736
 31
0.0
  0
LINE
  5
47A
330
46B
100
AcDbEntity
  8
1
  6
Continuous
 62
    15
100
AcDbLine
 10
30.90126050869334
 20
4.908344086422801
 30
0.0
 11
25.40090716020354
 21
5.115240273100753
 31
0.0
  0
LINE
  5
47B
330
46B
100
AcDbEntity
  8
1
  6
Continuous
 62
    15
100
AcDbLine
 10
24.90126050869334
 20
5.134034517821831
 30
0.0
 11
19.40090716020354
 21
5.340930704499783
 31
0.0
  0
LINE
  5
47C
330
46B
100
AcDbEntity
  8
1
  6
Continuous
 62
    15
100
AcDbLine
 10
18.90126050869334
 20
5.359724949220848
 30
0.0
 11
13.40090716020354
 21
5.566621135898799
 31
0.0
  0
LINE
  5
47D
330
46B
100
AcDbEntity
  8
1
  6
Continuous
 62
    15
100
AcDbLine
 10
12.90126050869334
 20
5.585415380619864
 30
0.0
 11
10.39219135684621
 21
5.679794197168263
 31
0.0
  0
LINE
  5
47E
330
46B
100
AcDbEntity
  8
1
  6
Continuous
 62
    15
100
AcDbLine
 10
9.891128808259268
 20
5.698641700959669
 30
0.0
 11
7.400907160203545
 21
5.792311567297816
 31
0.0
  0
LINE
  5
47F
330
46B
100
AcDbEntity
  8
1
  6
Continuous
 62
    15
100
AcDbLine
 10
6.901260508693341
 20
5.811105812018894
 30
0.0
 11
2.442866176177489
 21
5.978808635394302
 31
0.0
  0
LINE
  5
480
330
46B
100
AcDbEntity
  8
1
  6
Continuous
 62
    15
100
AcDbLine
 10
32.56857234966799
 20
4.364081969218319
 30
0.0
 11
32.56857234966799
 21
4.049144644413289
 31
0.0
  0
ARC
  5
481
330
46B
100
AcDbEntity
  8
1
  6
Continuous
 62
    15
100
AcDbCircle
 10
32.06857234966799
 20
4.364081969218319
 30
0.0
 40
0.5
100
AcDbArc
 50
0.0
 51
87.84583072447506
  0
LINE
  5
482
330
46B
100
AcDbEntity
  8
1
  6
Continuous
 62
    15
100
AcDbLine
 10
1.924071931456425
 20
5.479161983884097
 30
0.0
 11
1.924071931456425
 21
4.76624665821889
 31
0.0
  0
LINE
  5
483
330
46B
100
AcDbEntity
  8
1
  6
Continuous
 62
    15
100
AcDbLine
 10
1.40527768673536
 20
4.266600006708671
 30
0.0
 11
0.6484931516613983
 21
4.295066511408166
 31
0.0
  0
ARC
  5
484
330
46B
100
AcDbEntity
  8
1
  6
Continuous
 62
    15
100
AcDbCircle
 10
0.6250003457600641
 20
3.670508197020411
 30
0.0
 40
0.625
100
AcDbArc
 50
87.84583072447529
 51
267.8458307244746
  0
LINE
  5
485
330
46B
100
AcDbEntity
  8
1
  6
Continuous
 62
    15
100
AcDbLine
 10
0.6015075398587229
 20
3.045949882632641
 30
0.0
 11
1.617689197293217
 21
3.007726136524951
 31
0.0
  0
LINE
  5
486
330
46B
100
AcDbEntity
  8
1
  6
Continuous
 62
    15
100
AcDbLine
 10
3.174071931456425
 20
4.506666091055578
 30
0.0
 11
3.174071931456425
 21
4.700420282394177
 31
0.0
  0
LINE
  5
487
330
46B
100
AcDbEntity
  8
1
  6
Continuous
 62
    15
100
AcDbLine
 10
7.518794590481136
 20
4.536993227190109
 30
0.0
 11
12.66987807916951
 21
4.343234851401036
 31
0.0
  0
LINE
  5
488
330
46B
100
AcDbEntity
  8
1
  6
Continuous
 62
    15
100
AcDbLine
 10
14.91987807916951
 20
4.258600939626405
 30
0.0
 11
30.83736659438907
 21
3.659863464661584
 31
0.0
  0
ARC
  5
489
330
46B
100
AcDbEntity
  8
1
  6
Continuous
 62
    15
100
AcDbCircle
 10
2.424071931456425
 20
5.479161983884097
 30
0.0
 40
0.5
100
AcDbArc
 50
87.8458307244752
 51
180.0
  0
ARC
  5
48A
330
46B
100
AcDbEntity
  8
1
  6
Continuous
 62
    15
100
AcDbCircle
 10
1.424071931456425
 20
4.76624665821889
 30
0.0
 40
0.5
100
AcDbArc
 50
267.8458307244753
 51
0.0
  0
ARC
  5
48B
330
46B
100
AcDbEntity
  8
1
  6
Continuous
 62
    15
100
AcDbCircle
 10
1.674071931456425
 20
4.506666091055578
 30
0.0
 40
1.5
100
AcDbArc
 50
267.8458307244751
 51
0.0
  0
LINE
  5
48C
330
46B
100
AcDbEntity
  8
1
  6
Continuous
 62
    15
100
AcDbLine
 10
31.31857234966799
 20
3.160216813151379
 30
0.0
 11
31.31857234966799
 21
1.905583632757867
 31
0.0
  0
LINE
  5
48D
330
46B
100
AcDbEntity
  8
1
  6
Continuous
 62
    15
100
AcDbLine
 10
30.98958242133082
 20
1.435737322364915
 30
0.0
 11
30.37571287332514
 21
1.212307079168397
 31
0.0
  0
ARC
  5
48E
330
46B
100
AcDbEntity
  8
1
  6
Continuous
 62
    15
100
AcDbCircle
 10
30.58947546290369
 20
0.6249991911772099
 30
0.0
 40
0.6250000000000004
100
AcDbArc
 50
110.0000000000002
 51
290.0000000000002
  0
LINE
  5
48F
330
46B
100
AcDbEntity
  8
1
  6
Continuous
 62
    15
100
AcDbLine
 10
30.80323805248224
 20
0.0376913031860227
 30
0.0
 11
32.23958242133082
 21
0.5604778996027875
 31
0.0
  0
LINE
  5
490
330
46B
100
AcDbEntity
  8
1
  6
Continuous
 62
    15
100
AcDbLine
 10
32.56857234966799
 20
1.03032420999574
 30
0.0
 11
32.56857234966799
 21
4.364081969218319
 31
0.0
  0
ARC
  5
491
330
46B
100
AcDbEntity
  8
1
  6
Continuous
 62
    15
100
AcDbCircle
 10
30.81857234966799
 20
3.160216813151379
 30
0.0
 40
0.5
100
AcDbArc
 50
0.0
 51
87.84583072447506
  0
ARC
  5
492
330
46B
100
AcDbEntity
  8
1
  6
Continuous
 62
    15
100
AcDbCircle
 10
32.06857234966799
 20
1.03032420999574
 30
0.0
 40
0.5
100
AcDbArc
 50
290.0000000000002
 51
0.0
  0
ARC
  5
493
330
46B
100
AcDbEntity
  8
1
  6
Continuous
 62
    15
100
AcDbCircle
 10
30.81857234966799
 20
1.905583632757867
 30
0.0
 40
0.5
100
AcDbArc
 50
290.0000000000002
 51
0.0
  0
LINE
  5
494
330
46B
100
AcDbEntity
  8
1
  6
Continuous
 62
    15
100
AcDbLine
 10
3.174071931456425
 20
4.506666091055578
 30
0.0
 11
3.174071931456425
 21
4.700420282394177
 31
0.0
  0
LINE
  5
495
330
46B
100
AcDbEntity
  8
1
  6
Continuous
 62
    15
100
AcDbLine
 10
3.174071931456425
 20
4.700420282394177
 30
0.0
 11
5.419878079169507
 21
4.615944122674861
 31
0.0
  0
LINE
  5
496
330
46B
100
AcDbEntity
  8
1
  6
Continuous
 62
    15
100
AcDbLine
 10
5.901083834448443
 20
4.116297471164657
 30
0.0
 11
5.901083834448443
 21
1.725449719137274
 31
0.0
  0
ARC
  5
497
330
46B
100
AcDbEntity
  8
1
  6
Continuous
 62
    15
100
AcDbCircle
 10
6.526083834448443
 20
1.725449719137274
 30
0.0
 40
0.625
100
AcDbArc
 50
180.0
 51
0.0
  0
LINE
  5
498
330
46B
100
AcDbEntity
  8
1
  6
Continuous
 62
    15
100
AcDbLine
 10
7.151083834448443
 20
1.725449719137274
 30
0.0
 11
7.151083834448443
 21
4.031663559390012
 31
0.0
  0
LINE
  5
499
330
46B
100
AcDbEntity
  8
1
  6
Continuous
 62
    15
100
AcDbLine
 10
13.15108383444844
 20
3.843588199890831
 30
0.0
 11
13.15108383444844
 21
1.968095462665389
 31
0.0
  0
ARC
  5
49A
330
46B
100
AcDbEntity
  8
1
  6
Continuous
 62
    15
100
AcDbCircle
 10
13.77608383444844
 20
1.968095462665389
 30
0.0
 40
0.6249999999999964
100
AcDbArc
 50
180.0
 51
0.0
  0
LINE
  5
49B
330
46B
100
AcDbEntity
  8
1
  6
Continuous
 62
    15
100
AcDbLine
 10
14.40108383444844
 20
1.968095462665389
 30
0.0
 11
14.40108383444844
 21
3.7589542881162
 31
0.0
  0
ARC
  5
49C
330
46B
100
AcDbEntity
  8
1
  6
Continuous
 62
    15
100
AcDbCircle
 10
5.401083834448443
 20
4.116297471164657
 30
0.0
 40
0.5
100
AcDbArc
 50
0.0
 51
87.84583072447519
  0
ARC
  5
49D
330
46B
100
AcDbEntity
  8
1
  6
Continuous
 62
    15
100
AcDbCircle
 10
7.651083834448443
 20
4.031663559390012
 30
0.0
 40
0.5
100
AcDbArc
 50
87.84583072447519
 51
180.0
  0
ARC
  5
49E
330
46B
100
AcDbEntity
  8
1
  6
Continuous
 62
    15
100
AcDbCircle
 10
12.65108383444844
 20
3.843588199890831
 30
0.0
 40
0.5
100
AcDbArc
 50
0.0
 51
87.84583072447519
  0
ARC
  5
49F
330
46B
100
AcDbEntity
  8
1
  6
Continuous
 62
    15
100
AcDbCircle
 10
14.90108383444844
 20
3.7589542881162
 30
0.0
 40
0.5
100
AcDbArc
 50
87.84583072447498
 51
180.0
  0
LINE
  5
4A0
330
46B
100
AcDbEntity
  8
1
  6
Continuous
 62
    15
100
AcDbLine
 10
9.891128808259268
 20
5.698641700959683
 30
0.0
 11
10.15108383444844
 21
5.438686674770494
 31
0.0
  0
LINE
  5
4A1
330
46B
100
AcDbEntity
  8
1
  6
Continuous
 62
    15
100
AcDbLine
 10
10.15108383444844
 20
5.438686674770494
 30
0.0
 11
10.39219135684621
 21
5.679794197168263
 31
0.0
  0
ENDBLK
  5
46D
330
46B
100
AcDbEntity
  8
0
100
AcDbBlockEnd
  0
BLOCK
  5
4A3
330
4A2
100
AcDbEntity
  8
0
100
AcDbBlockBegin
  2
GEN_BLOCK00013
 70
     0
 71
     0
 10
0.0
 20
0.0
 30
0.0
  3
GEN_BLOCK00013
  1

  0
LINE
  5
4A6
330
4A2
100
AcDbEntity
  8
1
  6
Continuous
 62
    15
100
AcDbLine
 10
35.75795776212644
 20
2.622680026320637
 30
0.0
 11
35.99999707613033
 21
2.380640712316747
 31
0.0
  0
LINE
  5
4A7
330
4A2
100
AcDbEntity
  8
1
  6
Continuous
 62
    15
100
AcDbLine
 10
35.99999707613033
 20
2.380640712316747
 30
0.0
 11
36.25879872500697
 21
2.639442361193389
 31
0.0
  0
LINE
  5
4A8
330
4A2
100
AcDbEntity
  8
1
  6
Continuous
 62
    15
100
AcDbLine
 10
24.40032744062302
 20
6.199998116262648
 30
0.0
 11
26.64798517313831
 21
6.199998116262648
 31
0.0
  0
ARC
  5
4A9
330
4A2
100
AcDbEntity
  8
1
  6
Continuous
 62
    15
100
AcDbCircle
 10
26.64798517313831
 20
6.824998116262648
 30
0.0
 40
0.625
100
AcDbArc
 50
270.0
 51
90.0
  0
LINE
  5
4AA
330
4A2
100
AcDbEntity
  8
1
  6
Continuous
 62
    15
100
AcDbLine
 10
26.64798517313831
 20
7.449998116262648
 30
0.0
 11
22.16022403867494
 21
7.449998116262634
 31
0.0
  0
LINE
  5
4AB
330
4A2
100
AcDbEntity
  8
1
  6
Continuous
 62
    15
100
AcDbLine
 10
17.55140499357241
 20
3.607358407381341
 30
0.0
 11
18.16377742926821
 21
3.253805016788064
 31
0.0
  0
LINE
  5
4AC
330
4A2
100
AcDbEntity
  8
1
  6
Continuous
 62
    15
100
AcDbLine
 10
18.16377742926821
 20
3.253805016788064
 30
0.0
 11
17.86468571319676
 21
2.735762968429327
 31
0.0
  0
LINE
  5
4AD
330
4A2
100
AcDbEntity
  8
1
  6
Continuous
 62
    15
100
AcDbLine
 10
17.86468571319676
 20
2.735762968429327
 30
0.0
 11
17.81022403867494
 21
2.641432581092246
 31
0.0
  0
LINE
  5
4AE
330
4A2
100
AcDbEntity
  8
1
  6
Continuous
 62
    15
100
AcDbLine
 10
17.81022403867494
 20
2.641432581092246
 30
0.0
 11
17.81022403867493
 21
-0.0000018837373545
 31
0.0
  0
LINE
  5
4AF
330
4A2
100
AcDbEntity
  8
1
  6
Continuous
 62
    15
100
AcDbLine
 10
57.47635022423842
 20
0.1507665642978822
 30
0.0
 11
61.24054212693179
 21
1.520820372944129
 31
0.0
  0
LINE
  5
4B0
330
4A2
100
AcDbEntity
  8
1
  6
Continuous
 62
    15
100
AcDbLine
 10
61.81218689598678
 20
1.350125929076356
 30
0.0
 11
61.82996820719046
 21
1.326312571947511
 31
0.0
  0
ARC
  5
4B1
330
4A2
100
AcDbEntity
  8
1
  6
Continuous
 62
    15
100
AcDbCircle
 10
62.30475612334232
 20
1.735035775040018
 30
0.0
 40
0.6264808233857041
100
AcDbArc
 50
220.7236554207954
 51
40.7236554207955
  0
ARC
  5
4B2
330
4A2
100
AcDbEntity
  8
1
  6
Continuous
 62
    15
100
AcDbCircle
 10
64.1807558191053
 20
3.34999811626264
 30
0.0
 40
1.85
100
AcDbArc
 50
319.2517007137775
 51
220.7236554207953
  0
ARC
  5
4B3
330
4A2
100
AcDbEntity
  8
1
  6
Continuous
 62
    15
100
AcDbCircle
 10
66.05580446664
 20
1.734449813984256
 30
0.0
 40
0.6251429817379978
100
AcDbArc
 50
139.2517007137774
 51
319.2517007137775
  0
ARC
  5
4B4
330
4A2
100
AcDbEntity
  8
1
  6
Continuous
 62
    15
100
AcDbCircle
 10
64.1807558191053
 20
3.34999811626264
 30
0.0
 40
3.1
100
AcDbArc
 50
319.2517007137775
 51
13.97489179347239
  0
ARC
  5
4B5
330
4A2
100
AcDbEntity
  8
1
  6
Continuous
 62
    15
100
AcDbCircle
 10
61.77789227733351
 20
6.323184450318735
 30
0.0
 40
0.7228923319537902
100
AcDbArc
 50
234.5799295400786
 51
308.9443781271985
  0
ARC
  5
4B6
330
4A2
100
AcDbEntity
  8
1
  6
Continuous
 62
    15
100
AcDbCircle
 10
61.77789227733351
 20
6.323184450318735
 30
0.0
 40
0.7228923319537902
100
AcDbArc
 50
308.9443781271986
 51
0.0
  0
LINE
  5
4B7
330
4A2
100
AcDbEntity
  8
1
  6
Continuous
 62
    15
100
AcDbLine
 10
62.50078460928729
 20
6.323184450318735
 30
0.0
 11
62.50078460928729
 21
6.34438613605893
 31
0.0
  0
LINE
  5
4B8
330
4A2
100
AcDbEntity
  8
1
  6
Continuous
 62
    15
100
AcDbLine
 10
63.00078460928729
 20
6.84438613605893
 30
0.0
 11
62.99999694201988
 21
6.84438613605893
 31
0.0
  0
ARC
  5
4B9
330
4A2
100
AcDbEntity
  8
1
  6
Continuous
 62
    15
100
AcDbCircle
 10
63.87499695505839
 20
7.585734273089784
 30
0.0
 40
1.146831322861616
100
AcDbArc
 50
220.2731054855313
 51
319.7268945144686
  0
LINE
  5
4BA
330
4A2
100
AcDbEntity
  8
1
  6
Continuous
 62
    15
100
AcDbLine
 10
17.80028865406235
 20
9.36225116420114
 30
0.0
 11
18.42660179826477
 21
7.449998116262634
 31
0.0
  0
ARC
  5
4BB
330
4A2
100
AcDbEntity
  8
1
  6
Continuous
 62
    15
100
AcDbCircle
 10
23.77581154458331
 20
6.22497030954888
 30
0.0
 40
0.6250149716957305
100
AcDbArc
 50
229.249857885374
 51
357.7101632768781
  0
ARC
  5
4BC
330
4A2
100
AcDbEntity
  8
1
  6
Continuous
 62
    15
100
AcDbCircle
 10
22.16022403867494
 20
4.34999811626264
 30
0.0
 40
1.85
100
AcDbArc
 50
49.24985788537405
 51
310.7486165669955
  0
ARC
  5
4BD
330
4A2
100
AcDbEntity
  8
1
  6
Continuous
 62
    15
100
AcDbCircle
 10
23.7757633283839
 20
2.474980926044168
 30
0.0
 40
0.6250253276533118
100
AcDbArc
 50
14.58992868082882
 51
130.7486165669953
  0
LINE
  5
4BE
330
4A2
100
AcDbEntity
  8
1
  6
Continuous
 62
    15
100
AcDbLine
 10
71.74999707240504
 20
6.84438613605893
 30
0.0
 11
71.49999706867975
 21
6.84438613605893
 31
0.0
  0
ARC
  5
4BF
330
4A2
100
AcDbEntity
  8
1
  6
Continuous
 62
    15
100
AcDbCircle
 10
70.62499705564123
 20
6.84438613605893
 30
0.0
 40
0.875000013038516
100
AcDbArc
 50
180.0
 51
0.0
  0
LINE
  5
4C0
330
4A2
100
AcDbEntity
  8
1
  6
Continuous
 62
    15
100
AcDbLine
 10
69.74999704260271
 20
6.84438613605893
 30
0.0
 11
69.24999703515213
 21
6.84438613605893
 31
0.0
  0
ARC
  5
4C1
330
4A2
100
AcDbEntity
  8
1
  6
Continuous
 62
    15
100
AcDbCircle
 10
68.37499702211362
 20
6.84438613605893
 30
0.0
 40
0.875000013038516
100
AcDbArc
 50
180.0
 51
0.0
  0
LINE
  5
4C2
330
4A2
100
AcDbEntity
  8
1
  6
Continuous
 62
    15
100
AcDbLine
 10
67.4999970090751
 20
6.84438613605893
 30
0.0
 11
66.99999700162452
 21
6.84438613605893
 31
0.0
  0
ARC
  5
4C3
330
4A2
100
AcDbEntity
  8
1
  6
Continuous
 62
    15
100
AcDbCircle
 10
72.86933095795507
 20
2.537332478608533
 30
0.0
 40
1.451970758583345
100
AcDbArc
 50
232.0129704852096
 51
232.0129704852108
  0
LINE
  5
4C4
330
4A2
100
AcDbEntity
  8
1
  6
Continuous
 62
    15
100
AcDbLine
 10
71.74999707240504
 20
6.84438613605893
 30
0.0
 11
71.49999706867975
 21
6.84438613605893
 31
0.0
  0
ARC
  5
4C5
330
4A2
100
AcDbEntity
  8
1
  6
Continuous
 62
    15
100
AcDbCircle
 10
72.86933095795507
 20
2.537332478608533
 30
0.0
 40
1.451970758583345
100
AcDbArc
 50
232.0129704852096
 51
232.0129704852108
  0
ARC
  5
4C6
330
4A2
100
AcDbEntity
  8
1
  6
Continuous
 62
    15
100
AcDbCircle
 10
66.124996988586
 20
6.84438613605893
 30
0.0
 40
0.875000013038516
100
AcDbArc
 50
180.0
 51
0.0
  0
LINE
  5
4C7
330
4A2
100
AcDbEntity
  8
1
  6
Continuous
 62
    15
100
AcDbLine
 10
65.24999697554749
 20
6.84438613605893
 30
0.0
 11
64.74999696809691
 21
6.84438613605893
 31
0.0
  0
ARC
  5
4C8
330
4A2
100
AcDbEntity
  8
1
  6
Continuous
 62
    15
100
AcDbCircle
 10
71.74999707240504
 20
6.594386132333639
 30
0.0
 40
0.2500000037252903
100
AcDbArc
 50
0.0
 51
90.0
  0
ARC
  5
4C9
330
4A2
100
AcDbEntity
  8
1
  6
Continuous
 62
    15
100
AcDbCircle
 10
3.41022403867494
 20
7.800248843839967
 30
0.0
 40
0.5
100
AcDbArc
 50
39.11799697235669
 51
220.2639316620706
  0
ARC
  5
4CA
330
4A2
100
AcDbEntity
  8
1
  6
Continuous
 62
    15
100
AcDbCircle
 10
6.91022403867494
 20
10.23287816863171
 30
0.0
 40
0.5
100
AcDbArc
 50
29.33752438578988
 51
210.4834590755055
  0
ARC
  5
4CB
330
4A2
100
AcDbEntity
  8
1
  6
Continuous
 62
    15
100
AcDbCircle
 10
10.41022403867494
 20
11.89957841442332
 30
0.0
 40
0.5
100
AcDbArc
 50
20.44412722497315
 51
201.5900619146865
  0
ARC
  5
4CC
330
4A2
100
AcDbEntity
  8
1
  6
Continuous
 62
    15
100
AcDbCircle
 10
19.37638587380583
 20
-11.43725817381723
 30
0.0
 40
25.0
100
AcDbArc
 50
130.8368990069276
 51
139.9677811587691
  0
ARC
  5
4CD
330
4A2
100
AcDbEntity
  8
1
  6
Continuous
 62
    15
100
AcDbCircle
 10
19.37638587380583
 20
-11.43725817381723
 30
0.0
 40
25.0
100
AcDbArc
 50
121.0564264203621
 51
128.5450296274992
  0
ARC
  5
4CE
330
4A2
100
AcDbEntity
  8
1
  6
Continuous
 62
    15
100
AcDbCircle
 10
19.37638587380583
 20
-11.43725817381723
 30
0.0
 40
25.0
100
AcDbArc
 50
112.1630292595445
 51
118.7645570409336
  0
ARC
  5
4CF
330
4A2
100
AcDbEntity
  8
1
  6
Continuous
 62
    15
100
AcDbCircle
 10
19.37638587380583
 20
-11.43725817381723
 30
0.0
 40
25.0
100
AcDbArc
 50
103.5307464986789
 51
109.8711598801153
  0
ARC
  5
4D0
330
4A2
100
AcDbEntity
  8
1
  6
Continuous
 62
    15
100
AcDbCircle
 10
0.9999970761303274
 20
3.999980399083896
 30
0.0
 40
1.0
100
AcDbArc
 50
139.9677811587691
 51
316.9560632782728
  0
ARC
  5
4D1
330
4A2
100
AcDbEntity
  8
1
  6
Continuous
 62
    15
100
AcDbCircle
 10
20.00159014639208
 20
-13.74655336929412
 30
0.0
 40
25.0
100
AcDbArc
 50
107.1859379357977
 51
136.9560632782728
  0
LINE
  5
4D2
330
4A2
100
AcDbEntity
  8
1
  6
Continuous
 62
    15
100
AcDbLine
 10
13.91022403867494
 20
9.181868441339091
 30
0.0
 11
13.91022403867494
 21
6.999998116262645
 31
0.0
  0
LINE
  5
4D3
330
4A2
100
AcDbEntity
  8
1
  6
Continuous
 62
    15
100
AcDbLine
 10
23.91022403867494
 20
-0.0000018837373545
 30
0.0
 11
23.91022403867494
 21
0.3999981162626369
 31
0.0
  0
LINE
  5
4D4
330
4A2
100
AcDbEntity
  8
1
  6
Continuous
 62
    15
100
AcDbLine
 10
23.91022403867494
 20
0.3999981162626369
 30
0.0
 11
54.24272317038729
 21
1.730340462855352
 31
0.0
  0
LINE
  5
4D5
330
4A2
100
AcDbEntity
  8
1
  6
Continuous
 62
    15
100
AcDbLine
 10
24.88123531079076
 20
2.258653763375364
 30
0.0
 11
35.75795776212644
 21
2.622680026320637
 31
0.0
  0
LINE
  5
4D6
330
4A2
100
AcDbEntity
  8
1
  6
Continuous
 62
    15
100
AcDbLine
 10
36.25879872500697
 20
2.639442361193389
 30
0.0
 11
53.91421346568629
 21
3.230340462855352
 31
0.0
  0
ARC
  5
4D7
330
4A2
100
AcDbEntity
  8
1
  6
Continuous
 62
    15
100
AcDbCircle
 10
56.62129986592424
 20
2.499998116262645
 30
0.0
 40
2.5
100
AcDbArc
 50
270.0
 51
290.0000000000001
  0
ARC
  5
4D8
330
4A2
100
AcDbEntity
  8
1
  6
Continuous
 62
    15
100
AcDbCircle
 10
56.62129986592424
 20
2.499998116262645
 30
0.0
 40
2.5
100
AcDbArc
 50
197.9304957389324
 51
270.0
  0
ARC
  5
4D9
330
4A2
100
AcDbEntity
  8
1
  6
Continuous
 62
    15
100
AcDbCircle
 10
17.61022403867493
 20
9.299998116262657
 30
0.0
 40
0.2
100
AcDbArc
 50
18.13549625590597
 51
180.0
  0
LINE
  5
4DA
330
4A2
100
AcDbEntity
  8
1
  6
Continuous
 62
    15
100
AcDbLine
 10
17.41022403867494
 20
9.299998116262657
 30
0.0
 11
17.41022403867494
 21
7.999998116262645
 31
0.0
  0
LINE
  5
4DB
330
4A2
100
AcDbEntity
  8
1
  6
Continuous
 62
    15
100
AcDbLine
 10
17.41022403867494
 20
7.999998116262645
 30
0.0
 11
15.91022403867494
 21
7.999998116262645
 31
0.0
  0
LINE
  5
4DC
330
4A2
100
AcDbEntity
  8
1
  6
Continuous
 62
    15
100
AcDbLine
 10
15.91022403867494
 20
7.999998116262645
 30
0.0
 11
15.91022403867494
 21
13.99999811626265
 31
0.0
  0
LINE
  5
4DD
330
4A2
100
AcDbEntity
  8
1
  6
Continuous
 62
    15
100
AcDbLine
 10
15.91022403867494
 20
13.99999811626265
 30
0.0
 11
17.41022403867494
 21
13.99999811626265
 31
0.0
  0
LINE
  5
4DE
330
4A2
100
AcDbEntity
  8
1
  6
Continuous
 62
    15
100
AcDbLine
 10
17.41022403867494
 20
13.99999811626265
 30
0.0
 11
17.41022403867494
 21
12.69999811626263
 31
0.0
  0
ARC
  5
4DF
330
4A2
100
AcDbEntity
  8
1
  6
Continuous
 62
    15
100
AcDbCircle
 10
17.61022403867493
 20
12.69999811626263
 30
0.0
 40
0.2
100
AcDbArc
 50
180.0
 51
341.0753555839485
  0
LINE
  5
4E0
330
4A2
100
AcDbEntity
  8
1
  6
Continuous
 62
    15
100
AcDbLine
 10
17.79941322786412
 20
12.63513325139778
 30
0.0
 11
18.41022403867494
 21
14.4166647829293
 31
0.0
  0
ARC
  5
4E1
330
4A2
100
AcDbEntity
  8
1
  6
Continuous
 62
    15
100
AcDbCircle
 10
17.91022403867494
 20
14.49999811626265
 30
0.0
 40
0.5
100
AcDbArc
 50
0.0
 51
90.0
  0
ARC
  5
4E2
330
4A2
100
AcDbEntity
  8
1
  6
Continuous
 62
    15
100
AcDbCircle
 10
17.91022403867494
 20
14.49999811626265
 30
0.0
 40
0.5
100
AcDbArc
 50
341.0753555839473
 51
0.0
  0
ARC
  5
4E3
330
4A2
100
AcDbEntity
  8
1
  6
Continuous
 62
    15
100
AcDbCircle
 10
17.91022403867494
 20
14.49999811626265
 30
0.0
 40
0.5
100
AcDbArc
 50
0.0
 51
90.0
  0
ARC
  5
4E4
330
4A2
100
AcDbEntity
  8
1
  6
Continuous
 62
    15
100
AcDbCircle
 10
47.87201867734252
 20
2.82449460299955
 30
0.0
 40
1.451970736947295
100
AcDbArc
 50
232.0129704852096
 51
232.0129704852108
  0
LINE
  5
4E5
330
4A2
100
AcDbEntity
  8
1
  6
Continuous
 62
    15
100
AcDbLine
 10
17.91022403867494
 20
14.99999811626265
 30
0.0
 11
15.41022403867494
 21
14.99999811626265
 31
0.0
  0
LINE
  5
4E6
330
4A2
100
AcDbEntity
  8
1
  6
Continuous
 62
    15
100
AcDbLine
 10
13.91022403867494
 20
13.49999811626265
 30
0.0
 11
13.91022403867494
 21
13.35497675885932
 31
0.0
  0
ARC
  5
4E7
330
4A2
100
AcDbEntity
  8
1
  6
Continuous
 62
    15
100
AcDbCircle
 10
15.41022403867494
 20
13.49999811626265
 30
0.0
 40
1.5
100
AcDbArc
 50
90.0
 51
180.0
  0
LINE
  5
4E8
330
4A2
100
AcDbEntity
  8
1
  6
Continuous
 62
    15
100
AcDbLine
 10
17.81022403867494
 20
-0.0000018837373545
 30
0.0
 11
19.66022403867494
 21
-0.0000018837373545
 31
0.0
  0
LINE
  5
4E9
330
4A2
100
AcDbEntity
  8
1
  6
Continuous
 62
    15
100
AcDbLine
 10
20.16022403867494
 20
-0.0000018837373545
 30
0.0
 11
20.66022403867494
 21
-0.0000018837373545
 31
0.0
  0
LINE
  5
4EA
330
4A2
100
AcDbEntity
  8
1
  6
Continuous
 62
    15
100
AcDbLine
 10
21.16022403867494
 20
-0.0000018837373545
 30
0.0
 11
21.66022403867494
 21
-0.0000018837373545
 31
0.0
  0
LINE
  5
4EB
330
4A2
100
AcDbEntity
  8
1
  6
Continuous
 62
    15
100
AcDbLine
 10
22.16022403867494
 20
-0.0000018837373545
 30
0.0
 11
22.66022403867494
 21
-0.0000018837373545
 31
0.0
  0
LINE
  5
4EC
330
4A2
100
AcDbEntity
  8
1
  6
Continuous
 62
    15
100
AcDbLine
 10
23.16022403867494
 20
-0.0000018837373545
 30
0.0
 11
23.91022403867494
 21
-0.0000018837373545
 31
0.0
  0
ARC
  5
4ED
330
4A2
100
AcDbEntity
  8
1
  6
Continuous
 62
    15
100
AcDbCircle
 10
22.91022403867494
 20
-0.0000018837373545
 30
0.0
 40
0.25
100
AcDbArc
 50
0.0
 51
180.0
  0
ARC
  5
4EE
330
4A2
100
AcDbEntity
  8
1
  6
Continuous
 62
    15
100
AcDbCircle
 10
21.91022403867494
 20
-0.0000018837373545
 30
0.0
 40
0.25
100
AcDbArc
 50
0.0
 51
180.0
  0
ARC
  5
4EF
330
4A2
100
AcDbEntity
  8
1
  6
Continuous
 62
    15
100
AcDbCircle
 10
20.91022403867494
 20
-0.0000018837373545
 30
0.0
 40
0.25
100
AcDbArc
 50
0.0
 51
180.0
  0
ARC
  5
4F0
330
4A2
100
AcDbEntity
  8
1
  6
Continuous
 62
    15
100
AcDbCircle
 10
19.91022403867494
 20
-0.0000018837373545
 30
0.0
 40
0.25
100
AcDbArc
 50
0.0
 51
180.0
  0
ARC
  5
4F1
330
4A2
100
AcDbEntity
  8
1
  6
Continuous
 62
    15
100
AcDbCircle
 10
59.91022403867493
 20
3.697068617902488
 30
0.0
 40
2.5
100
AcDbArc
 50
54.5799295400786
 51
93.6702573747949
  0
ARC
  5
4F2
330
4A2
100
AcDbEntity
  8
1
  6
Continuous
 62
    15
100
AcDbCircle
 10
59.91022403867493
 20
3.697068617902488
 30
0.0
 40
2.5
100
AcDbArc
 50
93.6702573747949
 51
109.2360336359783
  0
ARC
  5
4F3
330
4A2
100
AcDbEntity
  8
1
  6
Continuous
 62
    15
100
AcDbCircle
 10
59.91022403867493
 20
3.697068617902488
 30
0.0
 40
1.25
100
AcDbArc
 50
289.9999999999999
 51
109.236033635978
  0
ARC
  5
4F4
330
4A2
100
AcDbEntity
  8
1
  6
Continuous
 62
    15
100
AcDbCircle
 10
56.62129986592424
 20
2.499998116262645
 30
0.0
 40
1.25
100
AcDbArc
 50
109.9999999999994
 51
290.0000000000007
  0
LINE
  5
4F5
330
4A2
100
AcDbEntity
  8
1
  6
Continuous
 62
    15
100
AcDbLine
 10
57.04882504508134
 20
1.325382340280271
 30
0.0
 11
58.30325501445859
 21
1.781957510105045
 31
0.0
  0
ARC
  5
4F6
330
4A2
100
AcDbEntity
  8
1
  6
Continuous
 62
    15
100
AcDbCircle
 10
55.9565767875599
 20
4.253214654254975
 30
0.0
 40
0.625
100
AcDbArc
 50
290.7639663640226
 51
110.7639663640213
  0
ARC
  5
4F7
330
4A2
100
AcDbEntity
  8
1
  6
Continuous
 62
    15
100
AcDbCircle
 10
59.29248559134987
 20
5.467386163061093
 30
0.0
 40
0.625
100
AcDbArc
 50
109.2360336359775
 51
289.2360336359785
  0
LINE
  5
4F8
330
4A2
100
AcDbEntity
  8
1
  6
Continuous
 62
    15
100
AcDbLine
 10
60.33774921783203
 20
2.522452841920114
 30
0.0
 11
58.30325501445859
 21
1.781957510105045
 31
0.0
  0
ARC
  5
4F9
330
4A2
100
AcDbEntity
  8
1
  6
Continuous
 62
    15
100
AcDbCircle
 10
56.62129986592424
 20
2.499998116262645
 30
0.0
 40
2.5
100
AcDbArc
 50
110.0
 51
155.8061175462502
  0
ARC
  5
4FA
330
4A2
100
AcDbEntity
  8
1
  6
Continuous
 62
    15
100
AcDbCircle
 10
59.98116900605754
 20
2.662250620025461
 30
0.0
 40
1.451970736947295
100
AcDbArc
 50
232.0129704852096
 51
232.0129704852108
  0
ARC
  5
4FB
330
4A2
100
AcDbEntity
  8
1
  6
Continuous
 62
    15
100
AcDbCircle
 10
53.88480822892966
 20
3.729475045960243
 30
0.0
 40
0.5
100
AcDbArc
 50
273.3715373382716
 51
335.8061175462503
  0
ARC
  5
4FC
330
4A2
100
AcDbEntity
  8
1
  6
Continuous
 62
    15
100
AcDbCircle
 10
59.91022403867493
 20
3.697068617902488
 30
0.0
 40
2.5
100
AcDbArc
 50
54.5799295400786
 51
93.6702573747949
  0
ARC
  5
4FD
330
4A2
100
AcDbEntity
  8
1
  6
Continuous
 62
    15
100
AcDbCircle
 10
59.91022403867493
 20
3.697068617902488
 30
0.0
 40
2.5
100
AcDbArc
 50
93.6702573747949
 51
109.2360336359783
  0
ARC
  5
4FE
330
4A2
100
AcDbEntity
  8
1
  6
Continuous
 62
    15
100
AcDbCircle
 10
59.91022403867493
 20
3.697068617902488
 30
0.0
 40
1.25
100
AcDbArc
 50
289.9999999999999
 51
109.236033635978
  0
ARC
  5
4FF
330
4A2
100
AcDbEntity
  8
1
  6
Continuous
 62
    15
100
AcDbCircle
 10
59.29248559134987
 20
5.467386163061093
 30
0.0
 40
0.625
100
AcDbArc
 50
109.2360336359775
 51
289.2360336359785
  0
LINE
  5
500
330
4A2
100
AcDbEntity
  8
1
  6
Continuous
 62
    15
100
AcDbLine
 10
60.33774921783203
 20
2.522452841920114
 30
0.0
 11
58.30325501445859
 21
1.781957510105045
 31
0.0
  0
ARC
  5
501
330
4A2
100
AcDbEntity
  8
1
  6
Continuous
 62
    15
100
AcDbCircle
 10
59.98116900605754
 20
2.662250620025461
 30
0.0
 40
1.451970736947295
100
AcDbArc
 50
232.0129704852096
 51
232.0129704852108
  0
ARC
  5
502
330
4A2
100
AcDbEntity
  8
1
  6
Continuous
 62
    15
100
AcDbCircle
 10
12.91022403867494
 20
9.181868441339091
 30
0.0
 40
1.0
100
AcDbArc
 50
0.0
 51
107.1859379357978
  0
ARC
  5
503
330
4A2
100
AcDbEntity
  8
1
  6
Continuous
 62
    15
100
AcDbCircle
 10
13.41022403867494
 20
13.35497675885932
 30
0.0
 40
0.5
100
AcDbArc
 50
283.5307464986788
 51
0.0
  0
LINE
  5
504
330
4A2
100
AcDbEntity
  8
1
  6
Continuous
 62
    15
100
AcDbLine
 10
71.99999707613033
 20
6.594386132333639
 30
0.0
 11
71.99999707613033
 21
0.4999981162626455
 31
0.0
  0
LINE
  5
505
330
4A2
100
AcDbEntity
  8
1
  6
Continuous
 62
    15
100
AcDbLine
 10
71.49999707613033
 20
-0.0000018837373545
 30
0.0
 11
71.24999707613033
 21
-0.0000018837373545
 31
0.0
  0
LINE
  5
506
330
4A2
100
AcDbEntity
  8
1
  6
Continuous
 62
    15
100
AcDbLine
 10
70.74999707613033
 20
1.719386123020413
 30
0.0
 11
70.74999707613033
 21
4.219386123020413
 31
0.0
  0
LINE
  5
507
330
4A2
100
AcDbEntity
  8
1
  6
Continuous
 62
    15
100
AcDbLine
 10
70.24999707613033
 20
4.719386123020413
 30
0.0
 11
67.67420175309451
 21
4.719386123020413
 31
0.0
  0
ARC
  5
508
330
4A2
100
AcDbEntity
  8
1
  6
Continuous
 62
    15
100
AcDbCircle
 10
70.24999707613033
 20
4.219386123020413
 30
0.0
 40
0.5
100
AcDbArc
 50
0.0
 51
90.0
  0
ARC
  5
509
330
4A2
100
AcDbEntity
  8
1
  6
Continuous
 62
    15
100
AcDbCircle
 10
71.49999707613033
 20
0.4999981162626455
 30
0.0
 40
0.5
100
AcDbArc
 50
270.0
 51
0.0
  0
ARC
  5
50A
330
4A2
100
AcDbEntity
  8
1
  6
Continuous
 62
    15
100
AcDbCircle
 10
71.24999707613033
 20
0.4999981162626455
 30
0.0
 40
0.5
100
AcDbArc
 50
214.1404868935876
 51
270.0
  0
ARC
  5
50B
330
4A2
100
AcDbEntity
  8
1
  6
Continuous
 62
    15
100
AcDbCircle
 10
67.67420175309451
 20
4.219386123020413
 30
0.0
 40
0.5
100
AcDbArc
 50
90.0
 51
193.9748917934724
  0
ARC
  5
50C
330
4A2
100
AcDbEntity
  8
1
  6
Continuous
 62
    15
100
AcDbCircle
 10
61.41155219859462
 20
1.050974062551177
 30
0.0
 40
0.5
100
AcDbArc
 50
36.74850782711038
 51
110.0000000000001
  0
ARC
  5
50D
330
4A2
100
AcDbEntity
  8
1
  6
Continuous
 62
    15
100
AcDbCircle
 10
63.00078460928729
 20
6.34438613605893
 30
0.0
 40
0.5
100
AcDbArc
 50
90.0
 51
180.0
  0
LINE
  5
50E
330
4A2
100
AcDbEntity
  8
1
  6
Continuous
 62
    15
100
AcDbLine
 10
15.41022403867494
 20
5.499998116262645
 30
0.0
 11
16.17001381357601
 21
5.499998116262645
 31
0.0
  0
ARC
  5
50F
330
4A2
100
AcDbEntity
  8
1
  6
Continuous
 62
    15
100
AcDbCircle
 10
15.41022403867494
 20
6.999998116262645
 30
0.0
 40
1.5
100
AcDbArc
 50
180.0
 51
270.0
  0
LINE
  5
510
330
4A2
100
AcDbEntity
  8
1
  6
Continuous
 62
    15
100
AcDbLine
 10
18.41022403867494
 20
7.449998116262648
 30
0.0
 11
22.16022403867494
 21
7.449998116262648
 31
0.0
  0
ARC
  5
511
330
4A2
100
AcDbEntity
  8
1
  6
Continuous
 62
    15
100
AcDbCircle
 10
24.86451048596902
 20
2.758373965323088
 30
0.0
 40
0.5
100
AcDbArc
 50
194.5899286808287
 51
271.9168813238778
  0
LINE
  5
512
330
4A2
100
AcDbEntity
  8
1
  6
Continuous
 62
    15
100
AcDbLine
 10
16.60302651546823
 20
5.249998116262645
 30
0.0
 11
17.5514049935724
 21
3.607358407381355
 31
0.0
  0
ARC
  5
513
330
4A2
100
AcDbEntity
  8
1
  6
Continuous
 62
    15
100
AcDbCircle
 10
16.17001381357601
 20
4.999998116262645
 30
0.0
 40
0.5
100
AcDbArc
 50
29.99999999999993
 51
90.0
  0
LINE
  5
514
330
4A2
100
AcDbEntity
  8
1
  6
Continuous
 62
    15
100
AcDbLine
 10
70.24999707613033
 20
1.219386123020413
 30
0.0
 11
69.74999707613033
 21
1.219386123020413
 31
0.0
  0
ARC
  5
515
330
4A2
100
AcDbEntity
  8
1
  6
Continuous
 62
    15
100
AcDbCircle
 10
69.74999707613033
 20
0.7193861230204135
 30
0.0
 40
0.5
100
AcDbArc
 50
90.0
 51
270.0
  0
LINE
  5
516
330
4A2
100
AcDbEntity
  8
1
  6
Continuous
 62
    15
100
AcDbLine
 10
69.74999707613033
 20
0.2193861230204135
 30
0.0
 11
70.83616509422387
 21
0.2193861230204135
 31
0.0
  0
ARC
  5
517
330
4A2
100
AcDbEntity
  8
1
  6
Continuous
 62
    15
100
AcDbCircle
 10
70.24999707613033
 20
1.719386123020413
 30
0.0
 40
0.5
100
AcDbArc
 50
270.0
 51
0.0
  0
ENDBLK
  5
4A4
330
4A2
100
AcDbEntity
  8
0
100
AcDbBlockEnd
  0
BLOCK
  5
519
330
518
100
AcDbEntity
  8
0
100
AcDbBlockBegin
  2
GEN_BLOCK00014
 70
     0
 71
     0
 10
0.0
 20
0.0
 30
0.0
  3
GEN_BLOCK00014
  1

  0
TEXT
  5
51C
330
518
100
AcDbEntity
  8
GEN_LAYER
  6
Continuous
 62
    15
100
AcDbText
 10
1.091526031494141
 20
8.875
 30
0.0
 40
2.0
  1
Infill peice to
100
AcDbText
  0
TEXT
  5
51D
330
518
100
AcDbEntity
  8
GEN_LAYER
  6
Continuous
 62
    15
100
AcDbText
 10
1.091526031494141
 20
4.875
 30
0.0
 40
2.0
  1
convert sill to outward 
100
AcDbText
  0
TEXT
  5
51E
330
518
100
AcDbEntity
  8
GEN_LAYER
  6
Continuous
 62
    15
100
AcDbText
 10
1.091526031494141
 20
0.875
 30
0.0
 40
2.0
  1
opening
100
AcDbText
  0
ENDBLK
  5
51A
330
518
100
AcDbEntity
  8
0
100
AcDbBlockEnd
  0
ENDSEC
  0
SECTION
  2
ENTITIES
  0
INSERT
  5
48
330
1F
100
AcDbEntity
  8
0
100
AcDbBlockReference
  2
GEN_BLOCK
 10
-96.5875473022461
 20
-133.7571105957031
 30
0.0
  0
INSERT
  5
234
330
1F
100
AcDbEntity
  8
0
100
AcDbBlockReference
  2
PROTO
 10
-97.70114135742188
 20
-131.8897857666016
 30
0.0
  0
INSERT
  5
24C
330
1F
100
AcDbEntity
  8
0
100
AcDbBlockReference
  2
GEN_BLOCK00000
 10
-98.93606567382812
 20
-133.7571105957031
 30
0.0
  0
INSERT
  5
25C
330
1F
100
AcDbEntity
  8
1
100
AcDbBlockReference
  2
GEN_BLOCK00001
 10
-5.330775260925293
 20
-9.001662254333496
 30
0.0
  0
INSERT
  5
261
330
1F
100
AcDbEntity
  8
1
100
AcDbBlockReference
  2
GEN_BLOCK00002
 10
-8.872203826904297
 20
-14.0016622543335
 30
0.0
  0
INSERT
  5
2D0
330
1F
100
AcDbEntity
  8
1
100
AcDbBlockReference
  2
GEN_BLOCK00003
 10
-29.83706474304199
 20
59.90702438354492
 30
0.0
  0
INSERT
  5
2D5
330
1F
100
AcDbEntity
  8
0
100
AcDbBlockReference
  2
GEN_BLOCK00004
 10
29.41703796386719
 20
-19.55899429321289
 30
0.0
  0
INSERT
  5
300
330
1F
100
AcDbEntity
  8
1
100
AcDbBlockReference
  2
GEN_BLOCK00005
 10
-0.7949485778808594
 20
-6.348381042480469
 30
0.0
  0
INSERT
  5
310
330
1F
100
AcDbEntity
  8
1
100
AcDbBlockReference
  2
GEN_BLOCK00006
 10
-27.2507152557373
 20
-22.02115058898926
 30
0.0
  0
INSERT
  5
31D
330
1F
100
AcDbEntity
  8
1
100
AcDbBlockReference
  2
GEN_BLOCK00007
 10
10.40041542053223
 20
-132.5442504882812
 30
0.0
  0
INSERT
  5
329
330
1F
100
AcDbEntity
  8
FIXING
100
AcDbBlockReference
  2
8569S
 10
9.648085594177246
 20
-33.70797348022461
 30
0.0
  0
INSERT
  5
3C5
330
1F
100
AcDbEntity
  8
1
100
AcDbBlockReference
  2
GEN_BLOCK00008
 10
-48.08692932128906
 20
-25.02115249633789
 30
0.0
  0
INSERT
  5
3DB
330
1F
100
AcDbEntity
  8
1
100
AcDbBlockReference
  2
GEN_BLOCK00009
 10
-23.21477508544922
 20
-21.17887496948242
 30
0.0
  0
INSERT
  5
452
330
1F
100
AcDbEntity
  8
GEN_LAYER
100
AcDbBlockReference
  2
GEN_BLOCK00010
 10
-23.21356201171875
 20
-18.17887687683105
 30
0.0
  0
INSERT
  5
45F
330
1F
100
AcDbEntity
  8
1
100
AcDbBlockReference
  2
GEN_BLOCK00011
 10
-34.73705673217773
 20
-44.65700912475586
 30
0.0
  0
INSERT
  5
46E
330
1F
100
AcDbEntity
  8
1
100
AcDbBlockReference
  2
GEN_BLOCK00012
 10
-55.39289855957031
 20
-61.98362350463867
 30
0.0
  0
INSERT
  5
4A5
330
1F
100
AcDbEntity
  8
1
100
AcDbBlockReference
  2
GEN_BLOCK00013
 10
-81.06468963623047
 20
-63.44987487792969
 30
0.0
  0
INSERT
  5
51B
330
1F
100
AcDbEntity
  8
GEN_LAYER
100
AcDbBlockReference
  2
GEN_BLOCK00014
 10
-50.64182281494141
 20
-83.09932708740234
 30
0.0
  0
ENDSEC
  0
SECTION
  2
OBJECTS
  0
DICTIONARY
  5
C
330
0
100
AcDbDictionary
281
     1
  3
ACAD_GROUP
350
D
  3
ACAD_LAYOUT
350
1A
  3
ACAD_MLINESTYLE
350
17
  3
ACAD_PLOTSETTINGS
350
19
  3
ACAD_PLOTSTYLENAME
350
E
  3
ACAD_TABLESTYLE
350
51F
  3
ACAD_VISUALSTYLE
350
2A
  0
DICTIONARY
  5
D
102
{ACAD_REACTORS
330
C
102
}
330
C
100
AcDbDictionary
281
     1
  0
DICTIONARY
  5
1A
102
{ACAD_REACTORS
330
C
102
}
330
C
100
AcDbDictionary
281
     1
  3
Layout1
350
1E
  3
Layout2
350
26
  3
Model
350
22
  0
DICTIONARY
  5
17
102
{ACAD_REACTORS
330
C
102
}
330
C
100
AcDbDictionary
281
     1
  3
Standard
350
18
  0
DICTIONARY
  5
19
102
{ACAD_REACTORS
330
C
102
}
330
C
100
AcDbDictionary
281
     1
  0
ACDBDICTIONARYWDFLT
  5
E
102
{ACAD_REACTORS
330
C
102
}
330
C
100
AcDbDictionary
281
     1
  3
Normal
350
F
100
AcDbDictionaryWithDefault
340
F
  0
DICTIONARY
  5
51F
102
{ACAD_REACTORS
330
C
102
}
330
C
100
AcDbDictionary
281
     1
  0
DICTIONARY
  5
2A
102
{ACAD_REACTORS
330
C
102
}
330
C
100
AcDbDictionary
281
     1
  3
2dWireframe
350
2F
  3
3D Hidden
350
31
  3
3dWireframe
350
30
  3
Basic
350
32
  3
Brighten
350
36
  3
ColorChange
350
3A
  3
Conceptual
350
34
  3
Dim
350
35
  3
Facepattern
350
39
  3
Flat
350
2B
  3
FlatWithEdges
350
2C
  3
Gouraud
350
2D
  3
GouraudWithEdges
350
2E
  3
Linepattern
350
38
  3
Realistic
350
33
  3
Thicken
350
37
  0
LAYOUT
  5
1E
102
{ACAD_REACTORS
330
1A
102
}
330
1A
100
AcDbPlotSettings
  1

  2
none_device
  4

  6

 40
0.0
 41
0.0
 42
0.0
 43
0.0
 44
0.0
 45
0.0
 46
0.0
 47
0.0
 48
0.0
 49
0.0
140
0.0
141
0.0
142
1.0
143
1.0
 70
   688
 72
     0
 73
     0
 74
     5
  7

 75
    16
 76
     0
 77
     2
 78
   300
147
1.0
148
0.0
149
0.0
100
AcDbLayout
  1
Layout1
 70
     1
 71
     1
 10
0.0
 20
0.0
 11
420.0
 21
297.0
 12
0.0
 22
0.0
 32
0.0
 14
1.000000000000000E+20
 24
1.000000000000000E+20
 34
1.000000000000000E+20
 15
-1.000000000000000E+20
 25
-1.000000000000000E+20
 35
-1.000000000000000E+20
146
0.0
 13
0.0
 23
0.0
 33
0.0
 16
1.0
 26
0.0
 36
0.0
 17
0.0
 27
1.0
 37
0.0
 76
     0
330
1B
  0
LAYOUT
  5
26
102
{ACAD_REACTORS
330
1A
102
}
330
1A
100
AcDbPlotSettings
  1

  2
none_device
  4

  6

 40
0.0
 41
0.0
 42
0.0
 43
0.0
 44
0.0
 45
0.0
 46
0.0
 47
0.0
 48
0.0
 49
0.0
140
0.0
141
0.0
142
1.0
143
1.0
 70
   688
 72
     0
 73
     0
 74
     5
  7

 75
    16
 76
     0
 77
     2
 78
   300
147
1.0
148
0.0
149
0.0
100
AcDbLayout
  1
Layout2
 70
     1
 71
     2
 10
0.0
 20
0.0
 11
0.0
 21
0.0
 12
0.0
 22
0.0
 32
0.0
 14
0.0
 24
0.0
 34
0.0
 15
0.0
 25
0.0
 35
0.0
146
0.0
 13
0.0
 23
0.0
 33
0.0
 16
1.0
 26
0.0
 36
0.0
 17
0.0
 27
1.0
 37
0.0
 76
     0
330
23
  0
LAYOUT
  5
22
102
{ACAD_REACTORS
330
1A
102
}
330
1A
100
AcDbPlotSettings
  1

  2
none_device
  4

  6

 40
0.0
 41
0.0
 42
0.0
 43
0.0
 44
0.0
 45
0.0
 46
0.0
 47
0.0
 48
0.0
 49
0.0
140
0.0
141
0.0
142
1.0
143
1.0
 70
  1712
 72
     0
 73
     0
 74
     0
  7

 75
     0
 76
     0
 77
     2
 78
   300
147
1.0
148
0.0
149
0.0
100
AcDbLayout
  1
Model
 70
     1
 71
     0
 10
0.0
 20
0.0
 11
420.0
 21
297.0
 12
0.0
 22
0.0
 32
0.0
 14
-98.93606297498508
 24
-133.7571033549152
 34
0.0
 15
100.0839462901311
 25
144.302347929844
 35
0.0
146
0.0
 13
0.0
 23
0.0
 33
0.0
 16
1.0
 26
0.0
 36
0.0
 17
0.0
 27
1.0
 37
0.0
 76
     0
330
1F
331
29
  0
MLINESTYLE
  5
18
102
{ACAD_REACTORS
330
17
102
}
330
17
100
AcDbMlineStyle
  2
Standard
 70
     0
  3

 62
   256
 51
90.0
 52
90.0
 71
     2
 49
0.5
 62
   256
  6
BYLAYER
 49
-0.5
 62
   256
  6
BYLAYER
  0
ACDBPLACEHOLDER
  5
F
102
{ACAD_REACTORS
330
E
102
}
330
E
  0
VISUALSTYLE
  5
2F
102
{ACAD_REACTORS
330
2A
102
}
330
2A
100
AcDbVisualStyle
  2
2dWireframe
 70
     4
 71
     0
 72
     2
 73
     0
 90
        0
 40
-0.6
 41
-30.0
 62
     5
 63
     7
421
 16777215
 74
     1
 91
        4
 64
     7
 65
   257
 75
     1
175
     1
 42
1.0
 92
        0
 66
   257
 43
1.0
 76
     1
 77
     6
 78
     2
 67
     7
 79
     5
170
     0
171
     0
290
     0
174
     0
 93
        1
 44
0.0
173
     0
291
     0
 45
0.0
1001
ACAD
1000
AcDbSavedByObjectVersion
1070
     0
  0
VISUALSTYLE
  5
31
102
{ACAD_REACTORS
330
2A
102
}
330
2A
100
AcDbVisualStyle
  2
3D Hidden
 70
     6
 71
     1
 72
     2
 73
     2
 90
        0
 40
-0.6
 41
-30.0
 62
     5
 63
     7
421
 16777215
 74
     2
 91
        2
 64
     7
 65
   257
 75
     2
175
     1
 42
40.0
 92
        0
 66
   257
 43
1.0
 76
     1
 77
     6
 78
     2
 67
     7
 79
     3
170
     0
171
     0
290
     0
174
     0
 93
        1
 44
0.0
173
     0
291
     0
 45
0.0
1001
ACAD
1000
AcDbSavedByObjectVersion
1070
     0
  0
VISUALSTYLE
  5
30
102
{ACAD_REACTORS
330
2A
102
}
330
2A
100
AcDbVisualStyle
  2
3dWireframe
 70
     5
 71
     0
 72
     2
 73
     0
 90
        0
 40
-0.6
 41
-30.0
 62
     5
 63
     7
421
 16777215
 74
     1
 91
        4
 64
     7
 65
   257
 75
     1
175
     1
 42
1.0
 92
        0
 66
   257
 43
1.0
 76
     1
 77
     6
 78
     2
 67
     7
 79
     5
170
     0
171
     0
290
     0
174
     0
 93
        1
 44
0.0
173
     0
291
     0
 45
0.0
1001
ACAD
1000
AcDbSavedByObjectVersion
1070
     0
  0
VISUALSTYLE
  5
32
102
{ACAD_REACTORS
330
2A
102
}
330
2A
100
AcDbVisualStyle
  2
Basic
 70
     7
 71
     1
 72
     0
 73
     1
 90
        0
 40
-0.6
 41
-30.0
 62
     5
 63
     7
421
 16777215
 74
     0
 91
        4
 64
     7
 65
   257
 75
     1
175
     1
 42
1.0
 92
        8
 66
     7
 43
1.0
 76
     1
 77
     6
 78
     2
 67
     7
 79
     5
170
     0
171
     0
290
     0
174
     0
 93
        1
 44
0.0
173
     0
291
     1
 45
0.0
1001
ACAD
1000
AcDbSavedByObjectVersion
1070
     0
  0
VISUALSTYLE
  5
36
102
{ACAD_REACTORS
330
2A
102
}
330
2A
100
AcDbVisualStyle
  2
Brighten
 70
    12
 71
     2
 72
     2
 73
     0
 90
        0
 40
-0.6
 41
-30.0
 62
     5
 63
     7
421
 16777215
 74
     1
 91
        4
 64
     7
 65
   257
 75
     1
175
     1
 42
1.0
 92
        8
 66
     7
 43
1.0
 76
     1
 77
     6
 78
     2
 67
     7
 79
     5
170
     0
171
     0
290
     0
174
     0
 93
        1
 44
50.0
173
     0
291
     1
 45
0.0
1001
ACAD
1000
AcDbSavedByObjectVersion
1070
     0
  0
VISUALSTYLE
  5
3A
102
{ACAD_REACTORS
330
2A
102
}
330
2A
100
AcDbVisualStyle
  2
ColorChange
 70
    16
 71
     2
 72
     2
 73
     3
 90
        0
 40
-0.6
 41
-30.0
 62
     5
 63
     8
421
  8421504
 74
     1
 91
        4
 64
     7
 65
   257
 75
     1
175
     1
 42
1.0
 92
        8
 66
     8
424
  8421504
 43
1.0
 76
     1
 77
     6
 78
     2
 67
     7
 79
     5
170
     0
171
     0
290
     0
174
     0
 93
        1
 44
0.0
173
     0
291
     1
 45
0.0
1001
ACAD
1000
AcDbSavedByObjectVersion
1070
     0
  0
VISUALSTYLE
  5
34
102
{ACAD_REACTORS
330
2A
102
}
330
2A
100
AcDbVisualStyle
  2
Conceptual
 70
     9
 71
     3
 72
     2
 73
     0
 90
        0
 40
-0.6
 41
-30.0
 62
     5
 63
     7
421
 16777215
 74
     2
 91
        2
 64
     7
 65
   257
 75
     1
175
     1
 42
40.0
 92
        8
 66
     7
 43
1.0
 76
     1
 77
     6
 78
     2
 67
     7
 79
     3
170
     0
171
     0
290
     0
174
     0
 93
        1
 44
0.0
173
     0
291
     0
 45
0.0
1001
ACAD
1000
AcDbSavedByObjectVersion
1070
     0
  0
VISUALSTYLE
  5
35
102
{ACAD_REACTORS
330
2A
102
}
330
2A
100
AcDbVisualStyle
  2
Dim
 70
    11
 71
     2
 72
     2
 73
     0
 90
        0
 40
-0.6
 41
-30.0
 62
     5
 63
     7
421
 16777215
 74
     1
 91
        4
 64
     7
 65
   257
 75
     1
175
     1
 42
1.0
 92
        8
 66
     7
 43
1.0
 76
     1
 77
     6
 78
     2
 67
     7
 79
     5
170
     0
171
     0
290
     0
174
     0
 93
        1
 44
-50.0
173
     0
291
     1
 45
0.0
1001
ACAD
1000
AcDbSavedByObjectVersion
1070
     0
  0
VISUALSTYLE
  5
39
102
{ACAD_REACTORS
330
2A
102
}
330
2A
100
AcDbVisualStyle
  2
Facepattern
 70
    15
 71
     2
 72
     2
 73
     0
 90
        0
 40
-0.6
 41
-30.0
 62
     5
 63
     7
421
 16777215
 74
     1
 91
        4
 64
     7
 65
   257
 75
     1
175
     1
 42
1.0
 92
        8
 66
     7
 43
1.0
 76
     1
 77
     6
 78
     2
 67
     7
 79
     5
170
     0
171
     0
290
     0
174
     0
 93
        1
 44
0.0
173
     0
291
     1
 45
0.0
1001
ACAD
1000
AcDbSavedByObjectVersion
1070
     0
  0
VISUALSTYLE
  5
2B
102
{ACAD_REACTORS
330
2A
102
}
330
2A
100
AcDbVisualStyle
  2
Flat
 70
     0
 71
     2
 72
     1
 73
     1
 90
        2
 40
-0.6
 41
30.0
 62
     5
 63
     7
421
 16777215
 74
     0
 91
        4
 64
     7
 65
   257
 75
     1
175
     1
 42
1.0
 92
        8
 66
     7
 43
1.0
 76
     1
 77
     6
 78
     2
 67
     7
 79
     5
170
     0
171
     0
290
     0
174
     0
 93
       13
 44
0.0
173
     0
291
     1
 45
0.0
1001
ACAD
1000
AcDbSavedByObjectVersion
1070
     0
  0
VISUALSTYLE
  5
2C
102
{ACAD_REACTORS
330
2A
102
}
330
2A
100
AcDbVisualStyle
  2
FlatWithEdges
 70
     1
 71
     2
 72
     1
 73
     1
 90
        2
 40
-0.6
 41
30.0
 62
     5
 63
     7
421
 16777215
 74
     1
 91
        4
 64
     7
 65
   257
 75
     1
175
     1
 42
1.0
 92
        0
 66
   257
 43
1.0
 76
     1
 77
     6
 78
     2
 67
     7
 79
     5
170
     0
171
     0
290
     0
174
     0
 93
       13
 44
0.0
173
     0
291
     1
 45
0.0
1001
ACAD
1000
AcDbSavedByObjectVersion
1070
     0
  0
VISUALSTYLE
  5
2D
102
{ACAD_REACTORS
330
2A
102
}
330
2A
100
AcDbVisualStyle
  2
Gouraud
 70
     2
 71
     2
 72
     2
 73
     1
 90
        2
 40
-0.6
 41
30.0
 62
     5
 63
     7
421
 16777215
 74
     0
 91
        4
 64
     7
 65
   257
 75
     1
175
     1
 42
1.0
 92
        0
 66
     7
 43
1.0
 76
     1
 77
     6
 78
     2
 67
     7
 79
     5
170
     0
171
     0
290
     0
174
     0
 93
       13
 44
0.0
173
     0
291
     1
 45
0.0
1001
ACAD
1000
AcDbSavedByObjectVersion
1070
     0
  0
VISUALSTYLE
  5
2E
102
{ACAD_REACTORS
330
2A
102
}
330
2A
100
AcDbVisualStyle
  2
GouraudWithEdges
 70
     3
 71
     2
 72
     2
 73
     1
 90
        2
 40
-0.6
 41
30.0
 62
     5
 63
     7
421
 16777215
 74
     1
 91
        4
 64
     7
 65
   257
 75
     1
175
     1
 42
1.0
 92
        0
 66
   257
 43
1.0
 76
     1
 77
     6
 78
     2
 67
     7
 79
     5
170
     0
171
     0
290
     0
174
     0
 93
       13
 44
0.0
173
     0
291
     1
 45
0.0
1001
ACAD
1000
AcDbSavedByObjectVersion
1070
     0
  0
VISUALSTYLE
  5
38
102
{ACAD_REACTORS
330
2A
102
}
330
2A
100
AcDbVisualStyle
  2
Linepattern
 70
    14
 71
     2
 72
     2
 73
     0
 90
        0
 40
-0.6
 41
-30.0
 62
     5
 63
     7
421
 16777215
 74
     1
 91
        4
 64
     7
 65
   257
 75
     7
175
     7
 42
1.0
 92
        8
 66
     7
 43
1.0
 76
     1
 77
     6
 78
     2
 67
     7
 79
     5
170
     0
171
     0
290
     0
174
     0
 93
        1
 44
0.0
173
     0
291
     1
 45
0.0
1001
ACAD
1000
AcDbSavedByObjectVersion
1070
     0
  0
VISUALSTYLE
  5
33
102
{ACAD_REACTORS
330
2A
102
}
330
2A
100
AcDbVisualStyle
  2
Realistic
 70
     8
 71
     2
 72
     2
 73
     0
 90
        0
 40
-0.6
 41
-30.0
 62
     5
 63
     7
421
 16777215
 74
     1
 91
        0
 64
     7
 65
   257
 75
     1
175
     1
 42
1.0
 92
        8
 66
     8
424
  7895160
 43
1.0
 76
     1
 77
     6
 78
     2
 67
     7
 79
     5
170
     0
171
     0
290
     0
174
     0
 93
       13
 44
0.0
173
     0
291
     0
 45
0.0
1001
ACAD
1000
AcDbSavedByObjectVersion
1070
     0
  0
VISUALSTYLE
  5
37
102
{ACAD_REACTORS
330
2A
102
}
330
2A
100
AcDbVisualStyle
  2
Thicken
 70
    13
 71
     2
 72
     2
 73
     0
 90
        0
 40
-0.6
 41
-30.0
 62
     5
 63
     7
421
 16777215
 74
     1
 91
        4
 64
     7
 65
   257
 75
     1
175
     1
 42
1.0
 92
       12
 66
     7
 43
1.0
 76
     1
 77
     6
 78
     2
 67
     7
 79
     5
170
     0
171
     0
290
     0
174
     0
 93
        1
 44
0.0
173
     0
291
     1
 45
0.0
1001
ACAD
1000
AcDbSavedByObjectVersion
1070
     0
  0
ENDSEC
  0
EOF
