  0
SECTION
  2
HEADER
  9
$ACADVER
  1
AC1024
  9
$ACADMAINTVER
 70
     6
  9
$DWGCODEPAGE
  3
ANSI_1252
  9
$INSBASE
 10
0.0
 20
0.0
 30
0.0
  9
$EXTMIN
 10
-140.65
 20
-97.11000000000001
 30
0.0
  9
$EXTMAX
 10
141.4571075439453
 20
97.11000000000001
 30
0.0
  9
$LIMMIN
 10
0.0
 20
0.0
  9
$LIMMAX
 10
420.0
 20
297.0
  9
$ORTHOMODE
 70
     0
  9
$REGENMODE
 70
     1
  9
$FILLMODE
 70
     1
  9
$QTEXTMODE
 70
     0
  9
$MIRRTEXT
 70
     1
  9
$LTSCALE
 40
1.0
  9
$ATTMODE
 70
     1
  9
$TEXTSIZE
 40
1.0
  9
$TRACEWID
 40
1.0
  9
$TEXTSTYLE
  7
Standard
  9
$CLAYER
  8
0
  9
$CELTYPE
  6
ByLayer
  9
$CECOLOR
 62
   256
  9
$CELTSCALE
 40
1.0
  9
$DISPSILH
 70
     0
  9
$DIMSCALE
 40
1.0
  9
$DIMASZ
 40
2.5
  9
$DIMEXO
 40
0.625
  9
$DIMDLI
 40
3.75
  9
$DIMRND
 40
0.0
  9
$DIMDLE
 40
0.0
  9
$DIMEXE
 40
1.25
  9
$DIMTP
 40
0.0
  9
$DIMTM
 40
0.0
  9
$DIMTXT
 40
2.5
  9
$DIMCEN
 40
2.5
  9
$DIMTSZ
 40
0.0
  9
$DIMTOL
 70
     0
  9
$DIMLIM
 70
     0
  9
$DIMTIH
 70
     0
  9
$DIMTOH
 70
     0
  9
$DIMSE1
 70
     0
  9
$DIMSE2
 70
     0
  9
$DIMTAD
 70
     1
  9
$DIMZIN
 70
     8
  9
$DIMBLK
  1

  9
$DIMASO
 70
     1
  9
$DIMSHO
 70
     1
  9
$DIMPOST
  1

  9
$DIMAPOST
  1

  9
$DIMALT
 70
     0
  9
$DIMALTD
 70
     3
  9
$DIMALTF
 40
0.03937007874016
  9
$DIMLFAC
 40
1.0
  9
$DIMTOFL
 70
     1
  9
$DIMTVP
 40
0.0
  9
$DIMTIX
 70
     0
  9
$DIMSOXD
 70
     0
  9
$DIMSAH
 70
     0
  9
$DIMBLK1
  1

  9
$DIMBLK2
  1

  9
$DIMSTYLE
  2
ISO-25
  9
$DIMCLRD
 70
     0
  9
$DIMCLRE
 70
     0
  9
$DIMCLRT
 70
     0
  9
$DIMTFAC
 40
1.0
  9
$DIMGAP
 40
0.625
  9
$DIMJUST
 70
     0
  9
$DIMSD1
 70
     0
  9
$DIMSD2
 70
     0
  9
$DIMTOLJ
 70
     0
  9
$DIMTZIN
 70
     8
  9
$DIMALTZ
 70
     0
  9
$DIMALTTZ
 70
     0
  9
$DIMUPT
 70
     0
  9
$DIMDEC
 70
     2
  9
$DIMTDEC
 70
     2
  9
$DIMALTU
 70
     2
  9
$DIMALTTD
 70
     3
  9
$DIMTXSTY
  7
Standard
  9
$DIMAUNIT
 70
     0
  9
$DIMADEC
 70
     0
  9
$DIMALTRND
 40
0.0
  9
$DIMAZIN
 70
     0
  9
$DIMDSEP
 70
    44
  9
$DIMATFIT
 70
     3
  9
$DIMFRAC
 70
     0
  9
$DIMLDRBLK
  1

  9
$DIMLUNIT
 70
     2
  9
$DIMLWD
 70
    -2
  9
$DIMLWE
 70
    -2
  9
$DIMTMOVE
 70
     0
  9
$DIMFXL
 40
1.0
  9
$DIMFXLON
 70
     0
  9
$DIMJOGANG
 40
0.7853981633974483
  9
$DIMTFILL
 70
     0
  9
$DIMTFILLCLR
 70
     0
  9
$DIMARCSYM
 70
     0
  9
$DIMLTYPE
  6

  9
$DIMLTEX1
  6

  9
$DIMLTEX2
  6

  9
$DIMTXTDIRECTION
 70
     0
  9
$LUNITS
 70
     2
  9
$LUPREC
 70
     4
  9
$SKETCHINC
 40
1.0
  9
$FILLETRAD
 40
10.0
  9
$AUNITS
 70
     0
  9
$AUPREC
 70
     0
  9
$MENU
  1
.
  9
$ELEVATION
 40
0.0
  9
$PELEVATION
 40
0.0
  9
$THICKNESS
 40
0.0
  9
$LIMCHECK
 70
     0
  9
$CHAMFERA
 40
0.0
  9
$CHAMFERB
 40
0.0
  9
$CHAMFERC
 40
0.0
  9
$CHAMFERD
 40
0.0
  9
$SKPOLY
 70
     0
  9
$TDCREATE
 40
2458726.430215313
  9
$TDUCREATE
 40
2458726.388548646
  9
$TDUPDATE
 40
2458726.430216759
  9
$TDUUPDATE
 40
2458726.388550092
  9
$TDINDWG
 40
0.0000000116
  9
$TDUSRTIMER
 40
0.0000000116
  9
$USRTIMER
 70
     1
  9
$ANGBASE
 50
0.0
  9
$ANGDIR
 70
     0
  9
$PDMODE
 70
     0
  9
$PDSIZE
 40
0.0
  9
$PLINEWID
 40
0.0
  9
$SPLFRAME
 70
     0
  9
$SPLINETYPE
 70
     6
  9
$SPLINESEGS
 70
     8
  9
$HANDSEED
  5
3F2
  9
$SURFTAB1
 70
     6
  9
$SURFTAB2
 70
     6
  9
$SURFTYPE
 70
     6
  9
$SURFU
 70
     6
  9
$SURFV
 70
     6
  9
$UCSBASE
  2

  9
$UCSNAME
  2

  9
$UCSORG
 10
0.0
 20
0.0
 30
0.0
  9
$UCSXDIR
 10
1.0
 20
0.0
 30
0.0
  9
$UCSYDIR
 10
0.0
 20
1.0
 30
0.0
  9
$UCSORTHOREF
  2

  9
$UCSORTHOVIEW
 70
     0
  9
$UCSORGTOP
 10
0.0
 20
0.0
 30
0.0
  9
$UCSORGBOTTOM
 10
0.0
 20
0.0
 30
0.0
  9
$UCSORGLEFT
 10
0.0
 20
0.0
 30
0.0
  9
$UCSORGRIGHT
 10
0.0
 20
0.0
 30
0.0
  9
$UCSORGFRONT
 10
0.0
 20
0.0
 30
0.0
  9
$UCSORGBACK
 10
0.0
 20
0.0
 30
0.0
  9
$PUCSBASE
  2

  9
$PUCSNAME
  2

  9
$PUCSORG
 10
0.0
 20
0.0
 30
0.0
  9
$PUCSXDIR
 10
1.0
 20
0.0
 30
0.0
  9
$PUCSYDIR
 10
0.0
 20
1.0
 30
0.0
  9
$PUCSORTHOREF
  2

  9
$PUCSORTHOVIEW
 70
     0
  9
$PUCSORGTOP
 10
0.0
 20
0.0
 30
0.0
  9
$PUCSORGBOTTOM
 10
0.0
 20
0.0
 30
0.0
  9
$PUCSORGLEFT
 10
0.0
 20
0.0
 30
0.0
  9
$PUCSORGRIGHT
 10
0.0
 20
0.0
 30
0.0
  9
$PUCSORGFRONT
 10
0.0
 20
0.0
 30
0.0
  9
$PUCSORGBACK
 10
0.0
 20
0.0
 30
0.0
  9
$USERI1
 70
     0
  9
$USERI2
 70
     0
  9
$USERI3
 70
     0
  9
$USERI4
 70
     0
  9
$USERI5
 70
     0
  9
$USERR1
 40
0.0
  9
$USERR2
 40
0.0
  9
$USERR3
 40
0.0
  9
$USERR4
 40
0.0
  9
$USERR5
 40
0.0
  9
$WORLDVIEW
 70
     1
  9
$SHADEDGE
 70
     3
  9
$SHADEDIF
 70
    70
  9
$TILEMODE
 70
     1
  9
$MAXACTVP
 70
    64
  9
$PINSBASE
 10
0.0
 20
0.0
 30
0.0
  9
$PLIMCHECK
 70
     0
  9
$PEXTMIN
 10
1.000000000000000E+20
 20
1.000000000000000E+20
 30
1.000000000000000E+20
  9
$PEXTMAX
 10
-1.000000000000000E+20
 20
-1.000000000000000E+20
 30
-1.000000000000000E+20
  9
$PLIMMIN
 10
0.0
 20
0.0
  9
$PLIMMAX
 10
420.0
 20
297.0
  9
$UNITMODE
 70
     0
  9
$VISRETAIN
 70
     1
  9
$PLINEGEN
 70
     0
  9
$PSLTSCALE
 70
     1
  9
$TREEDEPTH
 70
  3020
  9
$CMLSTYLE
  2
Standard
  9
$CMLJUST
 70
     0
  9
$CMLSCALE
 40
20.0
  9
$PROXYGRAPHICS
 70
     1
  9
$MEASUREMENT
 70
     1
  9
$CELWEIGHT
370
    -1
  9
$ENDCAPS
280
     0
  9
$JOINSTYLE
280
     0
  9
$LWDISPLAY
290
     0
  9
$INSUNITS
 70
     4
  9
$HYPERLINKBASE
  1

  9
$STYLESHEET
  1

  9
$XEDIT
290
     1
  9
$CEPSNTYPE
380
     0
  9
$PSTYLEMODE
290
     1
  9
$FINGERPRINTGUID
  2
{BEA56490-4060-4B46-B092-59F0CC71B0FB}
  9
$VERSIONGUID
  2
{FAEB1C32-E019-11D5-929B-00C0DF256EC4}
  9
$EXTNAMES
290
     1
  9
$PSVPSCALE
 40
0.0
  9
$OLESTARTUP
290
     0
  9
$SORTENTS
280
   127
  9
$INDEXCTL
280
     0
  9
$HIDETEXT
280
     1
  9
$XCLIPFRAME
280
     2
  9
$HALOGAP
280
     0
  9
$OBSCOLOR
 70
   257
  9
$OBSLTYPE
280
     0
  9
$INTERSECTIONDISPLAY
280
     0
  9
$INTERSECTIONCOLOR
 70
   257
  9
$DIMASSOC
280
     2
  9
$PROJECTNAME
  1

  9
$CAMERADISPLAY
290
     0
  9
$LENSLENGTH
 40
50.0
  9
$CAMERAHEIGHT
 40
0.0
  9
$STEPSPERSEC
 40
2.0
  9
$STEPSIZE
 40
6.0
  9
$3DDWFPREC
 40
2.0
  9
$PSOLWIDTH
 40
5.0
  9
$PSOLHEIGHT
 40
80.0
  9
$LOFTANG1
 40
1.570796326794897
  9
$LOFTANG2
 40
1.570796326794897
  9
$LOFTMAG1
 40
0.0
  9
$LOFTMAG2
 40
0.0
  9
$LOFTPARAM
 70
     7
  9
$LOFTNORMALS
280
     1
  9
$LATITUDE
 40
37.795
  9
$LONGITUDE
 40
-122.394
  9
$NORTHDIRECTION
 40
0.0
  9
$TIMEZONE
 70
 -8000
  9
$LIGHTGLYPHDISPLAY
280
     1
  9
$TILEMODELIGHTSYNCH
280
     1
  9
$CMATERIAL
347
44
  9
$SOLIDHIST
280
     1
  9
$SHOWHIST
280
     1
  9
$DWFFRAME
280
     2
  9
$DGNFRAME
280
     2
  9
$REALWORLDSCALE
290
     1
  9
$INTERFERECOLOR
 62
   256
  9
$CSHADOW
280
     0
  9
$SHADOWPLANELOCATION
 40
0.0
  0
ENDSEC
  0
SECTION
  2
CLASSES
  0
CLASS
  1
ACDBDICTIONARYWDFLT
  2
AcDbDictionaryWithDefault
  3
ObjectDBX Classes
 90
        0
 91
        4
280
     0
281
     0
  0
CLASS
  1
VISUALSTYLE
  2
AcDbVisualStyle
  3
ObjectDBX Classes
 90
     4095
 91
        4
280
     0
281
     0
  0
CLASS
  1
MATERIAL
  2
AcDbMaterial
  3
ObjectDBX Classes
 90
     1153
 91
        4
280
     0
281
     0
  0
CLASS
  1
SCALE
  2
AcDbScale
  3
ObjectDBX Classes
 90
     1153
 91
        4
280
     0
281
     0
  0
CLASS
  1
SUN
  2
AcDbSun
  3
SCENEOE
 90
     1153
 91
        4
280
     0
281
     0
  0
CLASS
  1
DICTIONARYVAR
  2
AcDbDictionaryVar
  3
ObjectDBX Classes
 90
        0
 91
        4
280
     0
281
     0
  0
ENDSEC
  0
SECTION
  2
TABLES
  0
TABLE
  2
VPORT
  5
8
330
0
100
AcDbSymbolTable
 70
     1
  0
VPORT
  5
29
330
8
100
AcDbSymbolTableRecord
100
AcDbViewportTableRecord
  2
*Active
 70
     0
 10
0.0
 20
0.0
 11
1.0
 21
1.0
 12
344.1869158878504
 22
148.5
 13
0.0
 23
0.0
 14
10.0
 24
10.0
 15
10.0
 25
10.0
 16
0.0
 26
0.0
 36
1.0
 17
0.0
 27
0.0
 37
0.0
 40
297.0
 41
1.972972972850329
 42
50.0
 43
0.0
 44
0.0
 50
0.0
 51
0.0
 71
     0
 72
   100
 73
     1
 74
     3
 75
     0
 76
     0
 77
     0
 78
     0
281
     0
 65
     1
110
0.0
120
0.0
130
0.0
111
1.0
121
0.0
131
0.0
112
0.0
122
1.0
132
0.0
 79
     0
146
0.0
 60
     3
 61
     5
292
     1
282
     1
141
0.0
142
0.0
 63
   250
361
69
  0
ENDTAB
  0
TABLE
  2
LTYPE
  5
5
330
0
100
AcDbSymbolTable
 70
     9
  0
LTYPE
  5
14
330
5
100
AcDbSymbolTableRecord
100
AcDbLinetypeTableRecord
  2
ByBlock
 70
     0
  3

 72
    65
 73
     0
 40
0.0
  0
LTYPE
  5
15
330
5
100
AcDbSymbolTableRecord
100
AcDbLinetypeTableRecord
  2
ByLayer
 70
     0
  3

 72
    65
 73
     0
 40
0.0
  0
LTYPE
  5
16
330
5
100
AcDbSymbolTableRecord
100
AcDbLinetypeTableRecord
  2
Continuous
 70
     0
  3
Solid line
 72
    65
 73
     0
 40
0.0
  0
LTYPE
  5
6A
330
5
100
AcDbSymbolTableRecord
100
AcDbLinetypeTableRecord
  2
DOT
 70
     0
  3
____    ____    
 72
    65
 73
     4
 40
16.0
 49
4.0
 74
     0
 49
-4.0
 74
     0
 49
4.0
 74
     0
 49
-4.0
 74
     0
  0
LTYPE
  5
6B
330
5
100
AcDbSymbolTableRecord
100
AcDbLinetypeTableRecord
  2
HIDDEN
 70
     0
  3
__  __  __  __  
 72
    65
 73
     8
 40
16.0
 49
2.0
 74
     0
 49
-2.0
 74
     0
 49
2.0
 74
     0
 49
-2.0
 74
     0
 49
2.0
 74
     0
 49
-2.0
 74
     0
 49
2.0
 74
     0
 49
-2.0
 74
     0
  0
LTYPE
  5
6C
330
5
100
AcDbSymbolTableRecord
100
AcDbLinetypeTableRecord
  2
DASHED
 70
     0
  3
________        
 72
    65
 73
     2
 40
16.0
 49
8.0
 74
     0
 49
-8.0
 74
     0
  0
LTYPE
  5
6D
330
5
100
AcDbSymbolTableRecord
100
AcDbLinetypeTableRecord
  2
DASHDOT
 70
     0
  3
____________    
 72
    65
 73
     2
 40
16.0
 49
12.0
 74
     0
 49
-4.0
 74
     0
  0
LTYPE
  5
6E
330
5
100
AcDbSymbolTableRecord
100
AcDbLinetypeTableRecord
  2
BORDER
 70
     0
  3
_____________ _ 
 72
    65
 73
     4
 40
16.0
 49
13.0
 74
     0
 49
-1.0
 74
     0
 49
1.0
 74
     0
 49
-1.0
 74
     0
  0
LTYPE
  5
6F
330
5
100
AcDbSymbolTableRecord
100
AcDbLinetypeTableRecord
  2
CENTER
 70
     0
  3
_________  ___  
 72
    65
 73
     4
 40
16.0
 49
9.0
 74
     0
 49
-2.0
 74
     0
 49
3.0
 74
     0
 49
-2.0
 74
     0
  0
LTYPE
  5
70
330
5
100
AcDbSymbolTableRecord
100
AcDbLinetypeTableRecord
  2
PHANTOM
 70
     0
  3
_______   ___   
 72
    65
 73
     4
 40
16.0
 49
7.0
 74
     0
 49
-3.0
 74
     0
 49
3.0
 74
     0
 49
-3.0
 74
     0
  0
LTYPE
  5
71
330
5
100
AcDbSymbolTableRecord
100
AcDbLinetypeTableRecord
  2
DIVIDE
 70
     0
  3
_______  __ __  
 72
    65
 73
     6
 40
16.0
 49
7.0
 74
     0
 49
-2.0
 74
     0
 49
2.0
 74
     0
 49
-1.0
 74
     0
 49
2.0
 74
     0
 49
-2.0
 74
     0
  0
ENDTAB
  0
TABLE
  2
LAYER
  5
2
330
0
100
AcDbSymbolTable
 70
     3
  0
LAYER
  5
10
330
2
100
AcDbSymbolTableRecord
100
AcDbLayerTableRecord
  2
0
 70
     0
 62
     7
  6
Continuous
370
    -3
390
F
347
46
  0
LAYER
  5
73
330
2
100
AcDbSymbolTableRecord
100
AcDbLayerTableRecord
  2
1
 70
     0
 62
     7
420
 16777215
  6
Continuous
370
    -3
390
F
347
46
  0
LAYER
  5
338
330
2
100
AcDbSymbolTableRecord
100
AcDbLayerTableRecord
  2
SYSTEM_ASSIGNED_LAYER
 70
     0
 62
     7
420
 16777215
  6
Continuous
370
    -3
390
F
347
46
  0
ENDTAB
  0
TABLE
  2
STYLE
  5
3
330
0
100
AcDbSymbolTable
 70
     2
  0
STYLE
  5
11
330
3
100
AcDbSymbolTableRecord
100
AcDbTextStyleTableRecord
  2
Standard
 70
     0
 40
0.0
 41
1.0
 50
0.0
 71
     0
 42
1.0
  3
txt
  4

  0
STYLE
  5
72
330
3
100
AcDbSymbolTableRecord
100
AcDbTextStyleTableRecord
  2
ARIAL
 70
     0
 40
0.2
 41
1.0
 50
0.0
 71
     0
 42
1.0
  3
ARIAL.TTF
  4

  0
ENDTAB
  0
TABLE
  2
VIEW
  5
6
330
0
100
AcDbSymbolTable
 70
     0
  0
ENDTAB
  0
TABLE
  2
UCS
  5
7
330
0
100
AcDbSymbolTable
 70
     0
  0
ENDTAB
  0
TABLE
  2
APPID
  5
9
330
0
100
AcDbSymbolTable
 70
     1
  0
APPID
  5
12
330
9
100
AcDbSymbolTableRecord
100
AcDbRegAppTableRecord
  2
ACAD
 70
     0
  0
ENDTAB
  0
TABLE
  2
DIMSTYLE
  5
A
330
0
100
AcDbSymbolTable
 70
     1
100
AcDbDimStyleTable
  0
DIMSTYLE
105
27
330
A
100
AcDbSymbolTableRecord
100
AcDbDimStyleTableRecord
  2
ISO-25
 70
     0
 41
2.5
 42
0.625
 43
3.75
 44
1.25
 73
     0
 74
     0
 77
     1
 78
     8
140
2.5
141
2.5
143
0.03937007874016
147
0.625
171
     3
172
     1
178
     0
271
     2
272
     2
274
     3
278
    44
283
     0
284
     8
340
11
  0
ENDTAB
  0
TABLE
  2
BLOCK_RECORD
  5
1
330
0
100
AcDbSymbolTable
 70
    10
  0
BLOCK_RECORD
  5
1F
330
1
100
AcDbSymbolTableRecord
100
AcDbBlockTableRecord
  2
*Model_Space
340
22
 70
     0
280
     1
281
     0
  0
BLOCK_RECORD
  5
1B
330
1
100
AcDbSymbolTableRecord
100
AcDbBlockTableRecord
  2
*Paper_Space
340
1E
 70
     0
280
     1
281
     0
  0
BLOCK_RECORD
  5
23
330
1
100
AcDbSymbolTableRecord
100
AcDbBlockTableRecord
  2
*Paper_Space0
340
26
 70
     0
280
     1
281
     0
  0
BLOCK_RECORD
  5
74
330
1
100
AcDbSymbolTableRecord
100
AcDbBlockTableRecord
  2
GEN_BLOCK
340
0
102
{BLKREFS
331
77
102
}
 70
     0
280
     1
281
     0
  0
BLOCK_RECORD
  5
79
330
1
100
AcDbSymbolTableRecord
100
AcDbBlockTableRecord
  2
GEN_BLOCK00000
340
0
102
{BLKREFS
331
7C
102
}
 70
     0
280
     1
281
     0
  0
BLOCK_RECORD
  5
27B
330
1
100
AcDbSymbolTableRecord
100
AcDbBlockTableRecord
  2
PROTO
340
0
102
{BLKREFS
331
27F
102
}
 70
     0
280
     1
281
     0
  0
BLOCK_RECORD
  5
2DB
330
1
100
AcDbSymbolTableRecord
100
AcDbBlockTableRecord
  2
_RASTER_[X__IMAGES_LOGO_JPG]
340
0
102
{BLKREFS
331
2E0
102
}
 70
     0
280
     1
281
     0
  0
BLOCK_RECORD
  5
2E4
330
1
100
AcDbSymbolTableRecord
100
AcDbBlockTableRecord
  2
GEN_BLOCK00001
340
0
102
{BLKREFS
331
2E7
102
}
 70
     0
280
     1
281
     0
  0
BLOCK_RECORD
  5
2F4
330
1
100
AcDbSymbolTableRecord
100
AcDbBlockTableRecord
  2
GEN_BLOCK00002
340
0
102
{BLKREFS
331
2F7
102
}
 70
     0
280
     1
281
     0
  0
BLOCK_RECORD
  5
301
330
1
100
AcDbSymbolTableRecord
100
AcDbBlockTableRecord
  2
GEN_BLOCK00003
340
0
102
{BLKREFS
331
304
102
}
 70
     0
280
     1
281
     0
  0
BLOCK_RECORD
  5
339
330
1
100
AcDbSymbolTableRecord
100
AcDbBlockTableRecord
  2
GEN_BLOCK00004
340
0
102
{BLKREFS
331
33C
102
}
 70
     0
280
     1
281
     0
  0
BLOCK_RECORD
  5
342
330
1
100
AcDbSymbolTableRecord
100
AcDbBlockTableRecord
  2
GEN_BLOCK00005
340
0
102
{BLKREFS
331
345
102
}
 70
     0
280
     1
281
     0
  0
ENDTAB
  0
ENDSEC
  0
SECTION
  2
BLOCKS
  0
BLOCK
  5
20
330
1F
100
AcDbEntity
  8
0
100
AcDbBlockBegin
  2
*Model_Space
 70
     0
 10
0.0
 20
0.0
 30
0.0
  3
*Model_Space
  1
*Model_Space
  0
ENDBLK
  5
21
330
1F
100
AcDbEntity
  8
0
100
AcDbBlockEnd
  0
BLOCK
  5
1C
330
1B
100
AcDbEntity
 67
     1
  8
0
100
AcDbBlockBegin
  2
*Paper_Space
 70
     0
 10
0.0
 20
0.0
 30
0.0
  3
*Paper_Space
  1
*Paper_Space
  0
ENDBLK
  5
1D
330
1B
100
AcDbEntity
 67
     1
  8
0
100
AcDbBlockEnd
  0
BLOCK
  5
24
330
23
100
AcDbEntity
  8
0
100
AcDbBlockBegin
  2
*Paper_Space0
 70
     0
 10
0.0
 20
0.0
 30
0.0
  3
*Paper_Space0
  1
*Paper_Space0
  0
ENDBLK
  5
25
330
23
100
AcDbEntity
  8
0
100
AcDbBlockEnd
  0
BLOCK
  5
75
330
74
100
AcDbEntity
  8
0
100
AcDbBlockBegin
  2
GEN_BLOCK
 70
     0
 10
0.0
 20
0.0
 30
0.0
  3
GEN_BLOCK
  1
GEN_BLOCK
  0
TEXT
  5
78
330
74
100
AcDbEntity
  8
1
 62
    15
100
AcDbText
 10
0.9331436157226562
 20
1.098125696182251
 30
0.0
 40
2.509999990463257
  1
Optional ramp
100
AcDbText
  0
ENDBLK
  5
76
330
74
100
AcDbEntity
  8
0
100
AcDbBlockEnd
  0
BLOCK
  5
7A
330
79
100
AcDbEntity
  8
0
100
AcDbBlockBegin
  2
GEN_BLOCK00000
 70
     0
 10
0.0
 20
0.0
 30
0.0
  3
GEN_BLOCK00000
  1
GEN_BLOCK00000
  0
LINE
  5
7D
330
79
100
AcDbEntity
  8
1
  6
Continuous
 62
    10
100
AcDbLine
 10
1.5000001153292
 20
6.028918693212702
 30
0.0
 11
1.500000378861643
 21
-0.0000004738221193
 31
0.0
  0
LINE
  5
7E
330
79
100
AcDbEntity
  8
1
  6
Continuous
 62
    10
100
AcDbLine
 10
1.5000001153292
 20
6.028918693212702
 30
0.0
 11
1.499999851796765
 21
12.05783786024752
 31
0.0
  0
LINE
  5
7F
330
79
100
AcDbEntity
  8
1
  6
Continuous
 62
    10
100
AcDbLine
 10
1.750000335150254
 20
0.9999995371057295
 30
0.0
 11
1.500000378861643
 21
-0.0000004738221193
 31
0.0
  0
LINE
  5
80
330
79
100
AcDbEntity
  8
1
  6
Continuous
 62
    10
100
AcDbLine
 10
1.500000378861643
 20
-0.0000004738221193
 30
0.0
 11
1.250000335150254
 21
0.9999995152500318
 31
0.0
  0
LINE
  5
81
330
79
100
AcDbEntity
  8
1
  6
Continuous
 62
    10
100
AcDbLine
 10
1.249999895508154
 20
11.05783784931967
 30
0.0
 11
1.499999851796765
 21
12.05783786024752
 31
0.0
  0
LINE
  5
82
330
79
100
AcDbEntity
  8
1
  6
Continuous
 62
    10
100
AcDbLine
 10
1.499999851796765
 20
12.05783786024752
 30
0.0
 11
1.749999895508154
 21
11.05783787117537
 31
0.0
  0
LINE
  5
83
330
79
100
AcDbEntity
  8
1
  6
Continuous
 62
    10
100
AcDbLine
 10
11.33978652954102
 20
-0.0000000437113883
 30
0.0
 11
1.000000378861643
 21
-0.000000495677817
 31
0.0
  0
LINE
  5
84
330
79
100
AcDbEntity
  8
1
  6
Continuous
 62
    10
100
AcDbLine
 10
57.39689826965331
 20
12.05784030357864
 30
0.0
 11
0.9999998517967654
 21
12.05783783839182
 31
0.0
  0
TEXT
  5
85
330
79
100
AcDbEntity
  8
1
  6
Continuous
 62
     1
100
AcDbText
 10
0.9999875761127441
 20
3.926392465839861
 30
0.0
 40
1.0
  1
12.1
 50
89.71352388012032
100
AcDbText
  0
LINE
  5
86
330
79
100
AcDbEntity
  8
1
  6
Continuous
 62
     1
100
AcDbLine
 10
58.39689821814333
 20
12.05783986024898
 30
0.0
 11
53.89987383322232
 21
11.9298806766067
 31
0.0
  0
LINE
  5
87
330
79
100
AcDbEntity
  8
1
  6
Continuous
 62
     1
100
AcDbLine
 10
53.3982111595502
 20
11.91560627186877
 30
0.0
 11
48.89959144255015
 21
11.78760169434534
 31
0.0
  0
LINE
  5
88
330
79
100
AcDbEntity
  8
1
  6
Continuous
 62
     1
100
AcDbLine
 10
48.76172535738023
 20
4.047074000594037
 30
0.0
 11
48.86305908083692
 21
0.4857803722001393
 31
0.0
  0
LINE
  5
89
330
79
100
AcDbEntity
  8
1
  6
Continuous
 62
     1
100
AcDbLine
 10
50.85933206930103
 20
0.6452116795537961
 30
0.0
 11
50.86305924458394
 21
0.5142230497651212
 31
0.0
  0
LINE
  5
8A
330
79
100
AcDbEntity
  8
1
  6
Continuous
 62
     1
100
AcDbLine
 10
50.36326153198091
 20
0.0000017109826729
 30
0.0
 11
49.36285679343995
 21
0.0000017109827297
 31
0.0
  0
LINE
  5
8B
330
79
100
AcDbEntity
  8
1
  6
Continuous
 62
     1
100
AcDbLine
 10
81.83978754875208
 20
17.35243077904325
 30
0.0
 11
81.83978801405065
 21
8.374308774360344
 31
0.0
  0
LINE
  5
8C
330
79
100
AcDbEntity
  8
1
  6
Continuous
 62
     1
100
AcDbLine
 10
80.33978754875208
 20
17.75243077904323
 30
0.0
 11
80.33978801405065
 21
8.519979055234842
 31
0.0
  0
ARC
  5
8D
330
79
100
AcDbEntity
  8
1
  6
Continuous
 62
     1
100
AcDbCircle
 10
80.33978754875208
 20
17.75243077904323
 30
0.0
 40
5.0
100
AcDbArc
 50
0.0
 51
79.9317581725583
  0
ARC
  5
8E
330
79
100
AcDbEntity
  8
1
  6
Continuous
 62
     1
100
AcDbCircle
 10
80.33978754875208
 20
17.75243077904323
 30
0.0
 40
5.0
100
AcDbArc
 50
0.0
 51
79.9317581725583
  0
ARC
  5
8F
330
79
100
AcDbEntity
  8
1
  6
Continuous
 62
     1
100
AcDbCircle
 10
46.80219553418285
 20
-148.9078863277716
 30
0.0
 40
175.0
100
AcDbArc
 50
78.65955739161058
 51
79.04304427267209
  0
ARC
  5
90
330
79
100
AcDbEntity
  8
1
  6
Continuous
 62
     1
100
AcDbCircle
 10
46.80219553418285
 20
-148.9078863277716
 30
0.0
 40
175.0
100
AcDbArc
 50
78.65955739161058
 51
79.04304427267209
  0
ARC
  5
91
330
79
100
AcDbEntity
  8
1
  6
Continuous
 62
     1
100
AcDbCircle
 10
46.80219553418285
 20
-148.9078863277716
 30
0.0
 40
175.0
100
AcDbArc
 50
79.32638260740212
 51
80.70529758199504
  0
ARC
  5
92
330
79
100
AcDbEntity
  8
1
  6
Continuous
 62
     1
100
AcDbCircle
 10
46.80219553418285
 20
-148.9078863277716
 30
0.0
 40
175.0
100
AcDbArc
 50
79.32638260740212
 51
80.70529758199504
  0
ARC
  5
93
330
79
100
AcDbEntity
  8
1
  6
Continuous
 62
     1
100
AcDbCircle
 10
46.80219553418285
 20
-148.9078863277716
 30
0.0
 40
175.0
100
AcDbArc
 50
80.9886359167086
 51
82.3598140973495
  0
ARC
  5
94
330
79
100
AcDbEntity
  8
1
  6
Continuous
 62
     1
100
AcDbCircle
 10
46.80219553418285
 20
-148.9078863277716
 30
0.0
 40
175.0
100
AcDbArc
 50
80.9886359167086
 51
82.3598140973495
  0
ARC
  5
95
330
79
100
AcDbEntity
  8
1
  6
Continuous
 62
     1
100
AcDbCircle
 10
46.80219553418285
 20
-148.9078863277716
 30
0.0
 40
175.0
100
AcDbArc
 50
82.64315243207953
 51
83.78854740700578
  0
ARC
  5
96
330
79
100
AcDbEntity
  8
1
  6
Continuous
 62
     1
100
AcDbCircle
 10
46.80219553418285
 20
-148.9078863277716
 30
0.0
 40
175.0
100
AcDbArc
 50
82.64315243207953
 51
83.78854740700578
  0
ARC
  5
97
330
79
100
AcDbEntity
  8
1
  6
Continuous
 62
     1
100
AcDbCircle
 10
79.63978754875244
 20
22.98362757179429
 30
0.0
 40
0.25
100
AcDbArc
 50
19.11385357553211
 51
139.2555733045419
  0
ARC
  5
98
330
79
100
AcDbEntity
  8
1
  6
Continuous
 62
     1
100
AcDbCircle
 10
79.63978754875244
 20
22.98362757179429
 30
0.0
 40
0.25
100
AcDbArc
 50
19.11385357553211
 51
139.2555733045419
  0
ARC
  5
99
330
79
100
AcDbEntity
  8
1
  6
Continuous
 62
     1
100
AcDbCircle
 10
74.63978754875244
 20
23.86383725809284
 30
0.0
 40
0.25
100
AcDbArc
 50
20.77610688629359
 51
140.9178266124088
  0
ARC
  5
9A
330
79
100
AcDbEntity
  8
1
  6
Continuous
 62
     1
100
AcDbCircle
 10
74.63978754875244
 20
23.86383725809284
 30
0.0
 40
0.25
100
AcDbArc
 50
20.77610688629359
 51
140.9178266124088
  0
ARC
  5
9B
330
79
100
AcDbEntity
  8
1
  6
Continuous
 62
     1
100
AcDbCircle
 10
69.63978754875238
 20
24.59555568700816
 30
0.0
 40
0.25
100
AcDbArc
 50
22.43062340021317
 51
142.5723431292149
  0
ARC
  5
9C
330
79
100
AcDbEntity
  8
1
  6
Continuous
 62
     1
100
AcDbCircle
 10
69.63978754875238
 20
24.59555568700816
 30
0.0
 40
0.25
100
AcDbArc
 50
22.43062340021317
 51
142.5723431292149
  0
LINE
  5
9D
330
79
100
AcDbEntity
  8
1
  6
Continuous
 62
     1
100
AcDbLine
 10
59.45405215366951
 20
5.02236438849809
 30
0.0
 11
55.39490925308174
 21
5.152732730129003
 31
0.0
  0
LINE
  5
9E
330
79
100
AcDbEntity
  8
1
  6
Continuous
 62
     1
100
AcDbLine
 10
58.93379534132778
 20
3.84233219723464
 30
0.0
 11
56.88334215676359
 21
3.894519964607383
 31
0.0
  0
LINE
  5
9F
330
79
100
AcDbEntity
  8
1
  6
Continuous
 62
     1
100
AcDbLine
 10
56.38350402692156
 20
3.907241755205035
 30
0.0
 11
55.45513394231021
 21
3.930870464397856
 31
0.0
  0
LINE
  5
A0
330
79
100
AcDbEntity
  8
1
  6
Continuous
 62
     1
100
AcDbLine
 10
67.1397875487521
 20
12.06475107926846
 30
0.0
 11
60.6397875487521
 21
12.06475107926846
 31
0.0
  0
ARC
  5
A1
330
79
100
AcDbEntity
  8
1
  6
Continuous
 62
     1
100
AcDbCircle
 10
67.1397875487521
 20
13.06475107926846
 30
0.0
 40
1.0
100
AcDbArc
 50
270.0
 51
316.1501234605658
  0
ARC
  5
A2
330
79
100
AcDbEntity
  8
1
  6
Continuous
 62
     1
100
AcDbCircle
 10
67.1397875487521
 20
13.06475107926846
 30
0.0
 40
1.0
100
AcDbArc
 50
270.0
 51
316.1501234605658
  0
LINE
  5
A3
330
79
100
AcDbEntity
  8
1
  6
Continuous
 62
     1
100
AcDbLine
 10
74.1397875487521
 20
21.30713051797019
 30
0.0
 11
74.1397875487521
 21
17.56475107929057
 31
0.0
  0
LINE
  5
A4
330
79
100
AcDbEntity
  8
1
  6
Continuous
 62
     1
100
AcDbLine
 10
58.6397875487521
 20
14.06475107929057
 30
0.0
 11
58.6397875487521
 21
12.30773871655049
 31
0.0
  0
LINE
  5
A5
330
79
100
AcDbEntity
  8
1
  6
Continuous
 62
     1
100
AcDbLine
 10
65.73685776066192
 20
25.06475107929057
 30
0.0
 11
63.63978754875204
 21
25.06475107929057
 31
0.0
  0
ARC
  5
A6
330
79
100
AcDbEntity
  8
1
  6
Continuous
 62
     1
100
AcDbCircle
 10
63.63978754875204
 20
24.56475107929057
 30
0.0
 40
0.5
100
AcDbArc
 50
90.0
 51
180.0
  0
ARC
  5
A7
330
79
100
AcDbEntity
  8
1
  6
Continuous
 62
     1
100
AcDbCircle
 10
63.63978754875204
 20
24.56475107929057
 30
0.0
 40
0.5
100
AcDbArc
 50
90.0
 51
180.0
  0
LINE
  5
A8
330
79
100
AcDbEntity
  8
1
  6
Continuous
 62
     1
100
AcDbLine
 10
63.13978754875204
 20
24.56475107929057
 30
0.0
 11
63.13978754875204
 21
23.06475107929057
 31
0.0
  0
ARC
  5
A9
330
79
100
AcDbEntity
  8
1
  6
Continuous
 62
     1
100
AcDbCircle
 10
63.63978754875204
 20
23.06475107929057
 30
0.0
 40
0.5
100
AcDbArc
 50
180.0
 51
270.0
  0
ARC
  5
AA
330
79
100
AcDbEntity
  8
1
  6
Continuous
 62
     1
100
AcDbCircle
 10
63.63978754875204
 20
23.06475107929057
 30
0.0
 40
0.5
100
AcDbArc
 50
180.0
 51
270.0
  0
LINE
  5
AB
330
79
100
AcDbEntity
  8
1
  6
Continuous
 62
     1
100
AcDbLine
 10
63.63978754875204
 20
22.56475107929057
 30
0.0
 11
65.88978754875204
 21
22.56475107929057
 31
0.0
  0
LINE
  5
AC
330
79
100
AcDbEntity
  8
1
  6
Continuous
 62
     1
100
AcDbLine
 10
66.13978754875204
 20
22.31475107929057
 30
0.0
 11
66.13978754875204
 21
21.81475107929057
 31
0.0
  0
LINE
  5
AD
330
79
100
AcDbEntity
  8
1
  6
Continuous
 62
     1
100
AcDbLine
 10
66.38978754875204
 20
21.56475107929057
 30
0.0
 11
71.88978754875204
 21
21.56475107929057
 31
0.0
  0
LINE
  5
AE
330
79
100
AcDbEntity
  8
1
  6
Continuous
 62
     1
100
AcDbLine
 10
72.13978754875204
 20
21.31475107929057
 30
0.0
 11
72.13978754875204
 21
18.81475107929057
 31
0.0
  0
LINE
  5
AF
330
79
100
AcDbEntity
  8
1
  6
Continuous
 62
     1
100
AcDbLine
 10
71.88978754875204
 20
18.56475107929057
 30
0.0
 11
67.34689432993858
 21
18.56475107929057
 31
0.0
  0
LINE
  5
B0
330
79
100
AcDbEntity
  8
1
  6
Continuous
 62
     1
100
AcDbLine
 10
66.13978754875204
 20
18.56475107929057
 30
0.0
 11
66.1397875487521
 21
13.81475107929057
 31
0.0
  0
LINE
  5
B1
330
79
100
AcDbEntity
  8
1
  6
Continuous
 62
     1
100
AcDbLine
 10
65.8897875487521
 20
13.56475107929057
 30
0.0
 11
59.8897875487521
 21
13.56475107929057
 31
0.0
  0
LINE
  5
B2
330
79
100
AcDbEntity
  8
1
  6
Continuous
 62
     1
100
AcDbLine
 10
59.6397875487521
 20
13.81475107929057
 30
0.0
 11
59.6397875487521
 21
14.06475107929057
 31
0.0
  0
ARC
  5
B3
330
79
100
AcDbEntity
  8
1
  6
Continuous
 62
     1
100
AcDbCircle
 10
59.1397875487521
 20
14.06475107929057
 30
0.0
 40
0.5
100
AcDbArc
 50
0.0
 51
180.0
  0
ARC
  5
B4
330
79
100
AcDbEntity
  8
1
  6
Continuous
 62
     1
100
AcDbCircle
 10
59.1397875487521
 20
14.06475107929057
 30
0.0
 40
0.5
100
AcDbArc
 50
0.0
 51
180.0
  0
ARC
  5
B5
330
79
100
AcDbEntity
  8
1
  6
Continuous
 62
     1
100
AcDbCircle
 10
66.63978754875204
 20
18.56475107929057
 30
0.0
 40
0.5
100
AcDbArc
 50
19.47122063449038
 51
180.0
  0
ARC
  5
B6
330
79
100
AcDbEntity
  8
1
  6
Continuous
 62
     1
100
AcDbCircle
 10
66.63978754875204
 20
18.56475107929057
 30
0.0
 40
0.5
100
AcDbArc
 50
19.47122063449038
 51
180.0
  0
ARC
  5
B7
330
79
100
AcDbEntity
  8
1
  6
Continuous
 62
     1
100
AcDbCircle
 10
73.1397875487521
 20
17.56475107929057
 30
0.0
 40
1.0
100
AcDbArc
 50
270.0
 51
0.0
  0
ARC
  5
B8
330
79
100
AcDbEntity
  8
1
  6
Continuous
 62
     1
100
AcDbCircle
 10
73.1397875487521
 20
17.56475107929057
 30
0.0
 40
1.0
100
AcDbArc
 50
270.0
 51
0.0
  0
LINE
  5
B9
330
79
100
AcDbEntity
  8
1
  6
Continuous
 62
     1
100
AcDbLine
 10
59.79155521561738
 20
4.876175458539691
 30
0.0
 11
61.29201017295252
 21
3.375720501204555
 31
0.0
  0
LINE
  5
BA
330
79
100
AcDbEntity
  8
1
  6
Continuous
 62
     1
100
AcDbLine
 10
62.86869171461886
 20
1.799038959538223
 30
0.0
 11
63.55053652644402
 21
1.117194147713036
 31
0.0
  0
LINE
  5
BB
330
79
100
AcDbEntity
  8
1
  6
Continuous
 62
     1
100
AcDbLine
 10
62.70200838902012
 20
0.2686660102891949
 30
0.0
 11
59.27462694132343
 21
3.69604745798587
 31
0.0
  0
ARC
  5
BC
330
79
100
AcDbEntity
  8
1
  6
Continuous
 62
     1
100
AcDbCircle
 10
63.12627245773204
 20
0.6929300790011155
 30
0.0
 40
0.6000000000000003
100
AcDbArc
 50
224.999999999999
 51
44.99999999999904
  0
ARC
  5
BD
330
79
100
AcDbEntity
  8
1
  6
Continuous
 62
     1
100
AcDbCircle
 10
63.12627245773204
 20
0.6929300790011155
 30
0.0
 40
0.6000000000000003
100
AcDbArc
 50
224.999999999999
 51
44.99999999999904
  0
LINE
  5
BE
330
79
100
AcDbEntity
  8
1
  6
Continuous
 62
     1
100
AcDbLine
 10
56.88334215676359
 20
3.894519964607383
 30
0.0
 11
56.6397839871414
 21
4.150799924827226
 31
0.0
  0
LINE
  5
BF
330
79
100
AcDbEntity
  8
1
  6
Continuous
 62
     1
100
AcDbLine
 10
56.6397839871414
 20
4.150799924827226
 30
0.0
 11
56.38350402692156
 21
3.907241755205035
 31
0.0
  0
LINE
  5
C0
330
79
100
AcDbEntity
  8
1
  6
Continuous
 62
     1
100
AcDbLine
 10
81.83978801405065
 20
8.374308774360344
 30
0.0
 11
81.83978801405065
 21
7.070884552255194
 31
0.0
  0
LINE
  5
C1
330
79
100
AcDbEntity
  8
1
  6
Continuous
 62
     1
100
AcDbLine
 10
81.83978801405065
 20
6.570884552255194
 30
0.0
 11
81.83978801405065
 21
4.787596234939286
 31
0.0
  0
LINE
  5
C2
330
79
100
AcDbEntity
  8
1
  6
Continuous
 62
     1
100
AcDbLine
 10
81.83978801405065
 20
2.583829717992444
 30
0.0
 11
81.83978801405065
 21
0.7500017109827013
 31
0.0
  0
ARC
  5
C3
330
79
100
AcDbEntity
  8
1
  6
Continuous
 62
     1
100
AcDbCircle
 10
52.46984129908058
 20
3.326035013309792
 30
0.0
 40
2.75
100
AcDbArc
 50
243.0291717464732
 51
262.3440820587069
  0
ARC
  5
C4
330
79
100
AcDbEntity
  8
1
  6
Continuous
 62
     1
100
AcDbCircle
 10
52.46984129908058
 20
3.326035013309792
 30
0.0
 40
2.75
100
AcDbArc
 50
243.0291717464732
 51
262.3440820587069
  0
ARC
  5
C5
330
79
100
AcDbEntity
  8
1
  6
Continuous
 62
     1
100
AcDbCircle
 10
52.22949202731142
 20
1.088106320453335
 30
0.0
 40
0.5035797918405848
100
AcDbArc
 50
255.5082721367894
 51
78.56018584446433
  0
ARC
  5
C6
330
79
100
AcDbEntity
  8
1
  6
Continuous
 62
     1
100
AcDbCircle
 10
52.22949202731142
 20
1.088106320453335
 30
0.0
 40
0.5035797918405848
100
AcDbArc
 50
255.5082721367894
 51
78.56018584446433
  0
ARC
  5
C7
330
79
100
AcDbEntity
  8
1
  6
Continuous
 62
     1
100
AcDbCircle
 10
52.46984129908058
 20
3.326035013309792
 30
0.0
 40
1.75
100
AcDbArc
 50
240.3309853615911
 51
265.395995766394
  0
ARC
  5
C8
330
79
100
AcDbEntity
  8
1
  6
Continuous
 62
     1
100
AcDbCircle
 10
52.46984129908058
 20
3.326035013309792
 30
0.0
 40
1.75
100
AcDbArc
 50
240.3309853615911
 51
265.395995766394
  0
ARC
  5
C9
330
79
100
AcDbEntity
  8
1
  6
Continuous
 62
     1
100
AcDbCircle
 10
52.46984129908058
 20
3.326035013309792
 30
0.0
 40
1.75
100
AcDbArc
 50
150.3309853615894
 51
209.613214199943
  0
ARC
  5
CA
330
79
100
AcDbEntity
  8
1
  6
Continuous
 62
     1
100
AcDbCircle
 10
52.46984129908058
 20
3.326035013309792
 30
0.0
 40
1.75
100
AcDbArc
 50
150.3309853615894
 51
209.613214199943
  0
ARC
  5
CB
330
79
100
AcDbEntity
  8
1
  6
Continuous
 62
     1
100
AcDbCircle
 10
52.46984129908058
 20
3.326035013309792
 30
0.0
 40
1.75
100
AcDbArc
 50
60.33098536160338
 51
119.6132141999405
  0
ARC
  5
CC
330
79
100
AcDbEntity
  8
1
  6
Continuous
 62
     1
100
AcDbCircle
 10
52.46984129908058
 20
3.326035013309792
 30
0.0
 40
1.75
100
AcDbArc
 50
60.33098536160338
 51
119.6132141999405
  0
ARC
  5
CD
330
79
100
AcDbEntity
  8
1
  6
Continuous
 62
     1
100
AcDbCircle
 10
52.46984129908058
 20
3.326035013309792
 30
0.0
 40
1.75
100
AcDbArc
 50
6.057813400344883
 51
29.61321419992653
  0
ARC
  5
CE
330
79
100
AcDbEntity
  8
1
  6
Continuous
 62
     1
100
AcDbCircle
 10
52.46984129908058
 20
3.326035013309792
 30
0.0
 40
1.75
100
AcDbArc
 50
6.057813400344883
 51
29.61321419992653
  0
ARC
  5
CF
330
79
100
AcDbEntity
  8
1
  6
Continuous
 62
     1
100
AcDbCircle
 10
54.70727975995821
 20
3.563482106527857
 30
0.0
 40
0.5000119881486164
100
AcDbArc
 50
186.0578134003462
 51
9.002132760346523
  0
ARC
  5
D0
330
79
100
AcDbEntity
  8
1
  6
Continuous
 62
     1
100
AcDbCircle
 10
54.70727975995821
 20
3.563482106527857
 30
0.0
 40
0.5000119881486164
100
AcDbArc
 50
186.0578134003462
 51
9.002132760346523
  0
LINE
  5
D1
330
79
100
AcDbEntity
  8
1
  6
Continuous
 62
     1
100
AcDbLine
 10
85.33978754875208
 20
17.75243077904323
 30
0.0
 11
85.33978754875208
 21
15.35243077904326
 31
0.0
  0
LINE
  5
D2
330
79
100
AcDbEntity
  8
1
  6
Continuous
 62
     1
100
AcDbLine
 10
84.83978754875208
 20
14.85243077904326
 30
0.0
 11
84.33978754875208
 21
14.85243077904326
 31
0.0
  0
LINE
  5
D3
330
79
100
AcDbEntity
  8
1
  6
Continuous
 62
     1
100
AcDbLine
 10
83.83978754875208
 20
15.35243077904326
 30
0.0
 11
83.83978754875208
 21
17.35243077904325
 31
0.0
  0
LINE
  5
D4
330
79
100
AcDbEntity
  8
1
  6
Continuous
 62
     1
100
AcDbLine
 10
83.33978754875208
 20
17.85243077904325
 30
0.0
 11
82.33978754875208
 21
17.85243077904325
 31
0.0
  0
LINE
  5
D5
330
79
100
AcDbEntity
  8
1
  6
Continuous
 62
     1
100
AcDbLine
 10
74.72748199718859
 20
21.79938013321983
 30
0.0
 11
80.83978754875208
 21
20.71047067059302
 31
0.0
  0
ARC
  5
D6
330
79
100
AcDbEntity
  8
1
  6
Continuous
 62
     1
100
AcDbCircle
 10
80.33978754875203
 20
17.75243077904323
 30
0.0
 40
3.0
100
AcDbArc
 50
53.13010235415541
 51
80.405931773139
  0
ARC
  5
D7
330
79
100
AcDbEntity
  8
1
  6
Continuous
 62
     1
100
AcDbCircle
 10
80.33978754875203
 20
17.75243077904323
 30
0.0
 40
3.0
100
AcDbArc
 50
53.13010235415541
 51
80.405931773139
  0
ARC
  5
D8
330
79
100
AcDbEntity
  8
1
  6
Continuous
 62
     1
100
AcDbCircle
 10
81.83978754875208
 20
19.75243077904323
 30
0.0
 40
0.5
100
AcDbArc
 50
270.0
 51
53.13010235415435
  0
ARC
  5
D9
330
79
100
AcDbEntity
  8
1
  6
Continuous
 62
     1
100
AcDbCircle
 10
81.83978754875208
 20
19.75243077904323
 30
0.0
 40
0.5
100
AcDbArc
 50
270.0
 51
53.13010235415435
  0
ARC
  5
DA
330
79
100
AcDbEntity
  8
1
  6
Continuous
 62
     1
100
AcDbCircle
 10
84.83978754875208
 20
15.35243077904326
 30
0.0
 40
0.5
100
AcDbArc
 50
270.0
 51
0.0
  0
ARC
  5
DB
330
79
100
AcDbEntity
  8
1
  6
Continuous
 62
     1
100
AcDbCircle
 10
84.83978754875208
 20
15.35243077904326
 30
0.0
 40
0.5
100
AcDbArc
 50
270.0
 51
0.0
  0
ARC
  5
DC
330
79
100
AcDbEntity
  8
1
  6
Continuous
 62
     1
100
AcDbCircle
 10
84.33978754875208
 20
15.35243077904326
 30
0.0
 40
0.5
100
AcDbArc
 50
180.0
 51
270.0
  0
ARC
  5
DD
330
79
100
AcDbEntity
  8
1
  6
Continuous
 62
     1
100
AcDbCircle
 10
84.33978754875208
 20
15.35243077904326
 30
0.0
 40
0.5
100
AcDbArc
 50
180.0
 51
270.0
  0
ARC
  5
DE
330
79
100
AcDbEntity
  8
1
  6
Continuous
 62
     1
100
AcDbCircle
 10
83.33978754875208
 20
17.35243077904325
 30
0.0
 40
0.5
100
AcDbArc
 50
0.0
 51
90.0
  0
ARC
  5
DF
330
79
100
AcDbEntity
  8
1
  6
Continuous
 62
     1
100
AcDbCircle
 10
83.33978754875208
 20
17.35243077904325
 30
0.0
 40
0.5
100
AcDbArc
 50
0.0
 51
90.0
  0
ARC
  5
E0
330
79
100
AcDbEntity
  8
1
  6
Continuous
 62
     1
100
AcDbCircle
 10
82.33978754875208
 20
17.35243077904325
 30
0.0
 40
0.5
100
AcDbArc
 50
90.0
 51
180.0
  0
ARC
  5
E1
330
79
100
AcDbEntity
  8
1
  6
Continuous
 62
     1
100
AcDbCircle
 10
82.33978754875208
 20
17.35243077904325
 30
0.0
 40
0.5
100
AcDbArc
 50
90.0
 51
180.0
  0
ARC
  5
E2
330
79
100
AcDbEntity
  8
1
  6
Continuous
 62
     1
100
AcDbCircle
 10
81.83978754875208
 20
17.75243077904323
 30
0.0
 40
1.5
100
AcDbArc
 50
90.0
 51
180.0
  0
ARC
  5
E3
330
79
100
AcDbEntity
  8
1
  6
Continuous
 62
     1
100
AcDbCircle
 10
81.83978754875208
 20
17.75243077904323
 30
0.0
 40
1.5
100
AcDbArc
 50
90.0
 51
180.0
  0
LINE
  5
E4
330
79
100
AcDbEntity
  8
1
  6
Continuous
 62
     1
100
AcDbLine
 10
72.88978754875204
 20
16.56475107929057
 30
0.0
 11
73.1397875487521
 21
16.56475107929057
 31
0.0
  0
ARC
  5
E5
330
79
100
AcDbEntity
  8
1
  6
Continuous
 62
     1
100
AcDbCircle
 10
69.8897875487521
 20
14.81475107929057
 30
0.0
 40
2.75
100
AcDbArc
 50
6.057074306400905
 51
22.61986494804012
  0
ARC
  5
E6
330
79
100
AcDbEntity
  8
1
  6
Continuous
 62
     1
100
AcDbCircle
 10
69.8897875487521
 20
14.81475107929057
 30
0.0
 40
2.75
100
AcDbArc
 50
6.057074306400905
 51
22.61986494804012
  0
ARC
  5
E7
330
79
100
AcDbEntity
  8
1
  6
Continuous
 62
     1
100
AcDbCircle
 10
72.12727811918272
 20
15.05217451480112
 30
0.0
 40
0.5002338857932375
100
AcDbArc
 50
186.0570743064014
 51
6.057074306401396
  0
ARC
  5
E8
330
79
100
AcDbEntity
  8
1
  6
Continuous
 62
     1
100
AcDbCircle
 10
72.12727811918272
 20
15.05217451480112
 30
0.0
 40
0.5002338857932375
100
AcDbArc
 50
186.0570743064014
 51
6.057074306401396
  0
ARC
  5
E9
330
79
100
AcDbEntity
  8
1
  6
Continuous
 62
     1
100
AcDbCircle
 10
69.8897875487521
 20
14.81475107929057
 30
0.0
 40
1.75
100
AcDbArc
 50
6.057074306400961
 51
29.64495871906572
  0
ARC
  5
EA
330
79
100
AcDbEntity
  8
1
  6
Continuous
 62
     1
100
AcDbCircle
 10
69.8897875487521
 20
14.81475107929057
 30
0.0
 40
1.75
100
AcDbArc
 50
6.057074306400961
 51
29.64495871906572
  0
ARC
  5
EB
330
79
100
AcDbEntity
  8
1
  6
Continuous
 62
     1
100
AcDbCircle
 10
69.8897875487521
 20
14.81475107929057
 30
0.0
 40
1.75
100
AcDbArc
 50
60.36272988071989
 51
119.6449587190793
  0
ARC
  5
EC
330
79
100
AcDbEntity
  8
1
  6
Continuous
 62
     1
100
AcDbCircle
 10
69.8897875487521
 20
14.81475107929057
 30
0.0
 40
1.75
100
AcDbArc
 50
60.36272988071989
 51
119.6449587190793
  0
ARC
  5
ED
330
79
100
AcDbEntity
  8
1
  6
Continuous
 62
     1
100
AcDbCircle
 10
69.8897875487521
 20
14.81475107929057
 30
0.0
 40
1.75
100
AcDbArc
 50
150.3627298807066
 51
209.6449587190749
  0
ARC
  5
EE
330
79
100
AcDbEntity
  8
1
  6
Continuous
 62
     1
100
AcDbCircle
 10
69.8897875487521
 20
14.81475107929057
 30
0.0
 40
1.75
100
AcDbArc
 50
150.3627298807066
 51
209.6449587190749
  0
ARC
  5
EF
330
79
100
AcDbEntity
  8
1
  6
Continuous
 62
     1
100
AcDbCircle
 10
69.8897875487521
 20
14.81475107929057
 30
0.0
 40
1.75
100
AcDbArc
 50
240.3627298807106
 51
263.9500046891348
  0
ARC
  5
F0
330
79
100
AcDbEntity
  8
1
  6
Continuous
 62
     1
100
AcDbCircle
 10
69.8897875487521
 20
14.81475107929057
 30
0.0
 40
1.75
100
AcDbArc
 50
240.3627298807106
 51
263.9500046891348
  0
ARC
  5
F1
330
79
100
AcDbEntity
  8
1
  6
Continuous
 62
     1
100
AcDbCircle
 10
69.65263743918523
 20
12.57720173707017
 30
0.0
 40
0.5003670985771858
100
AcDbArc
 50
263.9500046891341
 51
83.95000468913398
  0
ARC
  5
F2
330
79
100
AcDbEntity
  8
1
  6
Continuous
 62
     1
100
AcDbCircle
 10
69.65263743918523
 20
12.57720173707017
 30
0.0
 40
0.5003670985771858
100
AcDbArc
 50
263.9500046891341
 51
83.95000468913398
  0
ARC
  5
F3
330
79
100
AcDbEntity
  8
1
  6
Continuous
 62
     1
100
AcDbCircle
 10
69.8897875487521
 20
14.81475107929057
 30
0.0
 40
2.75
100
AcDbArc
 50
239.1153098832334
 51
263.9500046891348
  0
ARC
  5
F4
330
79
100
AcDbEntity
  8
1
  6
Continuous
 62
     1
100
AcDbCircle
 10
69.8897875487521
 20
14.81475107929057
 30
0.0
 40
2.75
100
AcDbArc
 50
239.1153098832334
 51
263.9500046891348
  0
ARC
  5
F5
330
79
100
AcDbEntity
  8
1
  6
Continuous
 62
     1
100
AcDbCircle
 10
68.22152370465055
 20
12.02559426289187
 30
0.0
 40
0.5
100
AcDbArc
 50
59.11530988323295
 51
136.150123460567
  0
ARC
  5
F6
330
79
100
AcDbEntity
  8
1
  6
Continuous
 62
     1
100
AcDbCircle
 10
68.22152370465055
 20
12.02559426289187
 30
0.0
 40
0.5
100
AcDbArc
 50
59.11530988323295
 51
136.150123460567
  0
ARC
  5
F7
330
79
100
AcDbEntity
  8
1
  6
Continuous
 62
     1
100
AcDbCircle
 10
72.88978754875204
 20
16.06475107929057
 30
0.0
 40
0.5
100
AcDbArc
 50
90.0
 51
202.6198649480424
  0
ARC
  5
F8
330
79
100
AcDbEntity
  8
1
  6
Continuous
 62
     1
100
AcDbCircle
 10
72.88978754875204
 20
16.06475107929057
 30
0.0
 40
0.5
100
AcDbArc
 50
90.0
 51
202.6198649480424
  0
LINE
  5
F9
330
79
100
AcDbEntity
  8
1
  6
Continuous
 62
     1
100
AcDbLine
 10
81.83978801405065
 20
7.070884552255194
 30
0.0
 11
81.58978801405065
 21
6.820884552255194
 31
0.0
  0
LINE
  5
FA
330
79
100
AcDbEntity
  8
1
  6
Continuous
 62
     1
100
AcDbLine
 10
81.58978801405065
 20
6.820884552255194
 30
0.0
 11
81.83978801405065
 21
6.570884552255194
 31
0.0
  0
LINE
  5
FB
330
79
100
AcDbEntity
  8
1
  6
Continuous
 62
     1
100
AcDbLine
 10
81.83978801405065
 20
4.787596234939286
 30
0.0
 11
81.83978801405065
 21
2.583829717992444
 31
0.0
  0
LINE
  5
FC
330
79
100
AcDbEntity
  8
1
  6
Continuous
 62
     1
100
AcDbLine
 10
59.65400888753457
 20
10.59300281753738
 30
0.0
 11
51.08341720681311
 21
10.34913357847486
 31
0.0
  0
LINE
  5
FD
330
79
100
AcDbEntity
  8
1
  6
Continuous
 62
     1
100
AcDbLine
 10
50.5978408329925
 20
9.83511452708936
 30
0.0
 11
50.68323180635831
 21
6.834116251329277
 31
0.0
  0
ARC
  5
FE
330
79
100
AcDbEntity
  8
1
  6
Continuous
 62
     1
100
AcDbCircle
 10
52.46984129908058
 20
3.326035013309792
 30
0.0
 40
3.25
100
AcDbArc
 50
38.34418234111241
 51
110.0688940197857
  0
ARC
  5
FF
330
79
100
AcDbEntity
  8
1
  6
Continuous
 62
     1
100
AcDbCircle
 10
52.46984129908058
 20
3.326035013309792
 30
0.0
 40
3.25
100
AcDbArc
 50
38.34418234111241
 51
110.0688940197857
  0
LINE
  5
100
330
79
100
AcDbEntity
  8
1
  6
Continuous
 62
     1
100
AcDbLine
 10
60.1397875487521
 20
11.56475107926846
 30
0.0
 11
60.1397875487521
 21
11.09280053014041
 31
0.0
  0
ARC
  5
101
330
79
100
AcDbEntity
  8
1
  6
Continuous
 62
     1
100
AcDbCircle
 10
59.6397875487521
 20
11.09280053014041
 30
0.0
 40
0.5
100
AcDbArc
 50
271.6298651892416
 51
0.0
  0
ARC
  5
102
330
79
100
AcDbEntity
  8
1
  6
Continuous
 62
     1
100
AcDbCircle
 10
59.6397875487521
 20
11.09280053014041
 30
0.0
 40
0.5
100
AcDbArc
 50
271.6298651892416
 51
0.0
  0
ARC
  5
103
330
79
100
AcDbEntity
  8
1
  6
Continuous
 62
     1
100
AcDbCircle
 10
60.6397875487521
 20
11.56475107926846
 30
0.0
 40
0.5
100
AcDbArc
 50
90.0
 51
180.0
  0
ARC
  5
104
330
79
100
AcDbEntity
  8
1
  6
Continuous
 62
     1
100
AcDbCircle
 10
60.6397875487521
 20
11.56475107926846
 30
0.0
 40
0.5
100
AcDbArc
 50
90.0
 51
180.0
  0
ARC
  5
105
330
79
100
AcDbEntity
  8
1
  6
Continuous
 62
     1
100
AcDbCircle
 10
51.09763854559553
 20
9.849335865871836
 30
0.0
 40
0.5
100
AcDbArc
 50
91.62986518924163
 51
181.6298651892417
  0
ARC
  5
106
330
79
100
AcDbEntity
  8
1
  6
Continuous
 62
     1
100
AcDbCircle
 10
51.09763854559553
 20
9.849335865871836
 30
0.0
 40
0.5
100
AcDbArc
 50
91.62986518924163
 51
181.6298651892417
  0
ARC
  5
107
330
79
100
AcDbEntity
  8
1
  6
Continuous
 62
     1
100
AcDbCircle
 10
51.18302951896133
 20
6.848337590111868
 30
0.0
 40
0.5
100
AcDbArc
 50
181.6298651892563
 51
290.0688940197867
  0
ARC
  5
108
330
79
100
AcDbEntity
  8
1
  6
Continuous
 62
     1
100
AcDbCircle
 10
51.18302951896133
 20
6.848337590111868
 30
0.0
 40
0.5
100
AcDbArc
 50
181.6298651892563
 51
290.0688940197867
  0
ARC
  5
109
330
79
100
AcDbEntity
  8
1
  6
Continuous
 62
     1
100
AcDbCircle
 10
50.36326153198091
 20
0.5000017109826729
 30
0.0
 40
0.5
100
AcDbArc
 50
270.0
 51
1.629865189241629
  0
ARC
  5
10A
330
79
100
AcDbEntity
  8
1
  6
Continuous
 62
     1
100
AcDbCircle
 10
50.36326153198091
 20
0.5000017109826729
 30
0.0
 40
0.5
100
AcDbArc
 50
270.0
 51
1.629865189241629
  0
ARC
  5
10B
330
79
100
AcDbEntity
  8
1
  6
Continuous
 62
     1
100
AcDbCircle
 10
49.36285679343995
 20
0.5000017109827297
 30
0.0
 40
0.5
100
AcDbArc
 50
181.6298651892563
 51
270.0
  0
ARC
  5
10C
330
79
100
AcDbEntity
  8
1
  6
Continuous
 62
     1
100
AcDbCircle
 10
49.36285679343995
 20
0.5000017109827297
 30
0.0
 40
0.5
100
AcDbArc
 50
181.6298651892563
 51
270.0
  0
LINE
  5
10D
330
79
100
AcDbEntity
  8
1
  6
Continuous
 62
     1
100
AcDbLine
 10
46.94686323429293
 20
11.73565605958002
 30
0.0
 11
48.39761083599096
 21
11.77364522249442
 31
0.0
  0
LINE
  5
10E
330
79
100
AcDbEntity
  8
1
  6
Continuous
 62
     1
100
AcDbLine
 10
48.89959144255015
 20
11.78760169434528
 30
0.0
 11
48.64162290334512
 21
11.52963315514026
 31
0.0
  0
LINE
  5
10F
330
79
100
AcDbEntity
  8
1
  6
Continuous
 62
     1
100
AcDbLine
 10
48.64162290334512
 20
11.52963315514026
 30
0.0
 11
48.39761083599096
 21
11.77364522249442
 31
0.0
  0
LINE
  5
110
330
79
100
AcDbEntity
  8
1
  6
Continuous
 62
     1
100
AcDbLine
 10
53.89987383322232
 20
11.9298806766067
 30
0.0
 11
53.64190529401723
 21
11.67191213740168
 31
0.0
  0
LINE
  5
111
330
79
100
AcDbEntity
  8
1
  6
Continuous
 62
     1
100
AcDbLine
 10
53.64190529401723
 20
11.67191213740168
 30
0.0
 11
53.3991782662669
 21
11.91463916515201
 31
0.0
  0
ARC
  5
112
330
79
100
AcDbEntity
  8
1
  6
Continuous
 62
     1
100
AcDbCircle
 10
51.10923092560255
 20
0.6523223489451482
 30
0.0
 40
0.25
100
AcDbArc
 50
63.02917174647279
 51
181.6298651892693
  0
ARC
  5
113
330
79
100
AcDbEntity
  8
1
  6
Continuous
 62
     1
100
AcDbCircle
 10
51.10923092560255
 20
0.6523223489451482
 30
0.0
 40
0.25
100
AcDbArc
 50
63.02917174647279
 51
181.6298651892693
  0
ARC
  5
114
330
79
100
AcDbEntity
  8
1
  6
Continuous
 62
     1
100
AcDbCircle
 10
55.44877304701139
 20
3.680951399476839
 30
0.0
 40
0.25
100
AcDbArc
 50
88.54203284417196
 51
189.0021327603494
  0
ARC
  5
115
330
79
100
AcDbEntity
  8
1
  6
Continuous
 62
     1
100
AcDbCircle
 10
55.44877304701139
 20
3.680951399476839
 30
0.0
 40
0.25
100
AcDbArc
 50
88.54203284417196
 51
189.0021327603494
  0
ARC
  5
116
330
79
100
AcDbEntity
  8
1
  6
Continuous
 62
     1
100
AcDbCircle
 10
58.3897875487521
 20
12.30773871655049
 30
0.0
 40
0.25
100
AcDbArc
 50
271.6298651892433
 51
0.0
  0
ARC
  5
117
330
79
100
AcDbEntity
  8
1
  6
Continuous
 62
     1
100
AcDbCircle
 10
58.3897875487521
 20
12.30773871655049
 30
0.0
 40
0.25
100
AcDbArc
 50
271.6298651892433
 51
0.0
  0
ARC
  5
118
330
79
100
AcDbEntity
  8
1
  6
Continuous
 62
     1
100
AcDbCircle
 10
81.08978801405065
 20
0.7500017109827013
 30
0.0
 40
0.75
100
AcDbArc
 50
180.0
 51
0.0
  0
ARC
  5
119
330
79
100
AcDbEntity
  8
1
  6
Continuous
 62
     1
100
AcDbCircle
 10
81.08978801405065
 20
0.7500017109827013
 30
0.0
 40
0.75
100
AcDbArc
 50
180.0
 51
0.0
  0
LINE
  5
11A
330
79
100
AcDbEntity
  8
1
  6
Continuous
 62
     1
100
AcDbLine
 10
80.33978801405065
 20
0.7500017109827013
 30
0.0
 11
80.33978801405065
 21
6.319979055234839
 31
0.0
  0
ARC
  5
11B
330
79
100
AcDbEntity
  8
1
  6
Continuous
 62
     1
100
AcDbCircle
 10
55.41095958172714
 20
5.652475050680664
 30
0.0
 40
0.5
100
AcDbArc
 50
218.3441823411126
 51
268.1604517976048
  0
ARC
  5
11C
330
79
100
AcDbEntity
  8
1
  6
Continuous
 62
     1
100
AcDbCircle
 10
55.41095958172714
 20
5.652475050680664
 30
0.0
 40
0.5
100
AcDbArc
 50
218.3441823411126
 51
268.1604517976048
  0
ARC
  5
11D
330
79
100
AcDbEntity
  8
1
  6
Continuous
 62
     1
100
AcDbCircle
 10
58.92107355073016
 20
3.342494067392593
 30
0.0
 40
0.5
100
AcDbArc
 50
45.0
 51
88.54203284417036
  0
ARC
  5
11E
330
79
100
AcDbEntity
  8
1
  6
Continuous
 62
     1
100
AcDbCircle
 10
58.92107355073016
 20
3.342494067392593
 30
0.0
 40
0.5
100
AcDbArc
 50
45.0
 51
88.54203284417036
  0
LINE
  5
11F
330
79
100
AcDbEntity
  8
1
  6
Continuous
 62
     1
100
AcDbLine
 10
79.83978801405065
 20
6.819979055234839
 30
0.0
 11
69.03722441782308
 21
6.819979055234839
 31
0.0
  0
LINE
  5
120
330
79
100
AcDbEntity
  8
1
  6
Continuous
 62
     1
100
AcDbLine
 10
79.83978801405065
 20
8.019979055234842
 30
0.0
 11
68.65162531049297
 21
8.019979055234842
 31
0.0
  0
ARC
  5
121
330
79
100
AcDbEntity
  8
1
  6
Continuous
 62
     1
100
AcDbCircle
 10
79.83978801405065
 20
8.519979055234842
 30
0.0
 40
0.5
100
AcDbArc
 50
270.0
 51
0.0
  0
ARC
  5
122
330
79
100
AcDbEntity
  8
1
  6
Continuous
 62
     1
100
AcDbCircle
 10
79.83978801405065
 20
8.519979055234842
 30
0.0
 40
0.5
100
AcDbArc
 50
270.0
 51
0.0
  0
ARC
  5
123
330
79
100
AcDbEntity
  8
1
  6
Continuous
 62
     1
100
AcDbCircle
 10
79.83978801405065
 20
6.319979055234839
 30
0.0
 40
0.5
100
AcDbArc
 50
0.0
 51
90.0
  0
ARC
  5
124
330
79
100
AcDbEntity
  8
1
  6
Continuous
 62
     1
100
AcDbCircle
 10
79.83978801405065
 20
6.319979055234839
 30
0.0
 40
0.5
100
AcDbArc
 50
0.0
 51
90.0
  0
LINE
  5
125
330
79
100
AcDbEntity
  8
1
  6
Continuous
 62
     1
100
AcDbLine
 10
61.93682233538264
 20
3.322864827149786
 30
0.0
 11
68.36036653865612
 21
7.926388119882887
 31
0.0
  0
LINE
  5
126
330
79
100
AcDbEntity
  8
1
  6
Continuous
 62
     1
100
AcDbLine
 10
68.74596564598623
 20
6.726388119882884
 30
0.0
 11
62.93098633337529
 21
2.559001414779544
 31
0.0
  0
ARC
  5
127
330
79
100
AcDbEntity
  8
1
  6
Continuous
 62
     1
100
AcDbCircle
 10
69.03722441782308
 20
6.319979055234839
 30
0.0
 40
0.5
100
AcDbArc
 50
90.0
 51
125.6278087632623
  0
ARC
  5
128
330
79
100
AcDbEntity
  8
1
  6
Continuous
 62
     1
100
AcDbCircle
 10
69.03722441782308
 20
6.319979055234839
 30
0.0
 40
0.5
100
AcDbArc
 50
90.0
 51
125.6278087632623
  0
ARC
  5
129
330
79
100
AcDbEntity
  8
1
  6
Continuous
 62
     1
100
AcDbCircle
 10
68.65162531049297
 20
7.519979055234842
 30
0.0
 40
0.5
100
AcDbArc
 50
90.0
 51
125.6278087632638
  0
ARC
  5
12A
330
79
100
AcDbEntity
  8
1
  6
Continuous
 62
     1
100
AcDbCircle
 10
68.65162531049297
 20
7.519979055234842
 30
0.0
 40
0.5
100
AcDbArc
 50
90.0
 51
125.6278087632638
  0
ARC
  5
12B
330
79
100
AcDbEntity
  8
1
  6
Continuous
 62
     1
100
AcDbCircle
 10
61.64556356354579
 20
3.729273891797831
 30
0.0
 40
0.5
100
AcDbArc
 50
225.0
 51
305.6278087632622
  0
ARC
  5
12C
330
79
100
AcDbEntity
  8
1
  6
Continuous
 62
     1
100
AcDbCircle
 10
61.64556356354579
 20
3.729273891797831
 30
0.0
 40
0.5
100
AcDbArc
 50
225.0
 51
305.6278087632622
  0
ARC
  5
12D
330
79
100
AcDbEntity
  8
1
  6
Continuous
 62
     1
100
AcDbCircle
 10
63.22224510521214
 20
2.152592350131499
 30
0.0
 40
0.5
100
AcDbArc
 50
125.6278087632623
 51
225.0000000000006
  0
ARC
  5
12E
330
79
100
AcDbEntity
  8
1
  6
Continuous
 62
     1
100
AcDbCircle
 10
63.22224510521214
 20
2.152592350131499
 30
0.0
 40
0.5
100
AcDbArc
 50
125.6278087632623
 51
225.0000000000006
  0
ARC
  5
12F
330
79
100
AcDbEntity
  8
1
  6
Continuous
 62
     1
100
AcDbCircle
 10
59.4380018250241
 20
4.522622067946415
 30
0.0
 40
0.5
100
AcDbArc
 50
45.0
 51
88.16045179760478
  0
ARC
  5
130
330
79
100
AcDbEntity
  8
1
  6
Continuous
 62
     1
100
AcDbCircle
 10
59.4380018250241
 20
4.522622067946415
 30
0.0
 40
0.5
100
AcDbArc
 50
45.0
 51
88.16045179760478
  0
ARC
  5
131
330
79
100
AcDbEntity
  8
1
  6
Continuous
 62
     1
100
AcDbCircle
 10
74.6397875487521
 20
21.30713051797019
 30
0.0
 40
0.5
100
AcDbArc
 50
79.8987097098768
 51
180.0
  0
ARC
  5
132
330
79
100
AcDbEntity
  8
1
  6
Continuous
 62
     1
100
AcDbCircle
 10
74.6397875487521
 20
21.30713051797019
 30
0.0
 40
0.5
100
AcDbArc
 50
79.8987097098768
 51
180.0
  0
LINE
  5
133
330
79
100
AcDbEntity
  8
1
  6
Continuous
 62
     1
100
AcDbLine
 10
48.50528226400176
 20
4.289877662446699
 30
0.0
 11
47.44266927753874
 21
4.262052162124817
 31
0.0
  0
ARC
  5
134
330
79
100
AcDbEntity
  8
1
  6
Continuous
 62
     1
100
AcDbCircle
 10
47.45052236203098
 20
3.962154964632191
 30
0.0
 40
0.3000000000000071
100
AcDbArc
 50
91.49570099999595
 51
181.4957009999987
  0
ARC
  5
135
330
79
100
AcDbEntity
  8
1
  6
Continuous
 62
     1
100
AcDbCircle
 10
47.45052236203098
 20
3.962154964632191
 30
0.0
 40
0.3000000000000071
100
AcDbArc
 50
91.49570099999595
 51
181.4957009999987
  0
LINE
  5
136
330
79
100
AcDbEntity
  8
1
  6
Continuous
 62
     1
100
AcDbLine
 10
47.15062516453843
 20
3.954301880140051
 30
0.0
 11
47.15422446740892
 21
3.816850048964653
 31
0.0
  0
LINE
  5
137
330
79
100
AcDbEntity
  8
1
  6
Continuous
 62
     1
100
AcDbLine
 10
47.15422446740892
 20
3.816850048964653
 30
0.0
 11
45.57259727602242
 21
3.193830529754266
 31
0.0
  0
ARC
  5
138
330
79
100
AcDbEntity
  8
1
  6
Continuous
 62
     1
100
AcDbCircle
 10
45.46264690800471
 20
3.472955800151482
 30
0.0
 40
0.3000000000025891
100
AcDbArc
 50
176.4999999986448
 51
291.4999999998941
  0
ARC
  5
139
330
79
100
AcDbEntity
  8
1
  6
Continuous
 62
     1
100
AcDbCircle
 10
45.46264690800471
 20
3.472955800151482
 30
0.0
 40
0.3000000000025891
100
AcDbArc
 50
176.4999999986448
 51
291.4999999998941
  0
LINE
  5
13A
330
79
100
AcDbEntity
  8
1
  6
Continuous
 62
     1
100
AcDbLine
 10
45.16320646847605
 20
3.491270362019208
 30
0.0
 11
45.31461032701328
 21
5.966701567706707
 31
0.0
  0
LINE
  5
13B
330
79
100
AcDbEntity
  8
1
  6
Continuous
 62
     1
100
AcDbLine
 10
45.31461032701328
 20
5.966701567706707
 30
0.0
 11
45.74419343495508
 21
6.4193877090119
 31
0.0
  0
ARC
  5
13C
330
79
100
AcDbEntity
  8
1
  6
Continuous
 62
     1
100
AcDbCircle
 10
45.88926830915763
 20
6.281716793871055
 30
0.0
 40
0.2000000000015682
100
AcDbArc
 50
16.49999999930962
 51
136.4999999995625
  0
ARC
  5
13D
330
79
100
AcDbEntity
  8
1
  6
Continuous
 62
     1
100
AcDbCircle
 10
45.88926830915763
 20
6.281716793871055
 30
0.0
 40
0.2000000000015682
100
AcDbArc
 50
16.49999999930962
 51
136.4999999995625
  0
LINE
  5
13E
330
79
100
AcDbEntity
  8
1
  6
Continuous
 62
     1
100
AcDbLine
 10
46.08103225613353
 20
6.338519862810003
 30
0.0
 11
46.16406671359836
 21
6.058200232275325
 31
0.0
  0
LINE
  5
13F
330
79
100
AcDbEntity
  8
1
  6
Continuous
 62
     1
100
AcDbLine
 10
46.16406671359836
 20
6.058200232275325
 30
0.0
 11
48.30929925381487
 21
5.548183600197092
 31
0.0
  0
LINE
  5
140
330
79
100
AcDbEntity
  8
1
  6
Continuous
 62
     1
100
AcDbLine
 10
48.30929925381487
 20
5.548183600197092
 30
0.0
 11
48.50923071881094
 21
5.553418989858699
 31
0.0
  0
ARC
  5
141
330
79
100
AcDbEntity
  8
1
  6
Continuous
 62
     1
100
AcDbCircle
 10
48.50137763431867
 20
5.853316187351183
 30
0.0
 40
0.2999999999998432
100
AcDbArc
 50
271.4957009999968
 51
72.02877936593458
  0
ARC
  5
142
330
79
100
AcDbEntity
  8
1
  6
Continuous
 62
     1
100
AcDbCircle
 10
48.50137763431867
 20
5.853316187351183
 30
0.0
 40
0.2999999999998432
100
AcDbArc
 50
271.4957009999968
 51
72.02877936593458
  0
ARC
  5
143
330
79
100
AcDbEntity
  8
1
  6
Continuous
 62
     1
100
AcDbCircle
 10
48.18888529159919
 20
10.1466072950841
 30
0.0
 40
0.3000000000009057
100
AcDbArc
 50
1.495701000005044
 51
91.49570099999691
  0
ARC
  5
144
330
79
100
AcDbEntity
  8
1
  6
Continuous
 62
     1
100
AcDbCircle
 10
48.18888529159919
 20
10.1466072950841
 30
0.0
 40
0.3000000000009057
100
AcDbArc
 50
1.495701000005044
 51
91.49570099999691
  0
LINE
  5
145
330
79
100
AcDbEntity
  8
1
  6
Continuous
 62
     1
100
AcDbLine
 10
48.18103220710644
 20
10.4465044925776
 30
0.0
 11
47.88113500961477
 21
10.43865140808505
 31
0.0
  0
LINE
  5
146
330
79
100
AcDbEntity
  8
1
  6
Continuous
 62
     1
100
AcDbLine
 10
47.88113500961477
 20
10.43865140808505
 30
0.0
 11
46.31138219972642
 21
9.423132772701607
 31
0.0
  0
ARC
  5
147
330
79
100
AcDbEntity
  8
1
  6
Continuous
 62
     1
100
AcDbCircle
 10
46.20274730973584
 20
9.591056745612192
 30
0.0
 40
0.2000000000032787
100
AcDbArc
 50
181.4957010000026
 51
302.8999999995394
  0
ARC
  5
148
330
79
100
AcDbEntity
  8
1
  6
Continuous
 62
     1
100
AcDbCircle
 10
46.20274730973584
 20
9.591056745612192
 30
0.0
 40
0.2000000000032787
100
AcDbArc
 50
181.4957010000026
 51
302.8999999995394
  0
LINE
  5
149
330
79
100
AcDbEntity
  8
1
  6
Continuous
 62
     1
100
AcDbLine
 10
46.0028158447375
 20
9.58582135595151
 30
0.0
 11
45.97338285762523
 21
10.70982178629703
 31
0.0
  0
LINE
  5
14A
330
79
100
AcDbEntity
  8
1
  6
Continuous
 62
     1
100
AcDbLine
 10
35.35481413801902
 20
3.639860975005263
 30
0.0
 11
35.35841344088998
 21
3.502409143829226
 31
0.0
  0
ARC
  5
14B
330
79
100
AcDbEntity
  8
1
  6
Continuous
 62
     1
100
AcDbCircle
 10
46.9730401826008
 20
10.73599873460446
 30
0.0
 40
1.0
100
AcDbArc
 50
91.49999999999946
 51
181.499999999975
  0
ARC
  5
14C
330
79
100
AcDbEntity
  8
1
  6
Continuous
 62
     1
100
AcDbCircle
 10
46.9730401826008
 20
10.73599873460446
 30
0.0
 40
1.0
100
AcDbArc
 50
91.49999999999946
 51
181.499999999975
  0
ARC
  5
14D
330
79
100
AcDbEntity
  8
1
  6
Continuous
 62
     1
100
AcDbCircle
 10
48.51182650107872
 20
4.039963331202813
 30
0.0
 40
0.25
100
AcDbArc
 50
1.629865189239955
 51
91.49999999999623
  0
ARC
  5
14E
330
79
100
AcDbEntity
  8
1
  6
Continuous
 62
     1
100
AcDbCircle
 10
48.51182650107872
 20
4.039963331202813
 30
0.0
 40
0.25
100
AcDbArc
 50
1.629865189239955
 51
91.49999999999623
  0
ARC
  5
14F
330
79
100
AcDbEntity
  8
1
  6
Continuous
 62
     1
100
AcDbCircle
 10
71.12714138636213
 20
16.05227097026273
 30
0.0
 40
0.25
100
AcDbArc
 50
172.3870427177526
 51
277.6206458820326
  0
ARC
  5
150
330
79
100
AcDbEntity
  8
1
  6
Continuous
 62
     1
100
AcDbCircle
 10
71.12714138636213
 20
16.05227097026273
 30
0.0
 40
0.25
100
AcDbArc
 50
172.3870427177526
 51
277.6206458820326
  0
ARC
  5
151
330
79
100
AcDbEntity
  8
1
  6
Continuous
 62
     1
100
AcDbCircle
 10
68.65226765777994
 20
16.0521049169006
 30
0.0
 40
0.25
100
AcDbArc
 50
262.3870427177673
 51
7.620645882016538
  0
ARC
  5
152
330
79
100
AcDbEntity
  8
1
  6
Continuous
 62
     1
100
AcDbCircle
 10
68.65226765777994
 20
16.0521049169006
 30
0.0
 40
0.25
100
AcDbArc
 50
262.3870427177673
 51
7.620645882016538
  0
ARC
  5
153
330
79
100
AcDbEntity
  8
1
  6
Continuous
 62
     1
100
AcDbCircle
 10
68.65243371114207
 20
13.57723118831842
 30
0.0
 40
0.25
100
AcDbArc
 50
352.3870427177624
 51
97.62064588202298
  0
ARC
  5
154
330
79
100
AcDbEntity
  8
1
  6
Continuous
 62
     1
100
AcDbCircle
 10
68.65243371114207
 20
13.57723118831842
 30
0.0
 40
0.25
100
AcDbArc
 50
352.3870427177624
 51
97.62064588202298
  0
ARC
  5
155
330
79
100
AcDbEntity
  8
1
  6
Continuous
 62
     1
100
AcDbCircle
 10
51.23300714942481
 20
4.564074304384704
 30
0.0
 40
0.25
100
AcDbArc
 50
262.3552981986167
 51
7.588901362914946
  0
ARC
  5
156
330
79
100
AcDbEntity
  8
1
  6
Continuous
 62
     1
100
AcDbCircle
 10
51.23300714942481
 20
4.564074304384704
 30
0.0
 40
0.25
100
AcDbArc
 50
262.3552981986167
 51
7.588901362914946
  0
ARC
  5
157
330
79
100
AcDbEntity
  8
1
  6
Continuous
 62
     1
100
AcDbCircle
 10
53.7078805901555
 20
4.562869162965569
 30
0.0
 40
0.25
100
AcDbArc
 50
172.3552981986102
 51
277.5889013629186
  0
ARC
  5
158
330
79
100
AcDbEntity
  8
1
  6
Continuous
 62
     1
100
AcDbCircle
 10
53.7078805901555
 20
4.562869162965569
 30
0.0
 40
0.25
100
AcDbArc
 50
172.3552981986102
 51
277.5889013629186
  0
ARC
  5
159
330
79
100
AcDbEntity
  8
1
  6
Continuous
 62
     1
100
AcDbCircle
 10
51.23180200800567
 20
2.089200863654014
 30
0.0
 40
0.25
100
AcDbArc
 50
352.3552981986264
 51
97.58890136289837
  0
ARC
  5
15A
330
79
100
AcDbEntity
  8
1
  6
Continuous
 62
     1
100
AcDbCircle
 10
51.23180200800567
 20
2.089200863654014
 30
0.0
 40
0.25
100
AcDbArc
 50
352.3552981986264
 51
97.58890136289837
  0
ARC
  5
15B
330
79
100
AcDbEntity
  8
1
  6
Continuous
 62
     1
100
AcDbCircle
 10
53.77391278097328
 20
4.067248592593245
 30
0.0
 40
0.25
100
AcDbArc
 50
29.61321419992607
 51
97.58890136291862
  0
ARC
  5
15C
330
79
100
AcDbEntity
  8
1
  6
Continuous
 62
     1
100
AcDbCircle
 10
53.77391278097328
 20
4.067248592593245
 30
0.0
 40
0.25
100
AcDbArc
 50
29.61321419992607
 51
97.58890136291862
  0
ARC
  5
15D
330
79
100
AcDbEntity
  8
1
  6
Continuous
 62
     1
100
AcDbCircle
 10
53.2123245636585
 20
4.629384007946953
 30
0.0
 40
0.25
100
AcDbArc
 50
352.3552981986134
 51
60.33098536160095
  0
ARC
  5
15E
330
79
100
AcDbEntity
  8
1
  6
Continuous
 62
     1
100
AcDbCircle
 10
53.2123245636585
 20
4.629384007946953
 30
0.0
 40
0.25
100
AcDbArc
 50
352.3552981986134
 51
60.33098536160095
  0
ARC
  5
15F
330
79
100
AcDbEntity
  8
1
  6
Continuous
 62
     1
100
AcDbCircle
 10
51.72862771979676
 20
4.630106495202412
 30
0.0
 40
0.25
100
AcDbArc
 50
119.6132141999406
 51
187.5889013629149
  0
ARC
  5
160
330
79
100
AcDbEntity
  8
1
  6
Continuous
 62
     1
100
AcDbCircle
 10
51.72862771979676
 20
4.630106495202412
 30
0.0
 40
0.25
100
AcDbArc
 50
119.6132141999406
 51
187.5889013629149
  0
ARC
  5
161
330
79
100
AcDbEntity
  8
1
  6
Continuous
 62
     1
100
AcDbCircle
 10
51.16649230444349
 20
4.068518277888089
 30
0.0
 40
0.25
100
AcDbArc
 50
82.35529819861334
 51
150.3309853615892
  0
ARC
  5
162
330
79
100
AcDbEntity
  8
1
  6
Continuous
 62
     1
100
AcDbCircle
 10
51.16649230444349
 20
4.068518277888089
 30
0.0
 40
0.25
100
AcDbArc
 50
82.35529819861334
 51
150.3309853615892
  0
ARC
  5
163
330
79
100
AcDbEntity
  8
1
  6
Continuous
 62
     1
100
AcDbCircle
 10
51.16576981718812
 20
2.584821434025983
 30
0.0
 40
0.25
100
AcDbArc
 50
209.6132141999434
 51
277.5889013628952
  0
ARC
  5
164
330
79
100
AcDbEntity
  8
1
  6
Continuous
 62
     1
100
AcDbCircle
 10
51.16576981718812
 20
2.584821434025983
 30
0.0
 40
0.25
100
AcDbArc
 50
209.6132141999434
 51
277.5889013628952
  0
ARC
  5
165
330
79
100
AcDbEntity
  8
1
  6
Continuous
 62
     1
100
AcDbCircle
 10
51.72735803450239
 20
2.022686018672786
 30
0.0
 40
0.25
100
AcDbArc
 50
172.3552981986268
 51
240.3309853615892
  0
ARC
  5
166
330
79
100
AcDbEntity
  8
1
  6
Continuous
 62
     1
100
AcDbCircle
 10
51.72735803450239
 20
2.022686018672786
 30
0.0
 40
0.25
100
AcDbArc
 50
172.3552981986268
 51
240.3309853615892
  0
ARC
  5
167
330
79
100
AcDbEntity
  8
1
  6
Continuous
 62
     1
100
AcDbCircle
 10
71.19344816381285
 20
15.55668706085463
 30
0.0
 40
0.25
100
AcDbArc
 50
29.64495871906774
 51
97.62064588203268
  0
ARC
  5
168
330
79
100
AcDbEntity
  8
1
  6
Continuous
 62
     1
100
AcDbCircle
 10
71.19344816381285
 20
15.55668706085463
 30
0.0
 40
0.25
100
AcDbArc
 50
29.64495871906774
 51
97.62064588203268
  0
ARC
  5
169
330
79
100
AcDbEntity
  8
1
  6
Continuous
 62
     1
100
AcDbCircle
 10
70.6315485836181
 20
16.11851124402737
 30
0.0
 40
0.25
100
AcDbArc
 50
352.3870427177525
 51
60.36272988072072
  0
ARC
  5
16A
330
79
100
AcDbEntity
  8
1
  6
Continuous
 62
     1
100
AcDbCircle
 10
70.6315485836181
 20
16.11851124402737
 30
0.0
 40
0.25
100
AcDbArc
 50
352.3870427177525
 51
60.36272988072072
  0
ARC
  5
16B
330
79
100
AcDbEntity
  8
1
  6
Continuous
 62
     1
100
AcDbCircle
 10
69.14785156718773
 20
16.11841169435114
 30
0.0
 40
0.25
100
AcDbArc
 50
119.6449587190795
 51
187.6206458820165
  0
ARC
  5
16C
330
79
100
AcDbEntity
  8
1
  6
Continuous
 62
     1
100
AcDbCircle
 10
69.14785156718773
 20
16.11841169435114
 30
0.0
 40
0.25
100
AcDbArc
 50
119.6449587190795
 51
187.6206458820165
  0
ARC
  5
16D
330
79
100
AcDbEntity
  8
1
  6
Continuous
 62
     1
100
AcDbCircle
 10
68.58602738401547
 20
15.55651211415686
 30
0.0
 40
0.25
100
AcDbArc
 50
82.38704271776773
 51
150.362729880704
  0
ARC
  5
16E
330
79
100
AcDbEntity
  8
1
  6
Continuous
 62
     1
100
AcDbCircle
 10
68.58602738401547
 20
15.55651211415686
 30
0.0
 40
0.25
100
AcDbArc
 50
82.38704271776773
 51
150.362729880704
  0
ARC
  5
16F
330
79
100
AcDbEntity
  8
1
  6
Continuous
 62
     1
100
AcDbCircle
 10
68.58612693369147
 20
14.07281509772629
 30
0.0
 40
0.25
100
AcDbArc
 50
209.6449587190722
 51
277.6206458820213
  0
ARC
  5
170
330
79
100
AcDbEntity
  8
1
  6
Continuous
 62
     1
100
AcDbCircle
 10
68.58612693369147
 20
14.07281509772629
 30
0.0
 40
0.25
100
AcDbArc
 50
209.6449587190722
 51
277.6206458820213
  0
ARC
  5
171
330
79
100
AcDbEntity
  8
1
  6
Continuous
 62
     1
100
AcDbCircle
 10
69.1480265138859
 20
13.51099091455389
 30
0.0
 40
0.25
100
AcDbArc
 50
172.3870427177625
 51
240.362729880709
  0
ARC
  5
172
330
79
100
AcDbEntity
  8
1
  6
Continuous
 62
     1
100
AcDbCircle
 10
69.1480265138859
 20
13.51099091455389
 30
0.0
 40
0.25
100
AcDbArc
 50
172.3870427177625
 51
240.362729880709
  0
ARC
  5
173
330
79
100
AcDbEntity
  8
1
  6
Continuous
 62
     1
100
AcDbCircle
 10
71.88978754875204
 20
21.31475107929057
 30
0.0
 40
0.25
100
AcDbArc
 50
0.0
 51
90.0
  0
ARC
  5
174
330
79
100
AcDbEntity
  8
1
  6
Continuous
 62
     1
100
AcDbCircle
 10
71.88978754875204
 20
21.31475107929057
 30
0.0
 40
0.25
100
AcDbArc
 50
0.0
 51
90.0
  0
ARC
  5
175
330
79
100
AcDbEntity
  8
1
  6
Continuous
 62
     1
100
AcDbCircle
 10
71.88978754875204
 20
18.81475107929057
 30
0.0
 40
0.25
100
AcDbArc
 50
270.0
 51
0.0
  0
ARC
  5
176
330
79
100
AcDbEntity
  8
1
  6
Continuous
 62
     1
100
AcDbCircle
 10
71.88978754875204
 20
18.81475107929057
 30
0.0
 40
0.25
100
AcDbArc
 50
270.0
 51
0.0
  0
ARC
  5
177
330
79
100
AcDbEntity
  8
1
  6
Continuous
 62
     1
100
AcDbCircle
 10
67.34689432993858
 20
18.81475107929057
 30
0.0
 40
0.25
100
AcDbArc
 50
199.4712206344914
 51
270.0
  0
ARC
  5
178
330
79
100
AcDbEntity
  8
1
  6
Continuous
 62
     1
100
AcDbCircle
 10
67.34689432993858
 20
18.81475107929057
 30
0.0
 40
0.25
100
AcDbArc
 50
199.4712206344914
 51
270.0
  0
ARC
  5
179
330
79
100
AcDbEntity
  8
1
  6
Continuous
 62
     1
100
AcDbCircle
 10
65.8897875487521
 20
13.81475107929057
 30
0.0
 40
0.25
100
AcDbArc
 50
270.0
 51
0.0
  0
ARC
  5
17A
330
79
100
AcDbEntity
  8
1
  6
Continuous
 62
     1
100
AcDbCircle
 10
65.8897875487521
 20
13.81475107929057
 30
0.0
 40
0.25
100
AcDbArc
 50
270.0
 51
0.0
  0
ARC
  5
17B
330
79
100
AcDbEntity
  8
1
  6
Continuous
 62
     1
100
AcDbCircle
 10
59.8897875487521
 20
13.81475107929057
 30
0.0
 40
0.25
100
AcDbArc
 50
180.0
 51
270.0
  0
ARC
  5
17C
330
79
100
AcDbEntity
  8
1
  6
Continuous
 62
     1
100
AcDbCircle
 10
59.8897875487521
 20
13.81475107929057
 30
0.0
 40
0.25
100
AcDbArc
 50
180.0
 51
270.0
  0
ARC
  5
17D
330
79
100
AcDbEntity
  8
1
  6
Continuous
 62
     1
100
AcDbCircle
 10
66.38978754875204
 20
21.81475107929057
 30
0.0
 40
0.25
100
AcDbArc
 50
180.0
 51
270.0
  0
ARC
  5
17E
330
79
100
AcDbEntity
  8
1
  6
Continuous
 62
     1
100
AcDbCircle
 10
66.38978754875204
 20
21.81475107929057
 30
0.0
 40
0.25
100
AcDbArc
 50
180.0
 51
270.0
  0
ARC
  5
17F
330
79
100
AcDbEntity
  8
1
  6
Continuous
 62
     1
100
AcDbCircle
 10
65.88978754875204
 20
22.31475107929057
 30
0.0
 40
0.25
100
AcDbArc
 50
0.0
 51
90.0
  0
ARC
  5
180
330
79
100
AcDbEntity
  8
1
  6
Continuous
 62
     1
100
AcDbCircle
 10
65.88978754875204
 20
22.31475107929057
 30
0.0
 40
0.25
100
AcDbArc
 50
0.0
 51
90.0
  0
ARC
  5
181
330
79
100
AcDbEntity
  8
1
  6
Continuous
 62
     1
100
AcDbCircle
 10
80.11222243194138
 20
23.14735075634215
 30
0.0
 40
0.25
100
AcDbArc
 50
199.1138535755342
 51
259.043044272672
  0
ARC
  5
182
330
79
100
AcDbEntity
  8
1
  6
Continuous
 62
     1
100
AcDbCircle
 10
80.11222243194138
 20
23.14735075634215
 30
0.0
 40
0.25
100
AcDbArc
 50
199.1138535755342
 51
259.043044272672
  0
ARC
  5
183
330
79
100
AcDbEntity
  8
1
  6
Continuous
 62
     1
100
AcDbCircle
 10
75.10727438849688
 20
24.041195806396
 30
0.0
 40
0.25
100
AcDbArc
 50
200.7761068862951
 51
260.7052975819946
  0
ARC
  5
184
330
79
100
AcDbEntity
  8
1
  6
Continuous
 62
     1
100
AcDbCircle
 10
75.10727438849688
 20
24.041195806396
 30
0.0
 40
0.25
100
AcDbArc
 50
200.7761068862951
 51
260.7052975819946
  0
ARC
  5
185
330
79
100
AcDbEntity
  8
1
  6
Continuous
 62
     1
100
AcDbCircle
 10
79.26097331055196
 20
23.30997060136416
 30
0.0
 40
0.25
100
AcDbArc
 50
259.326382607403
 51
319.255573304543
  0
ARC
  5
186
330
79
100
AcDbEntity
  8
1
  6
Continuous
 62
     1
100
AcDbCircle
 10
79.26097331055196
 20
23.30997060136416
 30
0.0
 40
0.25
100
AcDbArc
 50
259.326382607403
 51
319.255573304543
  0
ARC
  5
187
330
79
100
AcDbEntity
  8
1
  6
Continuous
 62
     1
100
AcDbCircle
 10
74.25166625195567
 20
24.17905441968664
 30
0.0
 40
0.25
100
AcDbArc
 50
260.988635916709
 51
320.9178266124098
  0
ARC
  5
188
330
79
100
AcDbEntity
  8
1
  6
Continuous
 62
     1
100
AcDbCircle
 10
74.25166625195567
 20
24.17905441968664
 30
0.0
 40
0.25
100
AcDbArc
 50
260.988635916709
 51
320.9178266124098
  0
ARC
  5
189
330
79
100
AcDbEntity
  8
1
  6
Continuous
 62
     1
100
AcDbCircle
 10
69.24272687595288
 20
24.89943530483118
 30
0.0
 40
0.25
100
AcDbArc
 50
262.6431524320804
 51
322.5723431292149
  0
ARC
  5
18A
330
79
100
AcDbEntity
  8
1
  6
Continuous
 62
     1
100
AcDbCircle
 10
69.24272687595288
 20
24.89943530483118
 30
0.0
 40
0.25
100
AcDbArc
 50
262.6431524320804
 51
322.5723431292149
  0
ARC
  5
18B
330
79
100
AcDbEntity
  8
1
  6
Continuous
 62
     1
100
AcDbCircle
 10
70.10195866245873
 20
24.78633792325589
 30
0.0
 40
0.25
100
AcDbArc
 50
202.4306234002147
 51
262.3598140973496
  0
ARC
  5
18C
330
79
100
AcDbEntity
  8
1
  6
Continuous
 62
     1
100
AcDbCircle
 10
70.10195866245873
 20
24.78633792325589
 30
0.0
 40
0.25
100
AcDbArc
 50
202.4306234002147
 51
262.3598140973496
  0
LINE
  5
18D
330
79
100
AcDbEntity
  8
1
  6
Continuous
 62
     1
100
AcDbLine
 10
48.59393940775087
 20
6.138679671523548
 30
0.0
 11
48.48878248909271
 21
10.15446037957686
 31
0.0
  0
ARC
  5
18E
330
79
100
AcDbEntity
  8
1
  6
Continuous
 62
     2
100
AcDbCircle
 10
43.43734654313572
 20
7.345607790054117
 30
0.0
 40
0.5
100
AcDbArc
 50
181.4957010000003
 51
271.4957010000035
  0
ARC
  5
18F
330
79
100
AcDbEntity
  8
1
  6
Continuous
 62
     2
100
AcDbCircle
 10
43.43734654313572
 20
7.345607790054117
 30
0.0
 40
0.5
100
AcDbArc
 50
181.4957010000003
 51
271.4957010000035
  0
LINE
  5
190
330
79
100
AcDbEntity
  8
1
  6
Continuous
 62
     2
100
AcDbLine
 10
42.9375178806476
 20
7.332519315900171
 30
0.0
 11
42.87824689242451
 21
9.595987037151616
 31
0.0
  0
LINE
  5
191
330
79
100
AcDbEntity
  8
1
  6
Continuous
 62
     2
100
AcDbLine
 10
42.87824689242451
 20
9.595987037151616
 30
0.0
 11
39.34743177413712
 21
9.503529389388817
 31
0.0
  0
LINE
  5
192
330
79
100
AcDbEntity
  8
1
  6
Continuous
 62
     2
100
AcDbLine
 10
39.34743177413712
 20
9.503529389388817
 30
0.0
 11
39.40670276236021
 21
7.240061668137287
 31
0.0
  0
ARC
  5
193
330
79
100
AcDbEntity
  8
1
  6
Continuous
 62
     2
100
AcDbCircle
 10
38.90687409987258
 20
7.226973193983383
 30
0.0
 40
0.5
100
AcDbArc
 50
271.495700999997
 51
1.495701000000297
  0
ARC
  5
194
330
79
100
AcDbEntity
  8
1
  6
Continuous
 62
     2
100
AcDbCircle
 10
38.90687409987258
 20
7.226973193983383
 30
0.0
 40
0.5
100
AcDbArc
 50
271.495700999997
 51
1.495701000000297
  0
LINE
  5
195
330
79
100
AcDbEntity
  8
1
  6
Continuous
 62
     2
100
AcDbLine
 10
38.91996257402643
 20
6.727144531495696
 30
0.0
 11
36.68731077706509
 21
6.668680486649095
 31
0.0
  0
LINE
  5
196
330
79
100
AcDbEntity
  8
1
  6
Continuous
 62
     2
100
AcDbLine
 10
36.68731077706509
 20
6.668680486649095
 30
0.0
 11
34.80267695223868
 21
5.562499543261055
 31
0.0
  0
LINE
  5
197
330
79
100
AcDbEntity
  8
1
  6
Continuous
 62
     2
100
AcDbLine
 10
33.7778707245681
 20
5.535664047759695
 30
0.0
 11
34.80267695223868
 21
5.562499543261055
 31
0.0
  0
LINE
  5
198
330
79
100
AcDbEntity
  8
1
  6
Continuous
 62
     2
100
AcDbLine
 10
34.2479076257503
 20
5.547972397188659
 30
0.0
 11
37.04785369679659
 21
8.71273572340776
 31
0.0
  0
LINE
  5
199
330
79
100
AcDbEntity
  8
1
  6
Continuous
 62
     2
100
AcDbLine
 10
33.66817006111727
 20
9.724963368809014
 30
0.0
 11
33.7778707245681
 21
5.535664047759695
 31
0.0
  0
LINE
  5
19A
330
79
100
AcDbEntity
  8
1
  6
Continuous
 62
     2
100
AcDbLine
 10
34.6929762887879
 20
9.75179886431036
 30
0.0
 11
33.66817006111727
 21
9.724963368809014
 31
0.0
  0
LINE
  5
19B
330
79
100
AcDbEntity
  8
1
  6
Continuous
 62
     2
100
AcDbLine
 10
34.6929762887879
 20
9.75179886431036
 30
0.0
 11
36.60319896125937
 21
8.667359752239875
 31
0.0
  0
LINE
  5
19C
330
79
100
AcDbEntity
  8
1
  6
Continuous
 62
     2
100
AcDbLine
 10
36.60319896125937
 20
8.667359752239875
 30
0.0
 11
36.86828889262124
 21
8.674301376391199
 31
0.0
  0
ARC
  5
19D
330
79
100
AcDbEntity
  8
1
  6
Continuous
 62
     2
100
AcDbCircle
 10
36.85520041846731
 20
9.174130038879056
 30
0.0
 40
0.5
100
AcDbArc
 50
271.495700999997
 51
1.495700999998669
  0
ARC
  5
19E
330
79
100
AcDbEntity
  8
1
  6
Continuous
 62
     2
100
AcDbCircle
 10
36.85520041846731
 20
9.174130038879056
 30
0.0
 40
0.5
100
AcDbArc
 50
271.495700999997
 51
1.495700999998669
  0
LINE
  5
19F
330
79
100
AcDbEntity
  8
1
  6
Continuous
 62
     2
100
AcDbLine
 10
37.35502908095502
 20
9.187218513032974
 30
0.0
 11
37.30885170172421
 21
10.95066148023639
 31
0.0
  0
ARC
  5
1A0
330
79
100
AcDbEntity
  8
1
  6
Continuous
 62
     2
100
AcDbCircle
 10
37.8086803642119
 20
10.96374995439034
 30
0.0
 40
0.5
100
AcDbArc
 50
91.49570100000031
 51
181.4957010000035
  0
ARC
  5
1A1
330
79
100
AcDbEntity
  8
1
  6
Continuous
 62
     2
100
AcDbCircle
 10
37.8086803642119
 20
10.96374995439034
 30
0.0
 40
0.5
100
AcDbArc
 50
91.49570100000031
 51
181.4957010000035
  0
LINE
  5
1A2
330
79
100
AcDbEntity
  8
1
  6
Continuous
 62
     2
100
AcDbLine
 10
37.79559189005799
 20
11.46357861687815
 30
0.0
 11
44.3253789832725
 21
11.63456710956459
 31
0.0
  0
ARC
  5
1A3
330
79
100
AcDbEntity
  8
1
  6
Continuous
 62
     2
100
AcDbCircle
 10
44.33846745742635
 20
11.13473844707677
 30
0.0
 40
0.5
100
AcDbArc
 50
1.495701000000297
 51
91.49570099999868
  0
ARC
  5
1A4
330
79
100
AcDbEntity
  8
1
  6
Continuous
 62
     2
100
AcDbCircle
 10
44.33846745742635
 20
11.13473844707677
 30
0.0
 40
0.5
100
AcDbArc
 50
1.495701000000297
 51
91.49570099999868
  0
LINE
  5
1A5
330
79
100
AcDbEntity
  8
1
  6
Continuous
 62
     2
100
AcDbLine
 10
44.83829611991409
 20
11.14782692123066
 30
0.0
 11
44.8844734991449
 21
9.384383954027328
 31
0.0
  0
ARC
  5
1A6
330
79
100
AcDbEntity
  8
1
  6
Continuous
 62
     2
100
AcDbCircle
 10
45.38430216163265
 20
9.397472428181231
 30
0.0
 40
0.5
100
AcDbArc
 50
181.4957010000003
 51
271.4957010000003
  0
ARC
  5
1A7
330
79
100
AcDbEntity
  8
1
  6
Continuous
 62
     2
100
AcDbCircle
 10
45.38430216163265
 20
9.397472428181231
 30
0.0
 40
0.5
100
AcDbArc
 50
181.4957010000003
 51
271.4957010000003
  0
LINE
  5
1A8
330
79
100
AcDbEntity
  8
1
  6
Continuous
 62
     2
100
AcDbLine
 10
45.66248056714387
 20
8.904585389844698
 30
0.0
 11
47.59639004983966
 21
10.08968664503196
 31
0.0
  0
LINE
  5
1A9
330
79
100
AcDbEntity
  8
1
  6
Continuous
 62
     2
100
AcDbLine
 10
48.48986599034744
 20
10.11308313593408
 30
0.0
 11
47.59639004983966
 21
10.08968664503196
 31
0.0
  0
LINE
  5
1AA
330
79
100
AcDbEntity
  8
1
  6
Continuous
 62
     2
100
AcDbLine
 10
48.59956665379825
 20
5.923783814884871
 30
0.0
 11
48.48878248909271
 21
10.15446037957686
 31
0.0
  0
LINE
  5
1AB
330
79
100
AcDbEntity
  8
1
  6
Continuous
 62
     2
100
AcDbLine
 10
47.60347655814333
 20
5.897700277764201
 30
0.0
 11
48.59956665379825
 21
5.923783814884871
 31
0.0
  0
LINE
  5
1AC
330
79
100
AcDbEntity
  8
1
  6
Continuous
 62
     2
100
AcDbLine
 10
47.60347655814333
 20
5.897700277764201
 30
0.0
 11
45.74659238294963
 21
6.905906124254045
 31
0.0
  0
LINE
  5
1AD
330
79
100
AcDbEntity
  8
1
  6
Continuous
 62
     2
100
AcDbLine
 10
45.74659238294963
 20
6.905906124254045
 30
0.0
 11
43.45043501728962
 21
6.845779127566303
 31
0.0
  0
LINE
  5
1AE
330
79
100
AcDbEntity
  8
1
  6
Continuous
 62
     2
100
AcDbLine
 10
48.35218302526538
 20
5.917305846590637
 30
0.0
 11
48.592619883295
 21
6.189070277495972
 31
0.0
  0
LINE
  5
1AF
330
79
100
AcDbEntity
  8
1
  6
Continuous
 62
     2
100
AcDbLine
 10
48.2991955474423
 20
5.915918320652366
 30
0.0
 11
41.90701711503054
 21
11.57124007535668
 31
0.0
  0
LINE
  5
1B0
330
79
100
AcDbEntity
  8
1
  6
Continuous
 62
     2
100
AcDbLine
 10
47.38160715675336
 20
6.018165533824373
 30
0.0
 11
48.56215360370253
 21
7.352530555650816
 31
0.0
  0
LINE
  5
1B1
330
79
100
AcDbEntity
  8
1
  6
Continuous
 62
     2
100
AcDbLine
 10
46.66569735165318
 20
6.406872842930099
 30
0.0
 11
48.53168732410965
 21
8.515990833804949
 31
0.0
  0
LINE
  5
1B2
330
79
100
AcDbEntity
  8
1
  6
Continuous
 62
     2
100
AcDbLine
 10
45.9497875465534
 20
6.795580152036493
 30
0.0
 11
48.50122104451673
 21
9.67945111195975
 31
0.0
  0
LINE
  5
1B3
330
79
100
AcDbEntity
  8
1
  6
Continuous
 62
     2
100
AcDbLine
 10
44.96958555315619
 20
6.885559484350296
 30
0.0
 11
47.80929013303459
 21
10.0952616299122
 31
0.0
  0
LINE
  5
1B4
330
79
100
AcDbEntity
  8
1
  6
Continuous
 62
     2
100
AcDbLine
 10
43.88464129165526
 20
6.857149219011916
 30
0.0
 11
45.73582334476468
 21
8.949529901775179
 31
0.0
  0
LINE
  5
1B5
330
79
100
AcDbEntity
  8
1
  6
Continuous
 62
     2
100
AcDbLine
 10
43.01718517184911
 20
7.074564579331678
 30
0.0
 11
44.91639367198756
 21
9.221229285568228
 31
0.0
  0
LINE
  5
1B6
330
79
100
AcDbEntity
  8
1
  6
Continuous
 62
     2
100
AcDbLine
 10
42.91590239605721
 20
8.157981369369992
 30
0.0
 11
44.85907436542998
 21
10.35433773808776
 31
0.0
  0
LINE
  5
1B7
330
79
100
AcDbEntity
  8
1
  6
Continuous
 62
     2
100
AcDbLine
 10
42.88543611646473
 20
9.321441647524864
 30
0.0
 11
44.74599865548142
 21
11.42442504085056
 31
0.0
  0
LINE
  5
1B8
330
79
100
AcDbEntity
  8
1
  6
Continuous
 62
     2
100
AcDbLine
 10
42.04932034858031
 20
9.574280831688029
 30
0.0
 11
43.86135752497991
 21
11.62241628005113
 31
0.0
  0
LINE
  5
1B9
330
79
100
AcDbEntity
  8
1
  6
Continuous
 62
     2
100
AcDbLine
 10
40.96437608707889
 20
9.545870566349393
 30
0.0
 11
42.776413263479
 21
11.59400601471273
 31
0.0
  0
LINE
  5
1BA
330
79
100
AcDbEntity
  8
1
  6
Continuous
 62
     2
100
AcDbLine
 10
39.8794318255771
 20
9.517460301010274
 30
0.0
 11
41.69146900197721
 21
11.56559574937387
 31
0.0
  0
LINE
  5
1BB
330
79
100
AcDbEntity
  8
1
  6
Continuous
 62
     2
100
AcDbLine
 10
40.61299264928367
 20
9.536669267206818
 30
0.0
 11
38.41663628056618
 21
11.47984123657906
 31
0.0
  0
LINE
  5
1BC
330
79
100
AcDbEntity
  8
1
  6
Continuous
 62
     2
100
AcDbLine
 10
35.88001916571993
 20
6.19484276578082
 30
0.0
 11
40.60652474047627
 21
11.53718548403548
 31
0.0
  0
LINE
  5
1BD
330
79
100
AcDbEntity
  8
1
  6
Continuous
 62
     2
100
AcDbLine
 10
39.44953237112905
 20
9.506202987613904
 30
0.0
 11
37.43131675948506
 21
11.29176932855637
 31
0.0
  0
LINE
  5
1BE
330
79
100
AcDbEntity
  8
1
  6
Continuous
 62
     2
100
AcDbLine
 10
37.33663409921202
 20
9.039142591149457
 30
0.0
 11
39.52158047897449
 21
11.50877521869661
 31
0.0
  0
LINE
  5
1BF
330
79
100
AcDbEntity
  8
1
  6
Continuous
 62
     2
100
AcDbLine
 10
39.37334886879621
 20
8.513795474886777
 30
0.0
 11
37.32521342043337
 21
10.32583265128623
 31
0.0
  0
LINE
  5
1C0
330
79
100
AcDbEntity
  8
1
  6
Continuous
 62
     2
100
AcDbLine
 10
39.40175913413439
 20
7.42885121338584
 30
0.0
 11
37.35362368577152
 21
9.240888389785056
 31
0.0
  0
LINE
  5
1C1
330
79
100
AcDbEntity
  8
1
  6
Continuous
 62
     2
100
AcDbLine
 10
37.37497572264839
 20
6.686687626980273
 30
0.0
 11
39.36237084786244
 21
8.933029180492355
 31
0.0
  0
LINE
  5
1C2
330
79
100
AcDbEntity
  8
1
  6
Continuous
 62
     2
100
AcDbLine
 10
38.98943424674432
 20
6.733836476481869
 30
0.0
 11
36.7982117914792
 21
8.672466342917488
 31
0.0
  0
LINE
  5
1C3
330
79
100
AcDbEntity
  8
1
  6
Continuous
 62
     2
100
AcDbLine
 10
37.83132329933339
 20
6.698637508831411
 30
0.0
 11
34.3893391499336
 21
9.74384784600663
 31
0.0
  0
LINE
  5
1C4
330
79
100
AcDbEntity
  8
1
  6
Continuous
 62
     2
100
AcDbLine
 10
36.67527333240766
 20
6.66161513967694
 30
0.0
 11
33.67897026657413
 21
9.312520162285892
 31
0.0
  0
LINE
  5
1C5
330
79
100
AcDbEntity
  8
1
  6
Continuous
 62
     2
100
AcDbLine
 10
35.95513426895668
 20
6.238931381121901
 30
0.0
 11
33.70738053191319
 21
8.227575900784288
 31
0.0
  0
LINE
  5
1C6
330
79
100
AcDbEntity
  8
1
  6
Continuous
 62
     2
100
AcDbLine
 10
35.23499520550676
 20
5.816247622566465
 30
0.0
 11
33.73579079725134
 21
7.142631639283124
 31
0.0
  0
LINE
  5
1C7
330
79
100
AcDbEntity
  8
1
  6
Continuous
 62
     2
100
AcDbLine
 10
34.33767220958696
 20
5.550322965540531
 30
0.0
 11
33.76420106259
 21
6.057687377782216
 31
0.0
  0
LINE
  5
1C8
330
79
100
AcDbEntity
  8
1
  6
Continuous
 62
     2
100
AcDbLine
 10
41.77645292743834
 20
9.56713554679878
 30
0.0
 11
39.58009655872125
 21
11.51030751617134
 31
0.0
  0
LINE
  5
1C9
330
79
100
AcDbEntity
  8
1
  6
Continuous
 62
     2
100
AcDbLine
 10
46.35681560302429
 20
6.574581948862843
 30
0.0
 11
40.74355683687584
 21
11.54077379576421
 31
0.0
  0
LINE
  5
1CA
330
79
100
AcDbEntity
  8
1
  6
Continuous
 62
     2
100
AcDbLine
 10
44.86805599478298
 20
10.01134315109049
 30
0.0
 11
43.07047739318553
 21
11.60170635494937
 31
0.0
  0
LINE
  5
1CB
330
79
100
AcDbEntity
  8
1
  6
Continuous
 62
     2
100
AcDbLine
 10
44.83964572944443
 20
11.09628741259162
 30
0.0
 11
44.23393767134017
 21
11.63217263454182
 31
0.0
  0
LINE
  5
1CC
330
79
100
AcDbEntity
  8
1
  6
Continuous
 62
     2
100
AcDbLine
 10
44.81208496826154
 20
6.881435186387208
 30
0.0
 11
42.90515134243502
 21
8.568547542987147
 31
0.0
  0
LINE
  5
1CD
330
79
100
AcDbEntity
  8
1
  6
Continuous
 62
     2
100
AcDbLine
 10
43.64862469010687
 20
6.85096890679479
 30
0.0
 11
42.93356160777371
 21
7.483603281485983
 31
0.0
  0
LINE
  5
1CE
330
79
100
AcDbEntity
  8
1
  6
Continuous
 62
     2
100
AcDbLine
 10
48.57849108049122
 20
6.728627488269964
 30
0.0
 11
45.93219892734622
 21
9.069869013553216
 31
0.0
  0
LINE
  5
1CF
330
79
100
AcDbEntity
  8
1
  6
Continuous
 62
     2
100
AcDbLine
 10
48.5500808151521
 20
7.813571749771057
 30
0.0
 11
46.63990546779407
 21
9.503552139311026
 31
0.0
  0
LINE
  5
1D0
330
79
100
AcDbEntity
  8
1
  6
Continuous
 62
     2
100
AcDbLine
 10
48.52167054981346
 20
8.898516011272434
 30
0.0
 11
47.34761200824151
 21
9.937235265069063
 31
0.0
  0
LINE
  5
1D1
330
79
100
AcDbEntity
  8
1
  6
Continuous
 62
     2
100
AcDbLine
 10
48.49326028447489
 20
9.983460272773584
 30
0.0
 11
48.35086248778946
 21
10.10944320111827
 31
0.0
  0
LINE
  5
1D2
330
79
100
AcDbEntity
  8
1
  6
Continuous
 62
     2
100
AcDbLine
 10
45.39739063578655
 20
8.897643765693402
 30
0.0
 11
45.66248056714387
 21
8.904585389844698
 31
0.0
  0
LINE
  5
1D3
330
79
100
AcDbEntity
  8
1
  6
Continuous
 62
     2
100
AcDbLine
 10
33.69967097458969
 20
8.521992016838496
 30
0.0
 11
34.75603847529838
 21
9.715998272824251
 31
0.0
  0
LINE
  5
1D4
330
79
100
AcDbEntity
  8
1
  6
Continuous
 62
     2
100
AcDbLine
 10
33.73013725418257
 20
7.358531738683894
 30
0.0
 11
35.46151432794856
 21
9.3154975258375
 31
0.0
  0
LINE
  5
1D5
330
79
100
AcDbEntity
  8
1
  6
Continuous
 62
     2
100
AcDbLine
 10
33.76060353377504
 20
6.195071460529263
 30
0.0
 11
36.16699018059968
 21
8.914996778851034
 31
0.0
  0
LINE
  5
1D6
330
79
100
AcDbEntity
  8
1
  6
Continuous
 62
     2
100
AcDbLine
 10
37.32780003971173
 20
10.22705364623934
 30
0.0
 11
38.43663621747349
 21
11.48036495335825
 31
0.0
  0
LINE
  5
1D7
330
79
100
AcDbEntity
  8
1
  6
Continuous
 62
     2
100
AcDbLine
 10
38.45991998414978
 20
6.715097892318653
 30
0.0
 11
39.39283712745528
 21
7.769568902338222
 31
0.0
  0
LINE
  5
1D8
330
79
100
AcDbEntity
  8
1
  6
Continuous
 62
     1
100
AcDbLine
 10
29.57263554886804
 20
11.2638340509142
 30
0.0
 11
25.07333111582345
 21
11.12687218310398
 31
0.0
  0
LINE
  5
1D9
330
79
100
AcDbEntity
  8
1
  6
Continuous
 62
     1
100
AcDbLine
 10
24.57263554886804
 20
11.11163067164929
 30
0.0
 11
20.07333111582339
 21
10.97466880383908
 31
0.0
  0
LINE
  5
1DA
330
79
100
AcDbEntity
  8
1
  6
Continuous
 62
     1
100
AcDbLine
 10
33.32050657286995
 20
0.0000017109827013
 30
0.0
 11
32.32023123831671
 21
0.0000017109827013
 31
0.0
  0
ARC
  5
1DB
330
79
100
AcDbEntity
  8
1
  6
Continuous
 62
     1
100
AcDbCircle
 10
32.32023123831671
 20
0.5000017109827013
 30
0.0
 40
0.5
100
AcDbArc
 50
181.5002081533846
 51
270.0
  0
ARC
  5
1DC
330
79
100
AcDbEntity
  8
1
  6
Continuous
 62
     1
100
AcDbCircle
 10
32.32023123831671
 20
0.5000017109827013
 30
0.0
 40
0.5
100
AcDbArc
 50
181.5002081533846
 51
270.0
  0
LINE
  5
1DD
330
79
100
AcDbEntity
  8
1
  6
Continuous
 62
     1
100
AcDbLine
 10
20.07333111582339
 20
10.97466880383908
 30
0.0
 11
19.81536257661843
 21
10.716700264634
 31
0.0
  0
LINE
  5
1DE
330
79
100
AcDbEntity
  8
1
  6
Continuous
 62
     1
100
AcDbLine
 10
19.81536257661843
 20
10.716700264634
 30
0.0
 11
19.57263554886806
 21
10.95942729238436
 31
0.0
  0
LINE
  5
1DF
330
79
100
AcDbEntity
  8
1
  6
Continuous
 62
     1
100
AcDbLine
 10
25.07333111582345
 20
11.12687218310398
 30
0.0
 11
24.81536257661837
 21
10.86890364389896
 31
0.0
  0
LINE
  5
1E0
330
79
100
AcDbEntity
  8
1
  6
Continuous
 62
     1
100
AcDbLine
 10
24.81536257661837
 20
10.86890364389896
 30
0.0
 11
24.57263554886804
 21
11.11163067164929
 31
0.0
  0
LINE
  5
1E1
330
79
100
AcDbEntity
  8
1
  6
Continuous
 62
     1
100
AcDbLine
 10
30.07333111582345
 20
11.27907556236894
 30
0.0
 11
29.81536257661837
 21
11.02110702316386
 31
0.0
  0
LINE
  5
1E2
330
79
100
AcDbEntity
  8
1
  6
Continuous
 62
     1
100
AcDbLine
 10
29.81536257661837
 20
11.02110702316386
 30
0.0
 11
29.57263554886804
 21
11.2638340509142
 31
0.0
  0
LINE
  5
1E3
330
79
100
AcDbEntity
  8
1
  6
Continuous
 62
     1
100
AcDbLine
 10
12.83978754875237
 20
0.0000017109827013
 30
0.0
 11
12.33978754875237
 21
0.0000017109827013
 31
0.0
  0
ARC
  5
1E4
330
79
100
AcDbEntity
  8
1
  6
Continuous
 62
     1
100
AcDbCircle
 10
12.83978754875237
 20
0.5000017109827013
 30
0.0
 40
0.5
100
AcDbArc
 50
270.0
 51
0.0
  0
ARC
  5
1E5
330
79
100
AcDbEntity
  8
1
  6
Continuous
 62
     1
100
AcDbCircle
 10
12.83978754875237
 20
0.5000017109827013
 30
0.0
 40
0.5
100
AcDbArc
 50
270.0
 51
0.0
  0
LINE
  5
1E6
330
79
100
AcDbEntity
  8
1
  6
Continuous
 62
     1
100
AcDbLine
 10
31.82040262338215
 20
0.4869114209703582
 30
0.0
 11
31.81316957633318
 21
0.7630920009948312
 31
0.0
  0
LINE
  5
1E7
330
79
100
AcDbEntity
  8
1
  6
Continuous
 62
     1
100
AcDbLine
 10
31.75555255088439
 20
2.963092000994834
 30
0.0
 11
31.58901130775597
 21
9.322162640768497
 31
0.0
  0
LINE
  5
1E8
330
79
100
AcDbEntity
  8
1
  6
Continuous
 62
     1
100
AcDbLine
 10
19.57263554886806
 20
10.95942729238436
 30
0.0
 11
16.15770047132271
 21
10.85547436062981
 31
0.0
  0
ARC
  5
1E9
330
79
100
AcDbEntity
  8
1
  6
Continuous
 62
     1
100
AcDbCircle
 10
16.23376692620566
 20
8.356631849697692
 30
0.0
 40
2.5
100
AcDbArc
 50
91.74358382979578
 51
131.8432336461661
  0
ARC
  5
1EA
330
79
100
AcDbEntity
  8
1
  6
Continuous
 62
     1
100
AcDbCircle
 10
16.23376692620566
 20
8.356631849697692
 30
0.0
 40
2.5
100
AcDbArc
 50
91.74358382979578
 51
131.8432336461661
  0
ARC
  5
1EB
330
79
100
AcDbEntity
  8
1
  6
Continuous
 62
     1
100
AcDbCircle
 10
14.23248254458072
 20
10.59155037704139
 30
0.0
 40
0.5
100
AcDbArc
 50
270.0
 51
311.8432336461665
  0
ARC
  5
1EC
330
79
100
AcDbEntity
  8
1
  6
Continuous
 62
     1
100
AcDbCircle
 10
14.23248254458072
 20
10.59155037704139
 30
0.0
 40
0.5
100
AcDbArc
 50
270.0
 51
311.8432336461665
  0
LINE
  5
1ED
330
79
100
AcDbEntity
  8
1
  6
Continuous
 62
     1
100
AcDbLine
 10
31.31334096139862
 20
1.250001710982687
 30
0.0
 11
29.93978801405065
 21
1.250001710982701
 31
0.0
  0
LINE
  5
1EE
330
79
100
AcDbEntity
  8
1
  6
Continuous
 62
     1
100
AcDbLine
 10
27.73978801405063
 20
1.250001710982701
 30
0.0
 11
26.43009502661234
 21
1.250001710982701
 31
0.0
  0
LINE
  5
1EF
330
79
100
AcDbEntity
  8
1
  6
Continuous
 62
     1
100
AcDbLine
 10
24.23009502661232
 20
1.250001710982701
 30
0.0
 11
22.18978801405065
 21
1.250001710982701
 31
0.0
  0
LINE
  5
1F0
330
79
100
AcDbEntity
  8
1
  6
Continuous
 62
     1
100
AcDbLine
 10
19.98978801405063
 20
1.250001710982701
 30
0.0
 11
13.83978754875237
 21
1.250001710982701
 31
0.0
  0
LINE
  5
1F1
330
79
100
AcDbEntity
  8
1
  6
Continuous
 62
     1
100
AcDbLine
 10
13.33978754875237
 20
0.5000017109827013
 30
0.0
 11
13.33978754875237
 21
0.7500017109827013
 31
0.0
  0
ARC
  5
1F2
330
79
100
AcDbEntity
  8
1
  6
Continuous
 62
     1
100
AcDbCircle
 10
13.83978754875237
 20
0.7500017109827013
 30
0.0
 40
0.5
100
AcDbArc
 50
90.0
 51
180.0
  0
ARC
  5
1F3
330
79
100
AcDbEntity
  8
1
  6
Continuous
 62
     1
100
AcDbCircle
 10
13.83978754875237
 20
0.7500017109827013
 30
0.0
 40
0.5
100
AcDbArc
 50
90.0
 51
180.0
  0
ARC
  5
1F4
330
79
100
AcDbEntity
  8
1
  6
Continuous
 62
     1
100
AcDbCircle
 10
31.31334096139862
 20
0.7500017109826871
 30
0.0
 40
0.5
100
AcDbArc
 50
1.500208153361829
 51
90.0
  0
ARC
  5
1F5
330
79
100
AcDbEntity
  8
1
  6
Continuous
 62
     1
100
AcDbCircle
 10
31.31334096139862
 20
0.7500017109826871
 30
0.0
 40
0.5
100
AcDbArc
 50
1.500208153361829
 51
90.0
  0
ARC
  5
1F6
330
79
100
AcDbEntity
  8
1
  6
Continuous
 62
     1
100
AcDbCircle
 10
17.28353135588294
 20
3.53320894419052
 30
0.0
 40
0.5002247383151947
100
AcDbArc
 50
347.1551423379164
 51
167.1551423379164
  0
ARC
  5
1F7
330
79
100
AcDbEntity
  8
1
  6
Continuous
 62
     1
100
AcDbCircle
 10
17.28353135588294
 20
3.53320894419052
 30
0.0
 40
0.5002247383151947
100
AcDbArc
 50
347.1551423379164
 51
167.1551423379164
  0
ARC
  5
1F8
330
79
100
AcDbEntity
  8
1
  6
Continuous
 62
     1
100
AcDbCircle
 10
15.08978754875237
 20
4.033421796383237
 30
0.0
 40
1.75
100
AcDbArc
 50
330.362233065978
 51
347.1551423379169
  0
ARC
  5
1F9
330
79
100
AcDbEntity
  8
1
  6
Continuous
 62
     1
100
AcDbCircle
 10
15.08978754875237
 20
4.033421796383237
 30
0.0
 40
1.75
100
AcDbArc
 50
330.362233065978
 51
347.1551423379169
  0
ARC
  5
1FA
330
79
100
AcDbEntity
  8
1
  6
Continuous
 62
     1
100
AcDbCircle
 10
15.08978754875237
 20
4.033421796383237
 30
0.0
 40
1.75
100
AcDbArc
 50
240.3622330659684
 51
299.6444619043154
  0
ARC
  5
1FB
330
79
100
AcDbEntity
  8
1
  6
Continuous
 62
     1
100
AcDbCircle
 10
15.08978754875237
 20
4.033421796383237
 30
0.0
 40
1.75
100
AcDbArc
 50
240.3622330659684
 51
299.6444619043154
  0
ARC
  5
1FC
330
79
100
AcDbEntity
  8
1
  6
Continuous
 62
     1
100
AcDbCircle
 10
15.08978754875237
 20
4.033421796383237
 30
0.0
 40
1.75
100
AcDbArc
 50
150.3622330659797
 51
209.6444619043154
  0
ARC
  5
1FD
330
79
100
AcDbEntity
  8
1
  6
Continuous
 62
     1
100
AcDbCircle
 10
15.08978754875237
 20
4.033421796383237
 30
0.0
 40
1.75
100
AcDbArc
 50
150.3622330659797
 51
209.6444619043154
  0
ARC
  5
1FE
330
79
100
AcDbEntity
  8
1
  6
Continuous
 62
     1
100
AcDbCircle
 10
15.08978754875237
 20
4.033421796383237
 30
0.0
 40
1.75
100
AcDbArc
 50
102.8529351444615
 51
119.6444619043144
  0
ARC
  5
1FF
330
79
100
AcDbEntity
  8
1
  6
Continuous
 62
     1
100
AcDbCircle
 10
15.08978754875237
 20
4.033421796383237
 30
0.0
 40
1.75
100
AcDbArc
 50
102.8529351444615
 51
119.6444619043144
  0
ARC
  5
200
330
79
100
AcDbEntity
  8
1
  6
Continuous
 62
     1
100
AcDbCircle
 10
14.58924621533329
 20
6.227179277867137
 30
0.0
 40
0.5006131380892174
100
AcDbArc
 50
282.8529351444627
 51
102.8529351444627
  0
ARC
  5
201
330
79
100
AcDbEntity
  8
1
  6
Continuous
 62
     1
100
AcDbCircle
 10
14.58924621533329
 20
6.227179277867137
 30
0.0
 40
0.5006131380892174
100
AcDbArc
 50
282.8529351444627
 51
102.8529351444627
  0
LINE
  5
202
330
79
100
AcDbEntity
  8
1
  6
Continuous
 62
     1
100
AcDbLine
 10
13.33978754875237
 20
7.033421796383237
 30
0.0
 11
13.33978754875237
 21
8.091550377041386
 31
0.0
  0
LINE
  5
203
330
79
100
AcDbEntity
  8
1
  6
Continuous
 62
     1
100
AcDbLine
 10
11.83978754875237
 20
8.094081820226847
 30
0.0
 11
11.83978754875237
 21
0.5000017109827013
 31
0.0
  0
ARC
  5
204
330
79
100
AcDbEntity
  8
1
  6
Continuous
 62
     1
100
AcDbCircle
 10
12.33978754875237
 20
0.5000017109827013
 30
0.0
 40
0.5
100
AcDbArc
 50
180.0
 51
270.0
  0
ARC
  5
205
330
79
100
AcDbEntity
  8
1
  6
Continuous
 62
     1
100
AcDbCircle
 10
12.33978754875237
 20
0.5000017109827013
 30
0.0
 40
0.5
100
AcDbArc
 50
180.0
 51
270.0
  0
LINE
  5
206
330
79
100
AcDbEntity
  8
1
  6
Continuous
 62
     1
100
AcDbLine
 10
29.43978801405065
 20
0.7500017109827013
 30
0.0
 11
29.43978801405065
 21
0.5000017109827013
 31
0.0
  0
LINE
  5
207
330
79
100
AcDbEntity
  8
1
  6
Continuous
 62
     1
100
AcDbLine
 10
28.93978801405065
 20
0.0000017109827013
 30
0.0
 11
28.73978801405063
 21
0.0000017109827013
 31
0.0
  0
LINE
  5
208
330
79
100
AcDbEntity
  8
1
  6
Continuous
 62
     1
100
AcDbLine
 10
28.23978801405063
 20
0.5000017109827013
 30
0.0
 11
28.23978801405063
 21
0.7500017109827013
 31
0.0
  0
ARC
  5
209
330
79
100
AcDbEntity
  8
1
  6
Continuous
 62
     1
100
AcDbCircle
 10
29.93978801405065
 20
0.7500017109827013
 30
0.0
 40
0.5
100
AcDbArc
 50
90.0
 51
180.0
  0
ARC
  5
20A
330
79
100
AcDbEntity
  8
1
  6
Continuous
 62
     1
100
AcDbCircle
 10
29.93978801405065
 20
0.7500017109827013
 30
0.0
 40
0.5
100
AcDbArc
 50
90.0
 51
180.0
  0
ARC
  5
20B
330
79
100
AcDbEntity
  8
1
  6
Continuous
 62
     1
100
AcDbCircle
 10
28.93978801405065
 20
0.5000017109827013
 30
0.0
 40
0.5
100
AcDbArc
 50
270.0
 51
0.0
  0
ARC
  5
20C
330
79
100
AcDbEntity
  8
1
  6
Continuous
 62
     1
100
AcDbCircle
 10
28.93978801405065
 20
0.5000017109827013
 30
0.0
 40
0.5
100
AcDbArc
 50
270.0
 51
0.0
  0
ARC
  5
20D
330
79
100
AcDbEntity
  8
1
  6
Continuous
 62
     1
100
AcDbCircle
 10
28.73978801405063
 20
0.5000017109827013
 30
0.0
 40
0.5
100
AcDbArc
 50
180.0
 51
270.0
  0
ARC
  5
20E
330
79
100
AcDbEntity
  8
1
  6
Continuous
 62
     1
100
AcDbCircle
 10
28.73978801405063
 20
0.5000017109827013
 30
0.0
 40
0.5
100
AcDbArc
 50
180.0
 51
270.0
  0
ARC
  5
20F
330
79
100
AcDbEntity
  8
1
  6
Continuous
 62
     1
100
AcDbCircle
 10
27.73978801405063
 20
0.7500017109827013
 30
0.0
 40
0.5
100
AcDbArc
 50
0.0
 51
90.0
  0
ARC
  5
210
330
79
100
AcDbEntity
  8
1
  6
Continuous
 62
     1
100
AcDbCircle
 10
27.73978801405063
 20
0.7500017109827013
 30
0.0
 40
0.5
100
AcDbArc
 50
0.0
 51
90.0
  0
LINE
  5
211
330
79
100
AcDbEntity
  8
1
  6
Continuous
 62
     1
100
AcDbLine
 10
25.93009502661234
 20
0.7500017109827013
 30
0.0
 11
25.93009502661234
 21
0.5000017109827013
 31
0.0
  0
LINE
  5
212
330
79
100
AcDbEntity
  8
1
  6
Continuous
 62
     1
100
AcDbLine
 10
25.43009502661234
 20
0.0000017109827013
 30
0.0
 11
25.23009502661232
 21
0.0000017109827013
 31
0.0
  0
LINE
  5
213
330
79
100
AcDbEntity
  8
1
  6
Continuous
 62
     1
100
AcDbLine
 10
24.73009502661232
 20
0.5000017109827013
 30
0.0
 11
24.73009502661232
 21
0.7500017109827013
 31
0.0
  0
ARC
  5
214
330
79
100
AcDbEntity
  8
1
  6
Continuous
 62
     1
100
AcDbCircle
 10
26.43009502661234
 20
0.7500017109827013
 30
0.0
 40
0.5
100
AcDbArc
 50
90.0
 51
180.0
  0
ARC
  5
215
330
79
100
AcDbEntity
  8
1
  6
Continuous
 62
     1
100
AcDbCircle
 10
26.43009502661234
 20
0.7500017109827013
 30
0.0
 40
0.5
100
AcDbArc
 50
90.0
 51
180.0
  0
ARC
  5
216
330
79
100
AcDbEntity
  8
1
  6
Continuous
 62
     1
100
AcDbCircle
 10
25.43009502661234
 20
0.5000017109827013
 30
0.0
 40
0.5
100
AcDbArc
 50
270.0
 51
0.0
  0
ARC
  5
217
330
79
100
AcDbEntity
  8
1
  6
Continuous
 62
     1
100
AcDbCircle
 10
25.43009502661234
 20
0.5000017109827013
 30
0.0
 40
0.5
100
AcDbArc
 50
270.0
 51
0.0
  0
ARC
  5
218
330
79
100
AcDbEntity
  8
1
  6
Continuous
 62
     1
100
AcDbCircle
 10
25.23009502661232
 20
0.5000017109827013
 30
0.0
 40
0.5
100
AcDbArc
 50
180.0
 51
270.0
  0
ARC
  5
219
330
79
100
AcDbEntity
  8
1
  6
Continuous
 62
     1
100
AcDbCircle
 10
25.23009502661232
 20
0.5000017109827013
 30
0.0
 40
0.5
100
AcDbArc
 50
180.0
 51
270.0
  0
ARC
  5
21A
330
79
100
AcDbEntity
  8
1
  6
Continuous
 62
     1
100
AcDbCircle
 10
24.23009502661232
 20
0.7500017109827013
 30
0.0
 40
0.5
100
AcDbArc
 50
0.0
 51
90.0
  0
ARC
  5
21B
330
79
100
AcDbEntity
  8
1
  6
Continuous
 62
     1
100
AcDbCircle
 10
24.23009502661232
 20
0.7500017109827013
 30
0.0
 40
0.5
100
AcDbArc
 50
0.0
 51
90.0
  0
LINE
  5
21C
330
79
100
AcDbEntity
  8
1
  6
Continuous
 62
     1
100
AcDbLine
 10
21.68978801405065
 20
0.7500017109827013
 30
0.0
 11
21.68978801405065
 21
0.5000017109827013
 31
0.0
  0
LINE
  5
21D
330
79
100
AcDbEntity
  8
1
  6
Continuous
 62
     1
100
AcDbLine
 10
21.18978801405065
 20
0.0000017109827013
 30
0.0
 11
20.98978801405063
 21
0.0000017109827013
 31
0.0
  0
LINE
  5
21E
330
79
100
AcDbEntity
  8
1
  6
Continuous
 62
     1
100
AcDbLine
 10
20.48978801405063
 20
0.5000017109827013
 30
0.0
 11
20.48978801405063
 21
0.7500017109827013
 31
0.0
  0
ARC
  5
21F
330
79
100
AcDbEntity
  8
1
  6
Continuous
 62
     1
100
AcDbCircle
 10
22.18978801405065
 20
0.7500017109827013
 30
0.0
 40
0.5
100
AcDbArc
 50
90.0
 51
180.0
  0
ARC
  5
220
330
79
100
AcDbEntity
  8
1
  6
Continuous
 62
     1
100
AcDbCircle
 10
22.18978801405065
 20
0.7500017109827013
 30
0.0
 40
0.5
100
AcDbArc
 50
90.0
 51
180.0
  0
ARC
  5
221
330
79
100
AcDbEntity
  8
1
  6
Continuous
 62
     1
100
AcDbCircle
 10
21.18978801405065
 20
0.5000017109827013
 30
0.0
 40
0.5
100
AcDbArc
 50
270.0
 51
0.0
  0
ARC
  5
222
330
79
100
AcDbEntity
  8
1
  6
Continuous
 62
     1
100
AcDbCircle
 10
21.18978801405065
 20
0.5000017109827013
 30
0.0
 40
0.5
100
AcDbArc
 50
270.0
 51
0.0
  0
ARC
  5
223
330
79
100
AcDbEntity
  8
1
  6
Continuous
 62
     1
100
AcDbCircle
 10
20.98978801405063
 20
0.5000017109827013
 30
0.0
 40
0.5
100
AcDbArc
 50
180.0
 51
270.0
  0
ARC
  5
224
330
79
100
AcDbEntity
  8
1
  6
Continuous
 62
     1
100
AcDbCircle
 10
20.98978801405063
 20
0.5000017109827013
 30
0.0
 40
0.5
100
AcDbArc
 50
180.0
 51
270.0
  0
ARC
  5
225
330
79
100
AcDbEntity
  8
1
  6
Continuous
 62
     1
100
AcDbCircle
 10
19.98978801405063
 20
0.7500017109827013
 30
0.0
 40
0.5
100
AcDbArc
 50
0.0
 51
90.0
  0
ARC
  5
226
330
79
100
AcDbEntity
  8
1
  6
Continuous
 62
     1
100
AcDbCircle
 10
19.98978801405063
 20
0.7500017109827013
 30
0.0
 40
0.5
100
AcDbArc
 50
0.0
 51
90.0
  0
LINE
  5
227
330
79
100
AcDbEntity
  8
1
  6
Continuous
 62
     1
100
AcDbLine
 10
11.33978754875237
 20
8.594081820226847
 30
0.0
 11
10.83978754875231
 21
8.594081820226847
 31
0.0
  0
LINE
  5
228
330
79
100
AcDbEntity
  8
1
  6
Continuous
 62
     1
100
AcDbLine
 10
10.33978754875231
 20
8.094081820226847
 30
0.0
 11
10.33978754875231
 21
6.094081820226847
 31
0.0
  0
LINE
  5
229
330
79
100
AcDbEntity
  8
1
  6
Continuous
 62
     1
100
AcDbLine
 10
9.839787548752312
 20
5.594081820226847
 30
0.0
 11
9.639787548752324
 21
5.594081820226847
 31
0.0
  0
LINE
  5
22A
330
79
100
AcDbEntity
  8
1
  6
Continuous
 62
     1
100
AcDbLine
 10
9.139787548752324
 20
6.094081820226847
 30
0.0
 11
9.139787548752324
 21
8.091550377041386
 31
0.0
  0
ARC
  5
22B
330
79
100
AcDbEntity
  8
1
  6
Continuous
 62
     1
100
AcDbCircle
 10
10.83978754875231
 20
8.094081820226847
 30
0.0
 40
0.5
100
AcDbArc
 50
90.0
 51
180.0
  0
ARC
  5
22C
330
79
100
AcDbEntity
  8
1
  6
Continuous
 62
     1
100
AcDbCircle
 10
10.83978754875231
 20
8.094081820226847
 30
0.0
 40
0.5
100
AcDbArc
 50
90.0
 51
180.0
  0
ARC
  5
22D
330
79
100
AcDbEntity
  8
1
  6
Continuous
 62
     1
100
AcDbCircle
 10
9.839787548752312
 20
6.094081820226847
 30
0.0
 40
0.5
100
AcDbArc
 50
270.0
 51
0.0
  0
ARC
  5
22E
330
79
100
AcDbEntity
  8
1
  6
Continuous
 62
     1
100
AcDbCircle
 10
9.839787548752312
 20
6.094081820226847
 30
0.0
 40
0.5
100
AcDbArc
 50
270.0
 51
0.0
  0
ARC
  5
22F
330
79
100
AcDbEntity
  8
1
  6
Continuous
 62
     1
100
AcDbCircle
 10
9.639787548752324
 20
6.094081820226847
 30
0.0
 40
0.5
100
AcDbArc
 50
180.0
 51
270.0
  0
ARC
  5
230
330
79
100
AcDbEntity
  8
1
  6
Continuous
 62
     1
100
AcDbCircle
 10
9.639787548752324
 20
6.094081820226847
 30
0.0
 40
0.5
100
AcDbArc
 50
180.0
 51
270.0
  0
ARC
  5
231
330
79
100
AcDbEntity
  8
1
  6
Continuous
 62
     1
100
AcDbCircle
 10
11.33978754875237
 20
8.094081820226847
 30
0.0
 40
0.5
100
AcDbArc
 50
0.0
 51
90.0
  0
ARC
  5
232
330
79
100
AcDbEntity
  8
1
  6
Continuous
 62
     1
100
AcDbCircle
 10
11.33978754875237
 20
8.094081820226847
 30
0.0
 40
0.5
100
AcDbArc
 50
0.0
 51
90.0
  0
LINE
  5
233
330
79
100
AcDbEntity
  8
1
  6
Continuous
 62
     1
100
AcDbLine
 10
14.23248254458072
 20
10.09155037704139
 30
0.0
 11
11.13978754875232
 21
10.09155037704139
 31
0.0
  0
ARC
  5
234
330
79
100
AcDbEntity
  8
1
  6
Continuous
 62
     1
100
AcDbCircle
 10
11.13978754875232
 20
8.091550377041386
 30
0.0
 40
2.0
100
AcDbArc
 50
90.0
 51
180.0
  0
ARC
  5
235
330
79
100
AcDbEntity
  8
1
  6
Continuous
 62
     1
100
AcDbCircle
 10
11.13978754875232
 20
8.091550377041386
 30
0.0
 40
2.0
100
AcDbArc
 50
90.0
 51
180.0
  0
LINE
  5
236
330
79
100
AcDbEntity
  8
1
  6
Continuous
 62
     1
100
AcDbLine
 10
31.25572393594983
 20
2.45000171098269
 30
0.0
 11
18.15388626102497
 21
2.45000171098269
 31
0.0
  0
ARC
  5
237
330
79
100
AcDbEntity
  8
1
  6
Continuous
 62
     1
100
AcDbCircle
 10
31.25572393594983
 20
2.95000171098269
 30
0.0
 40
0.5
100
AcDbArc
 50
270.0
 51
1.500208153361829
  0
ARC
  5
238
330
79
100
AcDbEntity
  8
1
  6
Continuous
 62
     1
100
AcDbCircle
 10
31.25572393594983
 20
2.95000171098269
 30
0.0
 40
0.5
100
AcDbArc
 50
270.0
 51
1.500208153361829
  0
LINE
  5
239
330
79
100
AcDbEntity
  8
1
  6
Continuous
 62
     1
100
AcDbLine
 10
31.07396940184485
 20
9.80884085294278
 30
0.0
 11
16.20334034425248
 21
9.356168854070546
 31
0.0
  0
ARC
  5
23A
330
79
100
AcDbEntity
  8
1
  6
Continuous
 62
     1
100
AcDbCircle
 10
16.23376692620566
 20
8.356631849697692
 30
0.0
 40
1.0
100
AcDbArc
 50
91.7435838297958
 51
131.843233646166
  0
ARC
  5
23B
330
79
100
AcDbEntity
  8
1
  6
Continuous
 62
     1
100
AcDbCircle
 10
16.23376692620566
 20
8.356631849697692
 30
0.0
 40
1.0
100
AcDbArc
 50
91.7435838297958
 51
131.843233646166
  0
ARC
  5
23C
330
79
100
AcDbEntity
  8
1
  6
Continuous
 62
     1
100
AcDbCircle
 10
14.23248254458072
 20
10.59155037704139
 30
0.0
 40
2.0
100
AcDbArc
 50
270.0
 51
311.843233646166
  0
ARC
  5
23D
330
79
100
AcDbEntity
  8
1
  6
Continuous
 62
     1
100
AcDbCircle
 10
14.23248254458072
 20
10.59155037704139
 30
0.0
 40
2.0
100
AcDbArc
 50
270.0
 51
311.843233646166
  0
LINE
  5
23E
330
79
100
AcDbEntity
  8
1
  6
Continuous
 62
     1
100
AcDbLine
 10
14.23248254458072
 20
8.591550377041386
 30
0.0
 11
13.83978754875237
 21
8.591550377041386
 31
0.0
  0
ARC
  5
23F
330
79
100
AcDbEntity
  8
1
  6
Continuous
 62
     1
100
AcDbCircle
 10
13.83978754875237
 20
8.091550377041386
 30
0.0
 40
0.5
100
AcDbArc
 50
90.0
 51
180.0
  0
ARC
  5
240
330
79
100
AcDbEntity
  8
1
  6
Continuous
 62
     1
100
AcDbCircle
 10
13.83978754875237
 20
8.091550377041386
 30
0.0
 40
0.5
100
AcDbArc
 50
90.0
 51
180.0
  0
ARC
  5
241
330
79
100
AcDbEntity
  8
1
  6
Continuous
 62
     1
100
AcDbCircle
 10
31.08918269282144
 20
9.309072350756352
 30
0.0
 40
0.5
100
AcDbArc
 50
1.500208153361829
 51
91.74358382979578
  0
ARC
  5
242
330
79
100
AcDbEntity
  8
1
  6
Continuous
 62
     1
100
AcDbCircle
 10
31.08918269282144
 20
9.309072350756352
 30
0.0
 40
0.5
100
AcDbArc
 50
1.500208153361829
 51
91.74358382979578
  0
LINE
  5
243
330
79
100
AcDbEntity
  8
1
  6
Continuous
 62
     1
100
AcDbLine
 10
17.77123827128933
 20
3.422003038379373
 30
0.0
 11
17.68248645913688
 21
3.116681724121236
 31
0.0
  0
ARC
  5
244
330
79
100
AcDbEntity
  8
1
  6
Continuous
 62
     1
100
AcDbCircle
 10
18.15388626102497
 20
2.95000171098269
 30
0.0
 40
0.5
100
AcDbArc
 50
160.5271571911269
 51
270.0
  0
ARC
  5
245
330
79
100
AcDbEntity
  8
1
  6
Continuous
 62
     1
100
AcDbCircle
 10
18.15388626102497
 20
2.95000171098269
 30
0.0
 40
0.5
100
AcDbArc
 50
160.5271571911269
 51
270.0
  0
ARC
  5
246
330
79
100
AcDbEntity
  8
1
  6
Continuous
 62
     1
100
AcDbCircle
 10
15.08978754875237
 20
4.033421796383237
 30
0.0
 40
2.75
100
AcDbArc
 50
102.8529351444615
 51
112.6198649480405
  0
ARC
  5
247
330
79
100
AcDbEntity
  8
1
  6
Continuous
 62
     1
100
AcDbCircle
 10
15.08978754875237
 20
4.033421796383237
 30
0.0
 40
2.75
100
AcDbArc
 50
102.8529351444615
 51
112.6198649480405
  0
ARC
  5
248
330
79
100
AcDbEntity
  8
1
  6
Continuous
 62
     1
100
AcDbCircle
 10
13.83978754875237
 20
7.033421796383237
 30
0.0
 40
0.5
100
AcDbArc
 50
180.0
 51
292.6198649480403
  0
ARC
  5
249
330
79
100
AcDbEntity
  8
1
  6
Continuous
 62
     1
100
AcDbCircle
 10
13.83978754875237
 20
7.033421796383237
 30
0.0
 40
0.5
100
AcDbArc
 50
180.0
 51
292.6198649480403
  0
ARC
  5
24A
330
79
100
AcDbEntity
  8
1
  6
Continuous
 62
     1
100
AcDbCircle
 10
16.32729671051717
 20
2.796057228219055
 30
0.0
 40
0.25
100
AcDbArc
 50
82.38654590300386
 51
187.6201490672915
  0
ARC
  5
24B
330
79
100
AcDbEntity
  8
1
  6
Continuous
 62
     1
100
AcDbCircle
 10
16.32729671051717
 20
2.796057228219055
 30
0.0
 40
0.25
100
AcDbArc
 50
82.38654590300386
 51
187.6201490672915
  0
ARC
  5
24C
330
79
100
AcDbEntity
  8
1
  6
Continuous
 62
     1
100
AcDbCircle
 10
13.85242298058817
 20
2.795912634618432
 30
0.0
 40
0.25
100
AcDbArc
 50
352.3865459030144
 51
97.62014906729195
  0
ARC
  5
24D
330
79
100
AcDbEntity
  8
1
  6
Continuous
 62
     1
100
AcDbCircle
 10
13.85242298058817
 20
2.795912634618432
 30
0.0
 40
0.25
100
AcDbArc
 50
352.3865459030144
 51
97.62014906729195
  0
ARC
  5
24E
330
79
100
AcDbEntity
  8
1
  6
Continuous
 62
     1
100
AcDbCircle
 10
13.85227838698755
 20
5.270786364547419
 30
0.0
 40
0.25
100
AcDbArc
 50
262.3865459030006
 51
7.620149067294737
  0
ARC
  5
24F
330
79
100
AcDbEntity
  8
1
  6
Continuous
 62
     1
100
AcDbCircle
 10
13.85227838698755
 20
5.270786364547419
 30
0.0
 40
0.25
100
AcDbArc
 50
262.3865459030006
 51
7.620149067294737
  0
ARC
  5
250
330
79
100
AcDbEntity
  8
1
  6
Continuous
 62
     1
100
AcDbCircle
 10
16.3935412815909
 20
3.291649456571619
 30
0.0
 40
0.25
100
AcDbArc
 50
262.3865459030011
 51
330.3622330659782
  0
ARC
  5
251
330
79
100
AcDbEntity
  8
1
  6
Continuous
 62
     1
100
AcDbCircle
 10
16.3935412815909
 20
3.291649456571619
 30
0.0
 40
0.25
100
AcDbArc
 50
262.3865459030011
 51
330.3622330659782
  0
ARC
  5
252
330
79
100
AcDbEntity
  8
1
  6
Continuous
 62
     1
100
AcDbCircle
 10
15.83171222617804
 20
2.729754748005163
 30
0.0
 40
0.25
100
AcDbArc
 50
299.644461904316
 51
7.620149067291508
  0
ARC
  5
253
330
79
100
AcDbEntity
  8
1
  6
Continuous
 62
     1
100
AcDbCircle
 10
15.83171222617804
 20
2.729754748005163
 30
0.0
 40
0.25
100
AcDbArc
 50
299.644461904316
 51
7.620149067291508
  0
ARC
  5
254
330
79
100
AcDbEntity
  8
1
  6
Continuous
 62
     1
100
AcDbCircle
 10
14.34801520894057
 20
2.729668063544878
 30
0.0
 40
0.25
100
AcDbArc
 50
172.3865459030209
 51
240.3622330659681
  0
ARC
  5
255
330
79
100
AcDbEntity
  8
1
  6
Continuous
 62
     1
100
AcDbCircle
 10
14.34801520894057
 20
2.729668063544878
 30
0.0
 40
0.25
100
AcDbArc
 50
172.3865459030209
 51
240.3622330659681
  0
ARC
  5
256
330
79
100
AcDbEntity
  8
1
  6
Continuous
 62
     1
100
AcDbCircle
 10
13.78612050037428
 20
3.291497118957565
 30
0.0
 40
0.25
100
AcDbArc
 50
209.644461904316
 51
277.6201490672915
  0
ARC
  5
257
330
79
100
AcDbEntity
  8
1
  6
Continuous
 62
     1
100
AcDbCircle
 10
13.78612050037428
 20
3.291497118957565
 30
0.0
 40
0.25
100
AcDbArc
 50
209.644461904316
 51
277.6201490672915
  0
ARC
  5
258
330
79
100
AcDbEntity
  8
1
  6
Continuous
 62
     1
100
AcDbCircle
 10
13.78603381591381
 20
4.775194136194827
 30
0.0
 40
0.25
100
AcDbArc
 50
82.38654590299741
 51
150.3622330659827
  0
ARC
  5
259
330
79
100
AcDbEntity
  8
1
  6
Continuous
 62
     1
100
AcDbCircle
 10
13.78603381591381
 20
4.775194136194827
 30
0.0
 40
0.25
100
AcDbArc
 50
82.38654590299741
 51
150.3622330659827
  0
ARC
  5
25A
330
79
100
AcDbEntity
  8
1
  6
Continuous
 62
     1
100
AcDbCircle
 10
14.34786287132673
 20
5.33708884476134
 30
0.0
 40
0.25
100
AcDbArc
 50
119.644461904316
 51
187.6201490672947
  0
ARC
  5
25B
330
79
100
AcDbEntity
  8
1
  6
Continuous
 62
     1
100
AcDbCircle
 10
14.34786287132673
 20
5.33708884476134
 30
0.0
 40
0.25
100
AcDbArc
 50
119.644461904316
 51
187.6201490672947
  0
LINE
  5
25C
330
79
100
AcDbEntity
  8
1
  6
Continuous
 62
     1
100
AcDbLine
 10
35.14647758758223
 20
11.4335055696711
 30
0.0
 11
30.07333111582345
 21
11.27907556236894
 31
0.0
  0
ARC
  5
25D
330
79
100
AcDbEntity
  8
1
  6
Continuous
 62
     1
100
AcDbCircle
 10
35.1769041695354
 20
10.43396856529824
 30
0.0
 40
1.0
100
AcDbArc
 50
1.500000000039365
 51
91.7435838297958
  0
ARC
  5
25E
330
79
100
AcDbEntity
  8
1
  6
Continuous
 62
     1
100
AcDbCircle
 10
35.1769041695354
 20
10.43396856529824
 30
0.0
 40
1.0
100
AcDbArc
 50
1.500000000039365
 51
91.7435838297958
  0
LINE
  5
25F
330
79
100
AcDbEntity
  8
1
  6
Continuous
 62
     1
100
AcDbLine
 10
36.20631946817956
 20
9.323734347430772
 30
0.0
 11
36.17656149451095
 21
10.4601455136068
 31
0.0
  0
ARC
  5
260
330
79
100
AcDbEntity
  8
1
  6
Continuous
 62
     1
100
AcDbCircle
 10
36.00638800318085
 20
9.318498957768341
 30
0.0
 40
0.2000000000031449
100
AcDbArc
 50
240.1000000004375
 51
1.495700999999624
  0
ARC
  5
261
330
79
100
AcDbEntity
  8
1
  6
Continuous
 62
     1
100
AcDbCircle
 10
36.00638800318085
 20
9.318498957768341
 30
0.0
 40
0.2000000000031449
100
AcDbArc
 50
240.1000000004375
 51
1.495700999999624
  0
LINE
  5
262
330
79
100
AcDbEntity
  8
1
  6
Continuous
 62
     1
100
AcDbLine
 10
34.28594079814688
 20
10.07709199599689
 30
0.0
 11
35.90669045522985
 21
9.145119607977733
 31
0.0
  0
LINE
  5
263
330
79
100
AcDbEntity
  8
1
  6
Continuous
 62
     1
100
AcDbLine
 10
33.98604360065563
 20
10.06923891150517
 30
0.0
 11
34.28594079814688
 21
10.07709199599689
 31
0.0
  0
ARC
  5
264
330
79
100
AcDbEntity
  8
1
  6
Continuous
 62
     1
100
AcDbCircle
 10
33.99389668514708
 20
9.76934171401146
 30
0.0
 40
0.3000000000008946
100
AcDbArc
 50
91.49570099999691
 51
181.4957010000024
  0
ARC
  5
265
330
79
100
AcDbEntity
  8
1
  6
Continuous
 62
     1
100
AcDbCircle
 10
33.99389668514708
 20
9.76934171401146
 30
0.0
 40
0.3000000000008946
100
AcDbArc
 50
91.49570099999691
 51
181.4957010000024
  0
LINE
  5
266
330
79
100
AcDbEntity
  8
1
  6
Continuous
 62
     1
100
AcDbLine
 10
33.7991564063111
 20
5.745707921466973
 30
0.0
 11
33.69399948765344
 21
9.761488629519988
 31
0.0
  0
ARC
  5
267
330
79
100
AcDbEntity
  8
1
  6
Continuous
 62
     1
100
AcDbCircle
 10
33.9065260978695
 20
5.465579826955675
 30
0.0
 40
0.29999999999986
100
AcDbArc
 50
110.9712206339221
 51
271.4957009999858
  0
ARC
  5
268
330
79
100
AcDbEntity
  8
1
  6
Continuous
 62
     1
100
AcDbCircle
 10
33.9065260978695
 20
5.465579826955675
 30
0.0
 40
0.29999999999986
100
AcDbArc
 50
110.9712206339221
 51
271.4957009999858
  0
LINE
  5
269
330
79
100
AcDbEntity
  8
1
  6
Continuous
 62
     1
100
AcDbLine
 10
34.11431064735727
 20
5.170918019124471
 30
0.0
 11
33.91437918236129
 21
5.16568262946312
 31
0.0
  0
LINE
  5
26A
330
79
100
AcDbEntity
  8
1
  6
Continuous
 62
     1
100
AcDbLine
 10
36.22991101279588
 20
5.792508487486785
 30
0.0
 11
34.11431064735727
 21
5.170918019124471
 31
0.0
  0
LINE
  5
26B
330
79
100
AcDbEntity
  8
1
  6
Continuous
 62
     1
100
AcDbLine
 10
36.29816087850519
 20
6.076789637442644
 30
0.0
 11
36.22991101279588
 21
5.792508487486785
 31
0.0
  0
ARC
  5
26C
330
79
100
AcDbEntity
  8
1
  6
Continuous
 62
     1
100
AcDbCircle
 10
36.49263486258666
 20
6.030100564673148
 30
0.0
 40
0.2000000000016305
100
AcDbArc
 50
46.50000000029343
 51
166.5000000005964
  0
ARC
  5
26D
330
79
100
AcDbEntity
  8
1
  6
Continuous
 62
     1
100
AcDbCircle
 10
36.49263486258666
 20
6.030100564673148
 30
0.0
 40
0.2000000000016305
100
AcDbArc
 50
46.50000000029343
 51
166.5000000005964
  0
LINE
  5
26E
330
79
100
AcDbEntity
  8
1
  6
Continuous
 62
     1
100
AcDbLine
 10
37.08299191903033
 20
5.745592330935295
 30
0.0
 11
36.63030577772578
 21
6.175175438877488
 31
0.0
  0
LINE
  5
26F
330
79
100
AcDbEntity
  8
1
  6
Continuous
 62
     1
100
AcDbLine
 10
37.3637423431018
 20
3.281477483397722
 30
0.0
 11
37.08299191903033
 21
5.745592330935295
 31
0.0
  0
ARC
  5
270
330
79
100
AcDbEntity
  8
1
  6
Continuous
 62
     1
100
AcDbCircle
 10
37.06567078639689
 20
3.247516519260387
 30
0.0
 40
0.3000000000026265
100
AcDbArc
 50
251.5000000000544
 51
6.500000001284119
  0
ARC
  5
271
330
79
100
AcDbEntity
  8
1
  6
Continuous
 62
     1
100
AcDbCircle
 10
37.06567078639689
 20
3.247516519260387
 30
0.0
 40
0.3000000000026265
100
AcDbArc
 50
251.5000000000544
 51
6.500000001284119
  0
LINE
  5
272
330
79
100
AcDbEntity
  8
1
  6
Continuous
 62
     1
100
AcDbLine
 10
35.35841344088998
 20
3.502409143829226
 30
0.0
 11
36.97047938947479
 21
2.963019422695936
 31
0.0
  0
ARC
  5
273
330
79
100
AcDbEntity
  8
1
  6
Continuous
 62
     1
100
AcDbCircle
 10
35.05491694052652
 20
3.632007890512341
 30
0.0
 40
0.3
100
AcDbArc
 50
1.495701000001368
 51
91.4957010000123
  0
ARC
  5
274
330
79
100
AcDbEntity
  8
1
  6
Continuous
 62
     1
100
AcDbCircle
 10
35.05491694052652
 20
3.632007890512341
 30
0.0
 40
0.3
100
AcDbArc
 50
1.495701000001368
 51
91.4957010000123
  0
LINE
  5
275
330
79
100
AcDbEntity
  8
1
  6
Continuous
 62
     1
100
AcDbLine
 10
33.98162668749238
 20
3.904005633874107
 30
0.0
 11
35.04706385603468
 21
3.93190508800501
 31
0.0
  0
ARC
  5
276
330
79
100
AcDbEntity
  8
1
  6
Continuous
 62
     1
100
AcDbCircle
 10
33.98817092456902
 20
3.654091302630206
 30
0.0
 40
0.25
100
AcDbArc
 50
91.49999999992451
 51
181.4999999999995
  0
ARC
  5
277
330
79
100
AcDbEntity
  8
1
  6
Continuous
 62
     1
100
AcDbCircle
 10
33.98817092456902
 20
3.654091302630206
 30
0.0
 40
0.25
100
AcDbArc
 50
91.49999999992451
 51
181.4999999999995
  0
LINE
  5
278
330
79
100
AcDbEntity
  8
1
  6
Continuous
 62
     1
100
AcDbLine
 10
33.73825659332512
 20
3.64754706555324
 30
0.0
 11
33.82033523535775
 21
0.5130901851366332
 31
0.0
  0
ARC
  5
279
330
79
100
AcDbEntity
  8
1
  6
Continuous
 62
     1
100
AcDbCircle
 10
33.32050657286995
 20
0.5000017109827013
 30
0.0
 40
0.5
100
AcDbArc
 50
270.0
 51
1.499999999999482
  0
ARC
  5
27A
330
79
100
AcDbEntity
  8
1
  6
Continuous
 62
     1
100
AcDbCircle
 10
33.32050657286995
 20
0.5000017109827013
 30
0.0
 40
0.5
100
AcDbArc
 50
270.0
 51
1.499999999999482
  0
ENDBLK
  5
7B
330
79
100
AcDbEntity
  8
0
100
AcDbBlockEnd
  0
BLOCK
  5
27C
330
27B
100
AcDbEntity
  8
0
100
AcDbBlockBegin
  2
PROTO
 70
     2
 10
0.0
 20
0.0
 30
0.0
  3
PROTO
  1
PROTO
  0
ATTDEF
  5
27E
330
27B
100
AcDbEntity
  8
0
100
AcDbText
 10
0.0
 20
0.0
 30
0.0
 40
1.0
  1

100
AcDbAttributeDefinition
  3
Enter PAT_NAME
  2
PAT_NAME
 70
     0
280
     0
  0
TEXT
  5
282
330
27B
100
AcDbEntity
  8
0
  6
Continuous
 62
    15
100
AcDbText
 10
37.52283264570863
 20
11.5
 30
0.0
 40
2.259999990463257
  1
Mountpleasant, Dundalk, Ireland
100
AcDbText
  0
TEXT
  5
283
330
27B
100
AcDbEntity
  8
0
  6
Continuous
 62
    15
100
AcDbText
 10
39.64518013372943
 20
7.657999515533447
 30
0.0
 40
2.259999990463257
  1
Telephone (353/42) 9371244
100
AcDbText
  0
TEXT
  5
284
330
27B
100
AcDbEntity
  8
0
  6
Continuous
 62
    15
100
AcDbText
 10
44.78349510472715
 20
3.815999031066895
 30
0.0
 40
2.259999990463257
  1
Fax (353/42) 9371221
100
AcDbText
  0
TEXT
  5
285
330
27B
100
AcDbEntity
  8
0
  6
Continuous
 62
    15
100
AcDbText
 10
86.31014251708984
 20
5.490000009536743
 30
0.0
 40
2.509999990463257
  1
DESCRIPTION
100
AcDbText
  0
TEXT
  5
286
330
27B
100
AcDbEntity
  8
0
  6
Continuous
 62
    15
100
AcDbText
 10
86.31014251708984
 20
14.49000000953674
 30
0.0
 40
2.509999990463257
  1
CODE
100
AcDbText
  0
TEXT
  5
287
330
27B
100
AcDbEntity
  8
0
  6
Continuous
 62
    15
100
AcDbText
 10
178.299991607666
 20
5.490000009536743
 30
0.0
 40
2.509999990463257
  1
DRAWN
100
AcDbText
  0
TEXT
  5
288
330
27B
100
AcDbEntity
  8
0
  6
Continuous
 62
    15
100
AcDbText
 10
210.2999954223633
 20
14.49000000953674
 30
0.0
 40
2.509999990463257
  1
SCALE
100
AcDbText
  0
TEXT
  5
289
330
27B
100
AcDbEntity
  8
0
  6
Continuous
 62
    15
100
AcDbText
 10
112.4369713596958
 20
191.9650012254715
 30
0.0
 40
1.509999990463257
  1
DATE
100
AcDbText
  0
TEXT
  5
28A
330
27B
100
AcDbEntity
  8
0
  6
Continuous
 62
    15
100
AcDbText
 10
122.048675766414
 20
191.9650012254715
 30
0.0
 40
1.509999990463257
  1
ISSUE
100
AcDbText
  0
TEXT
  5
28B
330
27B
100
AcDbEntity
  8
0
  6
Continuous
 62
    15
100
AcDbText
 10
196.0493249518564
 20
191.9650012254715
 30
0.0
 40
1.509999990463257
  1
CHANGE
100
AcDbText
  0
TEXT
  5
28C
330
27B
100
AcDbEntity
  8
0
  6
Continuous
 62
    15
100
AcDbText
 10
273.0606305700418
 20
191.9650012254715
 30
0.0
 40
1.509999990463257
  1
SIGNED
100
AcDbText
  0
TEXT
  5
28D
330
27B
100
AcDbEntity
  8
0
  6
Continuous
 62
    15
100
AcDbText
 10
1.999984741210938
 20
189.7100012302399
 30
0.0
 40
1.509999990463257
  1
THIS DRAWING IS THE PROPERTY OF EXITEX LTD AND MUST
100
AcDbText
  0
TEXT
  5
28E
330
27B
100
AcDbEntity
  8
0
  6
Continuous
 62
    15
100
AcDbText
 10
1.999984741210938
 20
187.1430008411407
 30
0.0
 40
1.509999990463257
  1
NOT BE REPRODUCED IN WHOLE OR IN PART WITHOUT CONSENT
100
AcDbText
  0
TEXT
  5
28F
330
27B
100
AcDbEntity
  8
0
  6
Continuous
 62
    15
100
AcDbText
 10
1.999984741210938
 20
184.5760004520416
 30
0.0
 40
1.509999990463257
  1
C  COPYRIGHT EXITEX.
100
AcDbText
  0
TEXT
  5
290
330
27B
100
AcDbEntity
  8
0
  6
Continuous
 62
    15
100
AcDbText
 10
86.31014251708984
 20
10.49000000953674
 30
0.0
 40
2.509999990463257
  1
OUM 70 RITB v.1
100
AcDbText
  0
TEXT
  5
291
330
27B
100
AcDbEntity
  8
0
  6
Continuous
 62
    15
100
AcDbText
 10
86.31014251708984
 20
1.490000009536743
 30
0.0
 40
2.509999990463257
  1
XX
100
AcDbText
  0
TEXT
  5
292
330
27B
100
AcDbEntity
  8
0
  6
Continuous
 62
    15
100
AcDbText
 10
210.2999954223633
 20
10.49000000953674
 30
0.0
 40
2.509999990463257
  1
1:1
100
AcDbText
  0
TEXT
  5
293
330
27B
100
AcDbEntity
  8
0
  6
Continuous
 62
    15
100
AcDbText
 10
178.299991607666
 20
1.490000009536743
 30
0.0
 40
2.509999990463257
  1
SBG
100
AcDbText
  0
TEXT
  5
294
330
27B
100
AcDbEntity
  8
0
  6
Continuous
 62
    15
100
AcDbText
 10
242.2999954223633
 20
1.490000009536743
 30
0.0
 40
2.509999990463257
  1
05/02/19
100
AcDbText
  0
TEXT
  5
295
330
27B
100
AcDbEntity
  8
0
  6
Continuous
 62
    15
100
AcDbText
 10
96.40379333496094
 20
189.2220687866211
 30
0.0
 40
1.509999990463257
  1
First angle
100
AcDbText
  0
TEXT
  5
296
330
27B
100
AcDbEntity
  8
0
  6
Continuous
 62
    15
100
AcDbText
 10
96.40379333496094
 20
186.655068397522
 30
0.0
 40
1.509999990463257
  1
projection
100
AcDbText
  0
TEXT
  5
297
330
27B
100
AcDbEntity
  8
0
  6
Continuous
 62
    15
100
AcDbText
 10
178.299991607666
 20
10.49000000953674
 30
0.0
 40
2.509999990463257
  1
XX
100
AcDbText
  0
TEXT
  5
298
330
27B
100
AcDbEntity
  8
0
  6
Continuous
 62
    15
100
AcDbText
 10
210.2999954223633
 20
1.490000009536743
 30
0.0
 40
2.509999990463257
  1
XX
100
AcDbText
  0
TEXT
  5
299
330
27B
100
AcDbEntity
  8
0
  6
Continuous
 62
    15
100
AcDbText
 10
110.6497313697836
 20
188.9650012254715
 30
0.0
 40
1.509999990463257
  1
05/02/19
100
AcDbText
  0
TEXT
  5
29A
330
27B
100
AcDbEntity
  8
0
  6
Continuous
 62
    15
100
AcDbText
 10
110.6497313697836
 20
186.9650012254715
 30
0.0
 40
1.509999990463257
  1
XX/XX/XX
100
AcDbText
  0
TEXT
  5
29B
330
27B
100
AcDbEntity
  8
0
  6
Continuous
 62
    15
100
AcDbText
 10
110.6497313697836
 20
184.9650012254715
 30
0.0
 40
1.509999990463257
  1
XX/XX/XX
100
AcDbText
  0
TEXT
  5
29C
330
27B
100
AcDbEntity
  8
0
  6
Continuous
 62
    15
100
AcDbText
 10
110.6497313697836
 20
182.9650012254715
 30
0.0
 40
1.509999990463257
  1
XX/XX/XX
100
AcDbText
  0
TEXT
  5
29D
330
27B
100
AcDbEntity
  8
0
  6
Continuous
 62
    15
100
AcDbText
 10
123.8359157563262
 20
188.9650012254715
 30
0.0
 40
1.509999990463257
  1
1
100
AcDbText
  0
TEXT
  5
29E
330
27B
100
AcDbEntity
  8
0
  6
Continuous
 62
    15
100
AcDbText
 10
123.8359157563262
 20
186.9650012254715
 30
0.0
 40
1.509999990463257
  1
2
100
AcDbText
  0
TEXT
  5
29F
330
27B
100
AcDbEntity
  8
0
  6
Continuous
 62
    15
100
AcDbText
 10
123.8359157563262
 20
184.9650012254715
 30
0.0
 40
1.509999990463257
  1
3
100
AcDbText
  0
TEXT
  5
2A0
330
27B
100
AcDbEntity
  8
0
  6
Continuous
 62
    15
100
AcDbText
 10
123.8359157563262
 20
182.9650012254715
 30
0.0
 40
1.509999990463257
  1
4
100
AcDbText
  0
TEXT
  5
2A1
330
27B
100
AcDbEntity
  8
0
  6
Continuous
 62
    15
100
AcDbText
 10
192.6982499707709
 20
188.9650012254715
 30
0.0
 40
1.509999990463257
  1
Original drawing
100
AcDbText
  0
TEXT
  5
2A2
330
27B
100
AcDbEntity
  8
0
  6
Continuous
 62
    15
100
AcDbText
 10
198.7301849367248
 20
186.9650012254715
 30
0.0
 40
1.509999990463257
  1
XX
100
AcDbText
  0
TEXT
  5
2A3
330
27B
100
AcDbEntity
  8
0
  6
Continuous
 62
    15
100
AcDbText
 10
198.7301849367248
 20
184.9650012254715
 30
0.0
 40
1.509999990463257
  1
XX
100
AcDbText
  0
TEXT
  5
2A4
330
27B
100
AcDbEntity
  8
0
  6
Continuous
 62
    15
100
AcDbText
 10
198.7301849367248
 20
182.9650012254715
 30
0.0
 40
1.509999990463257
  1
XX
100
AcDbText
  0
TEXT
  5
2A5
330
27B
100
AcDbEntity
  8
0
  6
Continuous
 62
    15
100
AcDbText
 10
274.6244655612151
 20
188.9650012254715
 30
0.0
 40
1.509999990463257
  1
SBG
100
AcDbText
  0
TEXT
  5
2A6
330
27B
100
AcDbEntity
  8
0
  6
Continuous
 62
    15
100
AcDbText
 10
275.1829780580626
 20
186.9650012254715
 30
0.0
 40
1.509999990463257
  1
XX
100
AcDbText
  0
TEXT
  5
2A7
330
27B
100
AcDbEntity
  8
0
  6
Continuous
 62
    15
100
AcDbText
 10
242.2999954223633
 20
14.49000000953674
 30
0.0
 40
2.509999990463257
  1
ORIGINAL DRAW DATE
100
AcDbText
  0
TEXT
  5
2A8
330
27B
100
AcDbEntity
  8
0
  6
Continuous
 62
    15
100
AcDbText
 10
242.2999954223633
 20
5.490000009536743
 30
0.0
 40
2.509999990463257
  1
DATE OF LAST REV.
100
AcDbText
  0
TEXT
  5
2A9
330
27B
100
AcDbEntity
  8
0
  6
Continuous
 62
    15
100
AcDbText
 10
210.2999954223633
 20
5.490000009536743
 30
0.0
 40
2.509999990463257
  1
TOLERANCE
100
AcDbText
  0
TEXT
  5
2AA
330
27B
100
AcDbEntity
  8
0
  6
Continuous
 62
    15
100
AcDbText
 10
178.299991607666
 20
14.49000000953674
 30
0.0
 40
2.509999990463257
  1
APPROVED
100
AcDbText
  0
TEXT
  5
2AB
330
27B
100
AcDbEntity
  8
0
  6
Continuous
 62
    15
100
AcDbText
 10
210.2999954223633
 20
23.49000000953674
 30
0.0
 40
2.509999990463257
  1
DRAWING No
100
AcDbText
  0
TEXT
  5
2AC
330
27B
100
AcDbEntity
  8
0
  6
Continuous
 62
    15
100
AcDbText
 10
210.2999954223633
 20
19.74000000953674
 30
0.0
 40
2.259999990463257
  1
[Cust. no.] - [proj. no.] - [prod. type] - [dwg no.]
100
AcDbText
  0
TEXT
  5
2AD
330
27B
100
AcDbEntity
  8
0
  6
Continuous
 62
    15
100
AcDbText
 10
242.2999954223633
 20
10.49000000953674
 30
0.0
 40
2.509999990463257
  1
05/02/19
100
AcDbText
  0
TEXT
  5
2AE
330
27B
100
AcDbEntity
  8
0
  6
Continuous
 62
    15
100
AcDbText
 10
275.1829780580626
 20
184.9650012254715
 30
0.0
 40
1.509999990463257
  1
XX
100
AcDbText
  0
TEXT
  5
2AF
330
27B
100
AcDbEntity
  8
0
  6
Continuous
 62
    15
100
AcDbText
 10
275.1829780580626
 20
182.9650012254715
 30
0.0
 40
1.509999990463257
  1
XX
100
AcDbText
  0
LINE
  5
2B0
330
27B
100
AcDbEntity
  8
0
  6
Continuous
 62
     9
100
AcDbLine
 10
-0.0000061035156307
 20
0.0000006103515915
 30
0.0
 11
281.2999938964844
 21
0.0000006103515631
 31
0.0
  0
LINE
  5
2B1
330
27B
100
AcDbEntity
  8
0
  6
Continuous
 62
     9
100
AcDbLine
 10
-0.0000061035156307
 20
18.00000061035161
 30
0.0
 11
281.2999938964844
 21
18.00000061035158
 31
0.0
  0
LINE
  5
2B2
330
27B
100
AcDbEntity
  8
0
  6
Continuous
 62
     9
100
AcDbLine
 10
-0.0000061035156307
 20
194.2200006103516
 30
0.0
 11
281.2999938964844
 21
194.2200006103515
 31
0.0
  0
LINE
  5
2B3
330
27B
100
AcDbEntity
  8
0
  6
Continuous
 62
     9
100
AcDbLine
 10
281.2999938964844
 20
0.0000006103515631
 30
0.0
 11
281.2999938964844
 21
194.2200006103515
 31
0.0
  0
LINE
  5
2B4
330
27B
100
AcDbEntity
  8
0
  6
Continuous
 62
     9
100
AcDbLine
 10
-0.0000061035156307
 20
0.0000006103515631
 30
0.0
 11
-0.0000061035156307
 21
194.2200006103515
 31
0.0
  0
CIRCLE
  5
2B5
330
27B
100
AcDbEntity
  8
0
  6
Continuous
 62
     1
100
AcDbCircle
 10
2.799993896484381
 20
185.2635328862652
 30
0.0
 40
1.0
  0
ARC
  5
2B6
330
27B
100
AcDbEntity
  8
0
  6
Continuous
 62
     1
100
AcDbCircle
 10
2.799993896484381
 20
185.2635328862652
 30
0.0
 40
1.0
100
AcDbArc
 50
0.0
 51
0.0
  0
LINE
  5
2B7
330
27B
100
AcDbEntity
  8
0
  6
Continuous
 62
     9
100
AcDbLine
 10
85.31014389648439
 20
18.00000061035161
 30
0.0
 11
85.31014389648439
 21
9.000000610351549
 31
0.0
  0
LINE
  5
2B8
330
27B
100
AcDbEntity
  8
0
  6
Continuous
 62
     9
100
AcDbLine
 10
85.31014389648439
 20
9.000000610351549
 30
0.0
 11
85.31014389648439
 21
0.0000006103515489
 31
0.0
  0
LINE
  5
2B9
330
27B
100
AcDbEntity
  8
0
  6
Continuous
 62
     9
100
AcDbLine
 10
85.31014389648439
 20
9.000000610351549
 30
0.0
 11
177.2999938964844
 21
9.000000610351549
 31
0.0
  0
LINE
  5
2BA
330
27B
100
AcDbEntity
  8
0
  6
Continuous
 62
     9
100
AcDbLine
 10
177.2999938964844
 20
9.000000610351549
 30
0.0
 11
209.2999938964844
 21
9.000000610351549
 31
0.0
  0
LINE
  5
2BB
330
27B
100
AcDbEntity
  8
0
  6
Continuous
 62
     9
100
AcDbLine
 10
209.2999938964844
 20
9.000000610351549
 30
0.0
 11
241.2999938964844
 21
9.000000610351549
 31
0.0
  0
LINE
  5
2BC
330
27B
100
AcDbEntity
  8
0
  6
Continuous
 62
     9
100
AcDbLine
 10
241.2999938964844
 20
9.000000610351549
 30
0.0
 11
281.2999938964844
 21
9.000000610351549
 31
0.0
  0
LINE
  5
2BD
330
27B
100
AcDbEntity
  8
0
  6
Continuous
 62
     9
100
AcDbLine
 10
177.2999938964844
 20
18.00000061035161
 30
0.0
 11
177.2999938964844
 21
9.000000610351549
 31
0.0
  0
LINE
  5
2BE
330
27B
100
AcDbEntity
  8
0
  6
Continuous
 62
     9
100
AcDbLine
 10
177.2999938964844
 20
9.000000610351549
 30
0.0
 11
177.2999938964844
 21
0.0000006103515489
 31
0.0
  0
LINE
  5
2BF
330
27B
100
AcDbEntity
  8
0
  6
Continuous
 62
     9
100
AcDbLine
 10
209.2999938964844
 20
18.00000061035158
 30
0.0
 11
209.2999938964844
 21
9.000000610351549
 31
0.0
  0
LINE
  5
2C0
330
27B
100
AcDbEntity
  8
0
  6
Continuous
 62
     9
100
AcDbLine
 10
209.2999938964844
 20
9.000000610351549
 30
0.0
 11
209.2999938964844
 21
0.0000006103515915
 31
0.0
  0
LINE
  5
2C1
330
27B
100
AcDbEntity
  8
0
  6
Continuous
 62
     9
100
AcDbLine
 10
241.2999938964844
 20
18.00000061035158
 30
0.0
 11
241.2999938964844
 21
0.0000006103515489
 31
0.0
  0
LINE
  5
2C2
330
27B
100
AcDbEntity
  8
0
  6
Continuous
 62
     9
100
AcDbLine
 10
209.2999938964844
 20
18.00000061035158
 30
0.0
 11
209.2999938964844
 21
27.00000061035161
 31
0.0
  0
LINE
  5
2C3
330
27B
100
AcDbEntity
  8
0
  6
Continuous
 62
     9
100
AcDbLine
 10
209.2999938964844
 20
27.00000061035161
 30
0.0
 11
281.2999938964844
 21
27.00000061035161
 31
0.0
  0
LINE
  5
2C4
330
27B
100
AcDbEntity
  8
0
  6
Continuous
 62
     1
100
AcDbLine
 10
75.64442652442855
 20
189.9603816671182
 30
0.0
 11
75.64442652442855
 21
186.479619553585
 31
0.0
  0
LINE
  5
2C5
330
27B
100
AcDbEntity
  8
0
  6
Continuous
 62
     1
100
AcDbLine
 10
83.14442652442855
 20
191.9700006103516
 30
0.0
 11
83.14442652442855
 21
184.4700006103516
 31
0.0
  0
LINE
  5
2C6
330
27B
100
AcDbEntity
  8
0
  6
Continuous
 62
     1
100
AcDbLine
 10
83.14442652442855
 20
184.4700006103516
 30
0.0
 11
75.64442652442855
 21
186.479619553585
 31
0.0
  0
LINE
  5
2C7
330
27B
100
AcDbEntity
  8
0
  6
Continuous
 62
     1
100
AcDbLine
 10
83.14442652442855
 20
191.9700006103516
 30
0.0
 11
75.64442652442855
 21
189.9603816671182
 31
0.0
  0
ARC
  5
2C8
330
27B
100
AcDbEntity
  8
0
  6
Continuous
 62
     1
100
AcDbCircle
 10
89.39442652442855
 20
188.2200006103516
 30
0.0
 40
3.75
100
AcDbArc
 50
180.0
 51
0.0
  0
ARC
  5
2C9
330
27B
100
AcDbEntity
  8
0
  6
Continuous
 62
     1
100
AcDbCircle
 10
89.39442652442855
 20
188.2200006103516
 30
0.0
 40
3.75
100
AcDbArc
 50
180.0
 51
0.0
  0
ARC
  5
2CA
330
27B
100
AcDbEntity
  8
0
  6
Continuous
 62
     1
100
AcDbCircle
 10
89.39442652442855
 20
188.2200006103516
 30
0.0
 40
3.75
100
AcDbArc
 50
0.0
 51
180.0
  0
ARC
  5
2CB
330
27B
100
AcDbEntity
  8
0
  6
Continuous
 62
     1
100
AcDbCircle
 10
89.39442652442855
 20
188.2200006103516
 30
0.0
 40
3.75
100
AcDbArc
 50
0.0
 51
180.0
  0
ARC
  5
2CC
330
27B
100
AcDbEntity
  8
0
  6
Continuous
 62
     1
100
AcDbCircle
 10
89.39442652442855
 20
188.2200006103516
 30
0.0
 40
1.740381057
100
AcDbArc
 50
180.0
 51
0.0
  0
ARC
  5
2CD
330
27B
100
AcDbEntity
  8
0
  6
Continuous
 62
     1
100
AcDbCircle
 10
89.39442652442855
 20
188.2200006103516
 30
0.0
 40
1.740381057
100
AcDbArc
 50
180.0
 51
0.0
  0
ARC
  5
2CE
330
27B
100
AcDbEntity
  8
0
  6
Continuous
 62
     1
100
AcDbCircle
 10
89.39442652442855
 20
188.2200006103516
 30
0.0
 40
1.740381057
100
AcDbArc
 50
0.0
 51
180.0
  0
ARC
  5
2CF
330
27B
100
AcDbEntity
  8
0
  6
Continuous
 62
     1
100
AcDbCircle
 10
89.39442652442855
 20
188.2200006103516
 30
0.0
 40
1.740381057
100
AcDbArc
 50
0.0
 51
180.0
  0
LINE
  5
2D0
330
27B
100
AcDbEntity
  8
0
  6
Continuous
 62
     1
100
AcDbLine
 10
89.39442652442855
 20
188.7200006103516
 30
0.0
 11
89.39442652442855
 21
187.7200006103516
 31
0.0
  0
LINE
  5
2D1
330
27B
100
AcDbEntity
  8
0
  6
Continuous
 62
     1
100
AcDbLine
 10
88.89442652442855
 20
188.2200006103516
 30
0.0
 11
89.89442652442855
 21
188.2200006103516
 31
0.0
  0
LINE
  5
2D2
330
27B
100
AcDbEntity
  8
0
  6
DOT
 62
     1
100
AcDbLine
 10
88.39442652442855
 20
188.2200006103516
 30
0.0
 11
72.1374692456863
 21
188.2200006103516
 31
0.0
  0
LINE
  5
2D3
330
27B
100
AcDbEntity
  8
0
  6
DOT
 62
     1
100
AcDbLine
 10
90.39442652442855
 20
188.2200006103516
 30
0.0
 11
96.40379684897243
 21
188.2200006103516
 31
0.0
  0
LINE
  5
2D4
330
27B
100
AcDbEntity
  8
0
  6
DOT
 62
     1
100
AcDbLine
 10
89.39442652442855
 20
187.2200006103516
 30
0.0
 11
89.39442652442855
 21
183.2200006103516
 31
0.0
  0
LINE
  5
2D5
330
27B
100
AcDbEntity
  8
0
  6
DOT
 62
     1
100
AcDbLine
 10
89.39442652442855
 20
189.2200006103516
 30
0.0
 11
89.39442652442855
 21
193.2200006103516
 31
0.0
  0
LINE
  5
2D6
330
27B
100
AcDbEntity
  8
0
  6
Continuous
 62
     2
100
AcDbLine
 10
109.3944265244286
 20
194.2200006103515
 30
0.0
 11
109.3944265244286
 21
182.2200006103516
 31
0.0
  0
LINE
  5
2D7
330
27B
100
AcDbEntity
  8
0
  6
Continuous
 62
     2
100
AcDbLine
 10
281.2999938964844
 20
191.2200006103515
 30
0.0
 11
109.3944265244286
 21
191.2200006103515
 31
0.0
  0
LINE
  5
2D8
330
27B
100
AcDbEntity
  8
0
  6
Continuous
 62
     2
100
AcDbLine
 10
120.3944265244285
 20
194.2200006103515
 30
0.0
 11
120.3944265244285
 21
182.2200006103516
 31
0.0
  0
LINE
  5
2D9
330
27B
100
AcDbEntity
  8
0
  6
Continuous
 62
     2
100
AcDbLine
 10
128.3944265244285
 20
194.2200006103515
 30
0.0
 11
128.3944265244285
 21
182.2200006103516
 31
0.0
  0
LINE
  5
2DA
330
27B
100
AcDbEntity
  8
0
  6
Continuous
 62
     2
100
AcDbLine
 10
271.2999938964844
 20
194.2200006103515
 30
0.0
 11
271.2999938964844
 21
182.2200006103516
 31
0.0
  0
ENDBLK
  5
27D
330
27B
100
AcDbEntity
  8
0
100
AcDbBlockEnd
  0
BLOCK
  5
2DC
330
2DB
100
AcDbEntity
  8
0
100
AcDbBlockBegin
  2
_RASTER_[X__IMAGES_LOGO_JPG]
 70
     2
 10
0.0
 20
0.0
 30
0.0
  3
_RASTER_[X__IMAGES_LOGO_JPG]
  1
_RASTER_[X__IMAGES_LOGO_JPG]
  0
ATTDEF
  5
2DE
330
2DB
100
AcDbEntity
  8
1
100
AcDbText
 10
0.0
 20
0.0
 30
0.0
 40
1.0
  1

100
AcDbAttributeDefinition
  3
Enter PAT_NAME
  2
PAT_NAME
 70
     0
280
     0
  0
ATTDEF
  5
2DF
330
2DB
100
AcDbEntity
  8
1
100
AcDbText
 10
0.0
 20
0.0
 30
0.0
 40
1.0
  1

100
AcDbAttributeDefinition
  3
Enter Symbol_Description
  2
Symbol_Description
 70
     0
280
     0
  0
ENDBLK
  5
2DD
330
2DB
100
AcDbEntity
  8
0
100
AcDbBlockEnd
  0
BLOCK
  5
2E5
330
2E4
100
AcDbEntity
  8
0
100
AcDbBlockBegin
  2
GEN_BLOCK00001
 70
     0
 10
0.0
 20
0.0
 30
0.0
  3
GEN_BLOCK00001
  1
GEN_BLOCK00001
  0
LINE
  5
2E8
330
2E4
100
AcDbEntity
  8
1
  6
HIDDEN
 62
     1
100
AcDbLine
 10
15.23571586608887
 20
31.9714789390564
 30
0.0
 11
26.18256092071533
 21
31.9714789390564
 31
0.0
  0
LINE
  5
2E9
330
2E4
100
AcDbEntity
  8
1
  6
HIDDEN
 62
     1
100
AcDbLine
 10
26.18256092071533
 20
31.9714789390564
 30
0.0
 11
26.18256092071533
 21
37.36972999572754
 31
0.0
  0
LINE
  5
2EA
330
2E4
100
AcDbEntity
  8
1
  6
HIDDEN
 62
     1
100
AcDbLine
 10
26.18256092071533
 20
37.36972999572754
 30
0.0
 11
15.23571586608887
 21
37.36972999572754
 31
0.0
  0
LINE
  5
2EB
330
2E4
100
AcDbEntity
  8
1
  6
HIDDEN
 62
     1
100
AcDbLine
 10
15.23571586608887
 20
37.36972999572754
 30
0.0
 11
15.23571586608887
 21
31.9714789390564
 31
0.0
  0
TEXT
  5
2EC
330
2E4
100
AcDbEntity
  8
1
  6
HIDDEN
 62
    15
100
AcDbText
 10
17.35806293547947
 20
35.19910442829132
 30
0.0
 40
1.509999990463257
  1
44mm
  7
ARIAL
100
AcDbText
  0
TEXT
  5
2ED
330
2E4
100
AcDbEntity
  8
1
  6
HIDDEN
 62
    15
100
AcDbText
 10
16.91125293800141
 20
32.6321040391922
 30
0.0
 40
1.509999990463257
  1
DOOR
  7
ARIAL
100
AcDbText
  0
LINE
  5
2EE
330
2E4
100
AcDbEntity
  8
1
  6
HIDDEN
 62
     1
100
AcDbLine
 10
-0.0000004360128969
 20
68.52457728784877
 30
0.0
 11
17.18078715672831
 21
64.09983337842375
 31
0.0
  0
LINE
  5
2EF
330
2E4
100
AcDbEntity
  8
1
  6
HIDDEN
 62
     1
100
AcDbLine
 10
17.18078715672831
 20
64.09983337842375
 30
0.0
 11
17.18078715672831
 21
60.5333583256906
 31
0.0
  0
LINE
  5
2F0
330
2E4
100
AcDbEntity
  8
1
  6
HIDDEN
 62
     1
100
AcDbLine
 10
17.18078715672831
 20
60.5333583256906
 30
0.0
 11
43.9999995639871
 21
64.09983337842375
 31
0.0
  0
LINE
  5
2F1
330
2E4
100
AcDbEntity
  8
1
  6
HIDDEN
 62
     1
100
AcDbLine
 10
-0.0000004360128969
 20
68.52457728784877
 30
0.0
 11
-0.0000004360128969
 21
-0.0000008594956427
 31
0.0
  0
LINE
  5
2F2
330
2E4
100
AcDbEntity
  8
1
  6
HIDDEN
 62
     1
100
AcDbLine
 10
-0.0000004360128969
 20
-0.0000008594956427
 30
0.0
 11
43.9999995639871
 21
-0.0000008594956498
 31
0.0
  0
LINE
  5
2F3
330
2E4
100
AcDbEntity
  8
1
  6
HIDDEN
 62
     1
100
AcDbLine
 10
43.9999995639871
 20
-0.0000008594956498
 30
0.0
 11
43.9999995639871
 21
64.09983337842375
 31
0.0
  0
ENDBLK
  5
2E6
330
2E4
100
AcDbEntity
  8
0
100
AcDbBlockEnd
  0
BLOCK
  5
2F5
330
2F4
100
AcDbEntity
  8
0
100
AcDbBlockBegin
  2
GEN_BLOCK00002
 70
     0
 10
0.0
 20
0.0
 30
0.0
  3
GEN_BLOCK00002
  1
GEN_BLOCK00002
  0
LINE
  5
2F8
330
2F4
100
AcDbEntity
  8
1
  6
Continuous
 62
    10
100
AcDbLine
 10
23.23513017258627
 20
33.04453708648681
 30
0.0
 11
23.23513043680134
 21
27.00000105935128
 31
0.0
  0
LINE
  5
2F9
330
2F4
100
AcDbEntity
  8
1
  6
Continuous
 62
    10
100
AcDbLine
 10
23.23513161700891
 20
0.0000002155934382
 30
0.0
 11
23.23513152958613
 21
2.000000215593431
 31
0.0
  0
LINE
  5
2FA
330
2F4
100
AcDbEntity
  8
1
  6
Continuous
 62
    10
100
AcDbLine
 10
23.48513039308995
 20
28.00000107027913
 30
0.0
 11
23.23513043680134
 21
27.00000105935128
 31
0.0
  0
LINE
  5
2FB
330
2F4
100
AcDbEntity
  8
1
  6
Continuous
 62
    10
100
AcDbLine
 10
23.23513043680134
 20
27.00000105935128
 30
0.0
 11
22.98513039308995
 21
28.00000104842343
 31
0.0
  0
LINE
  5
2FC
330
2F4
100
AcDbEntity
  8
1
  6
Continuous
 62
    10
100
AcDbLine
 10
22.98513157329752
 20
1.000000204665582
 30
0.0
 11
23.23513152958613
 21
2.000000215593431
 31
0.0
  0
LINE
  5
2FD
330
2F4
100
AcDbEntity
  8
1
  6
Continuous
 62
    10
100
AcDbLine
 10
23.23513152958613
 20
2.000000215593431
 30
0.0
 11
23.48513157329752
 21
1.00000022652128
 31
0.0
  0
LINE
  5
2FE
330
2F4
100
AcDbEntity
  8
1
  6
Continuous
 62
    10
100
AcDbLine
 10
-0.0000009536743164
 20
27.00000004371139
 30
0.0
 11
23.73513043680134
 21
27.00000108120697
 31
0.0
  0
LINE
  5
2FF
330
2F4
100
AcDbEntity
  8
1
  6
Continuous
 62
    10
100
AcDbLine
 10
19.30292892456054
 20
2.000000043711395
 30
0.0
 11
23.73513152958613
 21
2.000000237449129
 31
0.0
  0
TEXT
  5
300
330
2F4
100
AcDbEntity
  8
1
  6
Continuous
 62
     1
100
AcDbText
 10
22.73511769899365
 20
30.94202398389754
 30
0.0
 40
1.0
  1
25
 50
89.71352388012032
100
AcDbText
  0
ENDBLK
  5
2F6
330
2F4
100
AcDbEntity
  8
0
100
AcDbBlockEnd
  0
BLOCK
  5
302
330
301
100
AcDbEntity
  8
0
100
AcDbBlockBegin
  2
GEN_BLOCK00003
 70
     0
 10
0.0
 20
0.0
 30
0.0
  3
GEN_BLOCK00003
  1
GEN_BLOCK00003
  0
LINE
  5
305
330
301
100
AcDbEntity
  8
1
  6
Continuous
 62
     1
100
AcDbLine
 10
8.500000083332953
 20
10.39347722518633
 30
0.0
 11
8.500000083332953
 21
9.300000380189402
 31
0.0
  0
ARC
  5
306
330
301
100
AcDbEntity
  8
1
  6
Continuous
 62
     1
100
AcDbCircle
 10
9.200000083332942
 20
9.300000380189402
 30
0.0
 40
0.7
100
AcDbArc
 50
180.0
 51
270.0
  0
ARC
  5
307
330
301
100
AcDbEntity
  8
1
  6
Continuous
 62
     1
100
AcDbCircle
 10
9.200000083332942
 20
9.300000380189402
 30
0.0
 40
0.7
100
AcDbArc
 50
180.0
 51
270.0
  0
ARC
  5
308
330
301
100
AcDbEntity
  8
1
  6
Continuous
 62
     1
100
AcDbCircle
 10
9.200000083332942
 20
9.300000380189402
 30
0.0
 40
0.7
100
AcDbArc
 50
180.0
 51
270.0
  0
ARC
  5
309
330
301
100
AcDbEntity
  8
1
  6
Continuous
 62
     1
100
AcDbCircle
 10
9.200000083332942
 20
9.300000380189402
 30
0.0
 40
0.7
100
AcDbArc
 50
180.0
 51
270.0
  0
LINE
  5
30A
330
301
100
AcDbEntity
  8
1
  6
Continuous
 62
     1
100
AcDbLine
 10
9.200000083332942
 20
8.6000003801894
 30
0.0
 11
11.50000008333295
 21
8.6000003801894
 31
0.0
  0
LINE
  5
30B
330
301
100
AcDbEntity
  8
1
  6
Continuous
 62
     1
100
AcDbLine
 10
11.50000008333295
 20
8.6000003801894
 30
0.0
 11
11.50000008333295
 21
7.6000003801894
 31
0.0
  0
LINE
  5
30C
330
301
100
AcDbEntity
  8
1
  6
Continuous
 62
     1
100
AcDbLine
 10
11.50000008333295
 20
7.6000003801894
 30
0.0
 11
17.50000008333294
 21
7.6000003801894
 31
0.0
  0
LINE
  5
30D
330
301
100
AcDbEntity
  8
1
  6
Continuous
 62
     1
100
AcDbLine
 10
17.50000008333294
 20
7.6000003801894
 30
0.0
 11
17.50000008333294
 21
5.000000380189405
 31
0.0
  0
LINE
  5
30E
330
301
100
AcDbEntity
  8
1
  6
Continuous
 62
     1
100
AcDbLine
 10
17.50000008333294
 20
5.000000380189405
 30
0.0
 11
12.87082047658288
 21
5.000000380189405
 31
0.0
  0
ARC
  5
30F
330
301
100
AcDbEntity
  8
1
  6
Continuous
 62
     1
100
AcDbCircle
 10
12.20000008333294
 20
4.800000380189402
 30
0.0
 40
0.7
100
AcDbArc
 50
16.60154959902038
 51
180.0
  0
ARC
  5
310
330
301
100
AcDbEntity
  8
1
  6
Continuous
 62
     1
100
AcDbCircle
 10
12.20000008333294
 20
4.800000380189402
 30
0.0
 40
0.7
100
AcDbArc
 50
16.60154959902038
 51
180.0
  0
LINE
  5
311
330
301
100
AcDbEntity
  8
1
  6
Continuous
 62
     1
100
AcDbLine
 10
11.50000008333295
 20
4.800000380189402
 30
0.0
 11
11.50000008333295
 21
0.0000003801894053
 31
0.0
  0
LINE
  5
312
330
301
100
AcDbEntity
  8
1
  6
Continuous
 62
     1
100
AcDbLine
 10
11.50000008333295
 20
0.0000003801894053
 30
0.0
 11
5.332455615366616
 21
0.0000003801894053
 31
0.0
  0
ARC
  5
313
330
301
100
AcDbEntity
  8
1
  6
Continuous
 62
     1
100
AcDbCircle
 10
10.21574760151687
 20
25.29502783087317
 30
0.0
 40
15.0
100
AcDbArc
 50
231.1698626798446
 51
263.4319515940675
  0
ARC
  5
314
330
301
100
AcDbEntity
  8
1
  6
Continuous
 62
     1
100
AcDbCircle
 10
10.21574760151687
 20
25.29502783087317
 30
0.0
 40
15.0
100
AcDbArc
 50
231.1698626798446
 51
263.4319515940675
  0
ARC
  5
315
330
301
100
AcDbEntity
  8
1
  6
Continuous
 62
     1
100
AcDbCircle
 10
0.5000000833329388
 20
13.22408233283764
 30
0.0
 40
0.5
100
AcDbArc
 50
51.16986267984488
 51
222.2883014305924
  0
ARC
  5
316
330
301
100
AcDbEntity
  8
1
  6
Continuous
 62
     1
100
AcDbCircle
 10
0.5000000833329388
 20
13.22408233283764
 30
0.0
 40
0.5
100
AcDbArc
 50
51.16986267984488
 51
222.2883014305924
  0
LINE
  5
317
330
301
100
AcDbEntity
  8
1
  6
Continuous
 62
     1
100
AcDbLine
 10
0.1301158361918233
 20
12.88765159150023
 30
0.0
 11
3.097674786603552
 21
9.625008873844855
 31
0.0
  0
ARC
  5
318
330
301
100
AcDbEntity
  8
1
  6
Continuous
 62
     1
100
AcDbCircle
 10
2.72779053946245
 20
9.288578132507432
 30
0.0
 40
0.5
100
AcDbArc
 50
332.6270108325029
 51
42.28830143059302
  0
ARC
  5
319
330
301
100
AcDbEntity
  8
1
  6
Continuous
 62
     1
100
AcDbCircle
 10
2.72779053946245
 20
9.288578132507432
 30
0.0
 40
0.5
100
AcDbArc
 50
332.6270108325029
 51
42.28830143059302
  0
ARC
  5
31A
330
301
100
AcDbEntity
  8
1
  6
Continuous
 62
     1
100
AcDbCircle
 10
8.500000083332953
 20
6.300000380189402
 30
0.0
 40
6.0
100
AcDbArc
 50
152.6270108325026
 51
201.7728202966151
  0
ARC
  5
31B
330
301
100
AcDbEntity
  8
1
  6
Continuous
 62
     1
100
AcDbCircle
 10
8.500000083332953
 20
6.300000380189402
 30
0.0
 40
6.0
100
AcDbArc
 50
152.6270108325026
 51
201.7728202966151
  0
ARC
  5
31C
330
301
100
AcDbEntity
  8
1
  6
Continuous
 62
     1
100
AcDbCircle
 10
2.463697797433714
 20
3.888972650517317
 30
0.0
 40
0.5
100
AcDbArc
 50
239.9999999999998
 51
21.77282029661541
  0
ARC
  5
31D
330
301
100
AcDbEntity
  8
1
  6
Continuous
 62
     1
100
AcDbCircle
 10
2.463697797433714
 20
3.888972650517317
 30
0.0
 40
0.5
100
AcDbArc
 50
239.9999999999998
 51
21.77282029661541
  0
LINE
  5
31E
330
301
100
AcDbEntity
  8
1
  6
Continuous
 62
     1
100
AcDbLine
 10
2.213697797433714
 20
3.4559599486251
 30
0.0
 11
0.9000000833329445
 21
4.21442367749497
 31
0.0
  0
ARC
  5
31F
330
301
100
AcDbEntity
  8
1
  6
Continuous
 62
     1
100
AcDbCircle
 10
0.6000000833329473
 20
3.69480843522431
 30
0.0
 40
0.6000000000000005
100
AcDbArc
 50
60.0000000000001
 51
239.9999999999995
  0
ARC
  5
320
330
301
100
AcDbEntity
  8
1
  6
Continuous
 62
     1
100
AcDbCircle
 10
0.6000000833329473
 20
3.69480843522431
 30
0.0
 40
0.6000000000000005
100
AcDbArc
 50
60.0000000000001
 51
239.9999999999995
  0
LINE
  5
321
330
301
100
AcDbEntity
  8
1
  6
Continuous
 62
     1
100
AcDbLine
 10
0.3000000833329359
 20
3.17519319295365
 30
0.0
 11
4.067544551299267
 21
1.000000380189405
 31
0.0
  0
LINE
  5
322
330
301
100
AcDbEntity
  8
1
  6
Continuous
 62
     1
100
AcDbLine
 10
4.067544551299267
 20
1.000000380189405
 30
0.0
 11
4.700000083332942
 21
1.000000380189405
 31
0.0
  0
LINE
  5
323
330
301
100
AcDbEntity
  8
1
  6
Continuous
 62
     1
100
AcDbLine
 10
8.552515636973272
 20
6.333363254205985
 30
0.0
 11
6.445852727502331
 21
8.59323801163844
 31
0.0
  0
LINE
  5
324
330
301
100
AcDbEntity
  8
1
  6
Continuous
 62
     1
100
AcDbLine
 10
6.445852727502331
 20
8.59323801163844
 30
0.0
 11
6.139429031579287
 21
8.70814689760958
 31
0.0
  0
LINE
  5
325
330
301
100
AcDbEntity
  8
1
  6
Continuous
 62
     1
100
AcDbLine
 10
6.139429031579287
 20
8.70814689760958
 30
0.0
 11
5.756399411675478
 21
8.823055783580728
 31
0.0
  0
LINE
  5
326
330
301
100
AcDbEntity
  8
1
  6
Continuous
 62
     1
100
AcDbLine
 10
5.756399411675478
 20
8.823055783580728
 30
0.0
 11
5.488278677742816
 21
8.823055783580728
 31
0.0
  0
LINE
  5
327
330
301
100
AcDbEntity
  8
1
  6
Continuous
 62
     1
100
AcDbLine
 10
5.488278677742816
 20
8.823055783580728
 30
0.0
 11
5.220157943810154
 21
8.823055783580728
 31
0.0
  0
LINE
  5
328
330
301
100
AcDbEntity
  8
1
  6
Continuous
 62
     1
100
AcDbLine
 10
5.220157943810154
 20
8.823055783580728
 30
0.0
 11
4.913734247887096
 21
8.746449859599963
 31
0.0
  0
LINE
  5
329
330
301
100
AcDbEntity
  8
1
  6
Continuous
 62
     1
100
AcDbLine
 10
4.913734247887096
 20
8.746449859599963
 30
0.0
 11
4.492401665992919
 21
8.59323801163844
 31
0.0
  0
LINE
  5
32A
330
301
100
AcDbEntity
  8
1
  6
Continuous
 62
     1
100
AcDbLine
 10
4.492401665992919
 20
8.59323801163844
 30
0.0
 11
4.262583894050625
 21
8.478329125667301
 31
0.0
  0
ARC
  5
32B
330
301
100
AcDbEntity
  8
1
  6
Continuous
 62
     1
100
AcDbCircle
 10
8.500000083332953
 20
6.300000380189402
 30
0.0
 40
4.8
100
AcDbArc
 50
157.4325272696865
 51
195.7138610480081
  0
ARC
  5
32C
330
301
100
AcDbEntity
  8
1
  6
Continuous
 62
     1
100
AcDbCircle
 10
8.500000083332953
 20
6.300000380189402
 30
0.0
 40
4.8
100
AcDbArc
 50
157.4325272696865
 51
195.7138610480081
  0
ARC
  5
32D
330
301
100
AcDbEntity
  8
1
  6
Continuous
 62
     1
100
AcDbCircle
 10
8.500000083332953
 20
6.300000380189402
 30
0.0
 40
4.8
100
AcDbArc
 50
195.7138610480081
 51
202.5674727303135
  0
ARC
  5
32E
330
301
100
AcDbEntity
  8
1
  6
Continuous
 62
     1
100
AcDbCircle
 10
8.500000083332953
 20
6.300000380189402
 30
0.0
 40
4.8
100
AcDbArc
 50
195.7138610480081
 51
202.5674727303135
  0
LINE
  5
32F
330
301
100
AcDbEntity
  8
1
  6
Continuous
 62
     1
100
AcDbLine
 10
8.500000083332953
 20
6.300000380189402
 30
0.0
 11
8.500000083332953
 21
1.500000380189405
 31
0.0
  0
LINE
  5
330
330
301
100
AcDbEntity
  8
1
  6
Continuous
 62
     1
100
AcDbLine
 10
8.500000083332953
 20
1.500000380189405
 30
0.0
 11
6.752276423425375
 21
1.583795967398792
 31
0.0
  0
LINE
  5
331
330
301
100
AcDbEntity
  8
1
  6
Continuous
 62
     1
100
AcDbLine
 10
6.752276423425375
 20
1.583795967398792
 30
0.0
 11
4.722219437935212
 21
2.694581865119829
 31
0.0
  0
LINE
  5
332
330
301
100
AcDbEntity
  8
1
  6
Continuous
 62
     1
100
AcDbLine
 10
4.722219437935212
 20
2.694581865119829
 30
0.0
 11
4.377492780021772
 21
3.154217409004396
 31
0.0
  0
LINE
  5
333
330
301
100
AcDbEntity
  8
1
  6
Continuous
 62
     1
100
AcDbLine
 10
4.377492780021772
 20
3.154217409004396
 30
0.0
 11
4.224280932060257
 21
3.690458876869727
 31
0.0
  0
LINE
  5
334
330
301
100
AcDbEntity
  8
1
  6
Continuous
 62
     1
100
AcDbLine
 10
4.224280932060257
 20
3.690458876869727
 30
0.0
 11
4.067544551299267
 21
4.457898874695182
 31
0.0
  0
LINE
  5
335
330
301
100
AcDbEntity
  8
1
  6
Continuous
 62
     1
100
AcDbLine
 10
4.262583894050625
 20
8.478329125667301
 30
0.0
 11
4.067544551299267
 21
8.142101885683623
 31
0.0
  0
LINE
  5
336
330
301
100
AcDbEntity
  8
1
  6
Continuous
 62
     1
100
AcDbLine
 10
4.700000083332942
 20
1.000000380189405
 30
0.0
 11
5.332455615366616
 21
1.000000380189405
 31
0.0
  0
LINE
  5
337
330
301
100
AcDbEntity
  8
1
  6
Continuous
 62
     1
100
AcDbLine
 10
5.332455615366616
 20
1.000000380189405
 30
0.0
 11
5.332455615366616
 21
0.0000003801894053
 31
0.0
  0
ENDBLK
  5
303
330
301
100
AcDbEntity
  8
0
100
AcDbBlockEnd
  0
BLOCK
  5
33A
330
339
100
AcDbEntity
  8
0
100
AcDbBlockBegin
  2
GEN_BLOCK00004
 70
     0
 10
0.0
 20
0.0
 30
0.0
  3
GEN_BLOCK00004
  1
GEN_BLOCK00004
  0
LINE
  5
33D
330
339
100
AcDbEntity
  8
SYSTEM_ASSIGNED_LAYER
  6
Continuous
 62
     1
100
AcDbLine
 10
0.0000001587896747
 20
0.000001457363652
 30
0.0
 11
0.0000001587896747
 21
81.31690294787829
 31
0.0
  0
LINE
  5
33E
330
339
100
AcDbEntity
  8
SYSTEM_ASSIGNED_LAYER
  6
Continuous
 62
     1
100
AcDbLine
 10
70.00000015878967
 20
81.31690294787829
 30
0.0
 11
51.31246744987509
 21
86.05670369698741
 31
0.0
  0
LINE
  5
33F
330
339
100
AcDbEntity
  8
SYSTEM_ASSIGNED_LAYER
  6
Continuous
 62
     1
100
AcDbLine
 10
51.31246744987509
 20
86.05670369698741
 30
0.0
 11
0.0000001587896747
 21
81.31690294787829
 31
0.0
  0
LINE
  5
340
330
339
100
AcDbEntity
  8
SYSTEM_ASSIGNED_LAYER
  6
Continuous
 62
     1
100
AcDbLine
 10
51.31246744987509
 20
14.20437345994284
 30
0.0
 11
51.31246744987509
 21
86.05670369698741
 31
0.0
  0
LINE
  5
341
330
339
100
AcDbEntity
  8
SYSTEM_ASSIGNED_LAYER
  6
Continuous
 62
     1
100
AcDbLine
 10
70.00000015878967
 20
81.31690294787829
 30
0.0
 11
70.00000015878969
 21
12.25163464374393
 31
0.0
  0
ENDBLK
  5
33B
330
339
100
AcDbEntity
  8
0
100
AcDbBlockEnd
  0
BLOCK
  5
343
330
342
100
AcDbEntity
  8
0
100
AcDbBlockBegin
  2
GEN_BLOCK00005
 70
     0
 10
0.0
 20
0.0
 30
0.0
  3
GEN_BLOCK00005
  1
GEN_BLOCK00005
  0
LINE
  5
346
330
342
100
AcDbEntity
  8
1
  6
Continuous
 62
     1
100
AcDbLine
 10
3.499998587928616
 20
16.50095457405233
 30
0.0
 11
3.499998587928616
 21
14.37640498133579
 31
0.0
  0
LINE
  5
347
330
342
100
AcDbEntity
  8
1
  6
Continuous
 62
     1
100
AcDbLine
 10
2.999998580478035
 20
13.87640497388522
 30
0.0
 11
1.999998565576874
 21
13.87640497388522
 31
0.0
  0
LINE
  5
348
330
342
100
AcDbEntity
  8
1
  6
Continuous
 62
     1
100
AcDbLine
 10
1.499998558126293
 20
14.37640498133579
 30
0.0
 11
1.499998558126293
 21
15.87640500368754
 31
0.0
  0
LINE
  5
349
330
342
100
AcDbEntity
  8
1
  6
Continuous
 62
     1
100
AcDbLine
 10
0.9999985506757127
 20
16.37640501113813
 30
0.0
 11
0.4999985432251322
 21
16.37640501113813
 31
0.0
  0
LINE
  5
34A
330
342
100
AcDbEntity
  8
1
  6
Continuous
 62
     1
100
AcDbLine
 10
26.26062264397139
 20
1.13775227495762
 30
0.0
 11
5.225900897919686
 21
2.228912123293597
 31
0.0
  0
LINE
  5
34B
330
342
100
AcDbEntity
  8
1
  6
Continuous
 62
     1
100
AcDbLine
 10
3.025900865137132
 20
2.343035415775972
 30
0.0
 11
0.4740962585660498
 21
2.475408297200566
 31
0.0
  0
LINE
  5
34C
330
342
100
AcDbEntity
  8
1
  6
Continuous
 62
     1
100
AcDbLine
 10
-0.0000014642254484
 20
15.87640500368754
 30
0.0
 11
-0.0000014642254484
 21
14.17640497835556
 31
0.0
  0
LINE
  5
34D
330
342
100
AcDbEntity
  8
1
  6
Continuous
 62
     1
100
AcDbLine
 10
-0.0000014642254484
 20
3.172910281472554
 30
0.0
 11
-0.0000014642254484
 21
2.974736925560698
 31
0.0
  0
ARC
  5
34E
330
342
100
AcDbEntity
  8
1
  6
Continuous
 62
     1
100
AcDbCircle
 10
-38.83759405751989
 20
-152.9250353807325
 30
0.0
 40
173.5000025853515
100
AcDbArc
 50
67.13402998437384
 51
75.25292644146009
  0
ARC
  5
34F
330
342
100
AcDbEntity
  8
1
  6
Continuous
 62
     1
100
AcDbCircle
 10
-38.83759405751989
 20
-152.9250353807325
 30
0.0
 40
173.5000025853515
100
AcDbArc
 50
67.13402998437384
 51
75.25292644146009
  0
LINE
  5
350
330
342
100
AcDbEntity
  8
1
  6
Continuous
 62
     1
100
AcDbLine
 10
4.699998605810009
 20
3.457806390321117
 30
0.0
 11
26.85573724974445
 21
2.308494661344959
 31
0.0
  0
LINE
  5
351
330
342
100
AcDbEntity
  8
1
  6
Continuous
 62
     1
100
AcDbLine
 10
4.699998605810009
 20
1.729583494933443
 30
0.0
 11
4.699998605810009
 21
0.5000017184332819
 31
0.0
  0
LINE
  5
352
330
342
100
AcDbEntity
  8
1
  6
Continuous
 62
     1
100
AcDbLine
 10
4.199998598359443
 20
0.0000017109827084
 30
0.0
 11
3.999998595379196
 21
0.0000017109827084
 31
0.0
  0
LINE
  5
353
330
342
100
AcDbEntity
  8
1
  6
Continuous
 62
     1
100
AcDbLine
 10
3.499998587928616
 20
0.5000017184332819
 30
0.0
 11
3.499998587928616
 21
1.843706787415826
 31
0.0
  0
ARC
  5
354
330
342
100
AcDbEntity
  8
1
  6
Continuous
 62
     1
100
AcDbCircle
 10
28.99999896790855
 20
8.39161560487566
 30
0.0
 40
0.2500000037252903
100
AcDbArc
 50
337.1511313813791
 51
157.2329825019328
  0
ARC
  5
355
330
342
100
AcDbEntity
  8
1
  6
Continuous
 62
     1
100
AcDbCircle
 10
28.99999896790855
 20
8.39161560487566
 30
0.0
 40
0.2500000037252903
100
AcDbArc
 50
337.1511313813791
 51
157.2329825019328
  0
ARC
  5
356
330
342
100
AcDbEntity
  8
1
  6
Continuous
 62
     1
100
AcDbCircle
 10
23.99999889340273
 20
10.40419600431483
 30
0.0
 40
0.2500000037252903
100
AcDbArc
 50
338.9158619348287
 51
180.0
  0
ARC
  5
357
330
342
100
AcDbEntity
  8
1
  6
Continuous
 62
     1
100
AcDbCircle
 10
23.99999889340273
 20
10.40419600431483
 30
0.0
 40
0.2500000037252903
100
AcDbArc
 50
338.9158619348287
 51
180.0
  0
ARC
  5
358
330
342
100
AcDbEntity
  8
1
  6
Continuous
 62
     1
100
AcDbCircle
 10
18.99999881889691
 20
12.2409834093262
 30
0.0
 40
0.2500000037252903
100
AcDbArc
 50
340.6599162631006
 51
180.0
  0
ARC
  5
359
330
342
100
AcDbEntity
  8
1
  6
Continuous
 62
     1
100
AcDbCircle
 10
18.99999881889691
 20
12.2409834093262
 30
0.0
 40
0.2500000037252903
100
AcDbArc
 50
340.6599162631006
 51
180.0
  0
ARC
  5
35A
330
342
100
AcDbEntity
  8
1
  6
Continuous
 62
     1
100
AcDbCircle
 10
13.99999874439111
 20
13.90778423098422
 30
0.0
 40
0.2500000037252903
100
AcDbArc
 50
342.3855683597517
 51
180.0
  0
ARC
  5
35B
330
342
100
AcDbEntity
  8
1
  6
Continuous
 62
     1
100
AcDbCircle
 10
13.99999874439111
 20
13.90778423098422
 30
0.0
 40
0.2500000037252903
100
AcDbArc
 50
342.3855683597517
 51
180.0
  0
ARC
  5
35C
330
342
100
AcDbEntity
  8
1
  6
Continuous
 62
     1
100
AcDbCircle
 10
-38.83759405751989
 20
-152.9250353807325
 30
0.0
 40
175.0000026077032
100
AcDbArc
 50
67.27390806220251
 51
68.87493637456525
  0
ARC
  5
35D
330
342
100
AcDbEntity
  8
1
  6
Continuous
 62
     1
100
AcDbCircle
 10
-38.83759405751989
 20
-152.9250353807325
 30
0.0
 40
175.0000026077032
100
AcDbArc
 50
67.27390806220251
 51
68.87493637456525
  0
ARC
  5
35E
330
342
100
AcDbEntity
  8
1
  6
Continuous
 62
     1
100
AcDbCircle
 10
-38.83759405751989
 20
-152.9250353807325
 30
0.0
 40
175.0000026077032
100
AcDbArc
 50
69.03863861565955
 51
70.6189907028248
  0
ARC
  5
35F
330
342
100
AcDbEntity
  8
1
  6
Continuous
 62
     1
100
AcDbCircle
 10
-38.83759405751989
 20
-152.9250353807325
 30
0.0
 40
175.0000026077032
100
AcDbArc
 50
69.03863861565955
 51
70.6189907028248
  0
ARC
  5
360
330
342
100
AcDbEntity
  8
1
  6
Continuous
 62
     1
100
AcDbCircle
 10
-38.83759405751989
 20
-152.9250353807325
 30
0.0
 40
175.0000026077032
100
AcDbArc
 50
70.78269294391913
 51
72.34464279947835
  0
ARC
  5
361
330
342
100
AcDbEntity
  8
1
  6
Continuous
 62
     1
100
AcDbCircle
 10
-38.83759405751989
 20
-152.9250353807325
 30
0.0
 40
175.0000026077032
100
AcDbArc
 50
70.78269294391913
 51
72.34464279947835
  0
ARC
  5
362
330
342
100
AcDbEntity
  8
1
  6
Continuous
 62
     1
100
AcDbCircle
 10
8.9999986698853
 20
15.40964801738092
 30
0.0
 40
0.2500000037252903
100
AcDbArc
 50
344.0949086191479
 51
180.0
  0
ARC
  5
363
330
342
100
AcDbEntity
  8
1
  6
Continuous
 62
     1
100
AcDbCircle
 10
8.9999986698853
 20
15.40964801738092
 30
0.0
 40
0.2500000037252903
100
AcDbArc
 50
344.0949086191479
 51
180.0
  0
ARC
  5
364
330
342
100
AcDbEntity
  8
1
  6
Continuous
 62
     1
100
AcDbCircle
 10
3.999998595379523
 20
16.75095457777761
 30
0.0
 40
0.2500000037252903
100
AcDbArc
 50
345.7898729014275
 51
180.0
  0
ARC
  5
365
330
342
100
AcDbEntity
  8
1
  6
Continuous
 62
     1
100
AcDbCircle
 10
3.999998595379523
 20
16.75095457777761
 30
0.0
 40
0.2500000037252903
100
AcDbArc
 50
345.7898729014275
 51
180.0
  0
ARC
  5
366
330
342
100
AcDbEntity
  8
1
  6
Continuous
 62
     1
100
AcDbCircle
 10
-38.83759405751989
 20
-152.9250353807325
 30
0.0
 40
175.0000026077032
100
AcDbArc
 50
72.50834504057266
 51
74.05398305887867
  0
ARC
  5
367
330
342
100
AcDbEntity
  8
1
  6
Continuous
 62
     1
100
AcDbCircle
 10
-38.83759405751989
 20
-152.9250353807325
 30
0.0
 40
175.0000026077032
100
AcDbArc
 50
72.50834504057266
 51
74.05398305887867
  0
ARC
  5
368
330
342
100
AcDbEntity
  8
1
  6
Continuous
 62
     1
100
AcDbCircle
 10
-38.83759405751989
 20
-152.9250353807325
 30
0.0
 40
175.0000026077032
100
AcDbArc
 50
74.21768529997298
 51
75.74894734113752
  0
ARC
  5
369
330
342
100
AcDbEntity
  8
1
  6
Continuous
 62
     1
100
AcDbCircle
 10
-38.83759405751989
 20
-152.9250353807325
 30
0.0
 40
175.0000026077032
100
AcDbArc
 50
74.21768529997298
 51
75.74894734113752
  0
ARC
  5
36A
330
342
100
AcDbEntity
  8
1
  6
Continuous
 62
     1
100
AcDbCircle
 10
28.99999896790855
 20
8.39161560487566
 30
0.0
 40
0.2500000037252903
100
AcDbArc
 50
337.1511313813791
 51
157.2329825019328
  0
ARC
  5
36B
330
342
100
AcDbEntity
  8
1
  6
Continuous
 62
     1
100
AcDbCircle
 10
28.99999896790855
 20
8.39161560487566
 30
0.0
 40
0.2500000037252903
100
AcDbArc
 50
337.1511313813791
 51
157.2329825019328
  0
ARC
  5
36C
330
342
100
AcDbEntity
  8
1
  6
Continuous
 62
     1
100
AcDbCircle
 10
23.99999889340273
 20
10.40419600431483
 30
0.0
 40
0.2500000037252903
100
AcDbArc
 50
338.9158619348287
 51
180.0
  0
ARC
  5
36D
330
342
100
AcDbEntity
  8
1
  6
Continuous
 62
     1
100
AcDbCircle
 10
23.99999889340273
 20
10.40419600431483
 30
0.0
 40
0.2500000037252903
100
AcDbArc
 50
338.9158619348287
 51
180.0
  0
ARC
  5
36E
330
342
100
AcDbEntity
  8
1
  6
Continuous
 62
     1
100
AcDbCircle
 10
18.99999881889691
 20
12.2409834093262
 30
0.0
 40
0.2500000037252903
100
AcDbArc
 50
340.6599162631006
 51
180.0
  0
ARC
  5
36F
330
342
100
AcDbEntity
  8
1
  6
Continuous
 62
     1
100
AcDbCircle
 10
18.99999881889691
 20
12.2409834093262
 30
0.0
 40
0.2500000037252903
100
AcDbArc
 50
340.6599162631006
 51
180.0
  0
ARC
  5
370
330
342
100
AcDbEntity
  8
1
  6
Continuous
 62
     1
100
AcDbCircle
 10
13.99999874439111
 20
13.90778423098422
 30
0.0
 40
0.2500000037252903
100
AcDbArc
 50
342.3855683597517
 51
180.0
  0
ARC
  5
371
330
342
100
AcDbEntity
  8
1
  6
Continuous
 62
     1
100
AcDbCircle
 10
13.99999874439111
 20
13.90778423098422
 30
0.0
 40
0.2500000037252903
100
AcDbArc
 50
342.3855683597517
 51
180.0
  0
ARC
  5
372
330
342
100
AcDbEntity
  8
1
  6
Continuous
 62
     1
100
AcDbCircle
 10
-38.83759405751989
 20
-152.9250353807325
 30
0.0
 40
175.0000026077032
100
AcDbArc
 50
66.0025628817193
 51
67.1102058211082
  0
ARC
  5
373
330
342
100
AcDbEntity
  8
1
  6
Continuous
 62
     1
100
AcDbCircle
 10
-38.83759405751989
 20
-152.9250353807325
 30
0.0
 40
175.0000026077032
100
AcDbArc
 50
66.0025628817193
 51
67.1102058211082
  0
ARC
  5
374
330
342
100
AcDbEntity
  8
1
  6
Continuous
 62
     1
100
AcDbCircle
 10
-38.83759405751989
 20
-152.9250353807325
 30
0.0
 40
175.0000026077032
100
AcDbArc
 50
67.27390806220251
 51
68.87493637456525
  0
ARC
  5
375
330
342
100
AcDbEntity
  8
1
  6
Continuous
 62
     1
100
AcDbCircle
 10
-38.83759405751989
 20
-152.9250353807325
 30
0.0
 40
175.0000026077032
100
AcDbArc
 50
67.27390806220251
 51
68.87493637456525
  0
ARC
  5
376
330
342
100
AcDbEntity
  8
1
  6
Continuous
 62
     1
100
AcDbCircle
 10
-38.83759405751989
 20
-152.9250353807325
 30
0.0
 40
175.0000026077032
100
AcDbArc
 50
69.03863861565955
 51
70.6189907028248
  0
ARC
  5
377
330
342
100
AcDbEntity
  8
1
  6
Continuous
 62
     1
100
AcDbCircle
 10
-38.83759405751989
 20
-152.9250353807325
 30
0.0
 40
175.0000026077032
100
AcDbArc
 50
69.03863861565955
 51
70.6189907028248
  0
ARC
  5
378
330
342
100
AcDbEntity
  8
1
  6
Continuous
 62
     1
100
AcDbCircle
 10
-38.83759405751989
 20
-152.9250353807325
 30
0.0
 40
175.0000026077032
100
AcDbArc
 50
70.78269294391913
 51
72.34464279947835
  0
ARC
  5
379
330
342
100
AcDbEntity
  8
1
  6
Continuous
 62
     1
100
AcDbCircle
 10
-38.83759405751989
 20
-152.9250353807325
 30
0.0
 40
175.0000026077032
100
AcDbArc
 50
70.78269294391913
 51
72.34464279947835
  0
ARC
  5
37A
330
342
100
AcDbEntity
  8
1
  6
Continuous
 62
     1
100
AcDbCircle
 10
8.9999986698853
 20
15.40964801738092
 30
0.0
 40
0.2500000037252903
100
AcDbArc
 50
344.0949086191479
 51
180.0
  0
ARC
  5
37B
330
342
100
AcDbEntity
  8
1
  6
Continuous
 62
     1
100
AcDbCircle
 10
8.9999986698853
 20
15.40964801738092
 30
0.0
 40
0.2500000037252903
100
AcDbArc
 50
344.0949086191479
 51
180.0
  0
ARC
  5
37C
330
342
100
AcDbEntity
  8
1
  6
Continuous
 62
     1
100
AcDbCircle
 10
3.999998595379523
 20
16.75095457777761
 30
0.0
 40
0.2500000037252903
100
AcDbArc
 50
345.7898729014275
 51
180.0
  0
ARC
  5
37D
330
342
100
AcDbEntity
  8
1
  6
Continuous
 62
     1
100
AcDbCircle
 10
3.999998595379523
 20
16.75095457777761
 30
0.0
 40
0.2500000037252903
100
AcDbArc
 50
345.7898729014275
 51
180.0
  0
ARC
  5
37E
330
342
100
AcDbEntity
  8
1
  6
Continuous
 62
     1
100
AcDbCircle
 10
-38.83759405751989
 20
-152.9250353807325
 30
0.0
 40
175.0000026077032
100
AcDbArc
 50
72.50834504057266
 51
74.05398305887867
  0
ARC
  5
37F
330
342
100
AcDbEntity
  8
1
  6
Continuous
 62
     1
100
AcDbCircle
 10
-38.83759405751989
 20
-152.9250353807325
 30
0.0
 40
175.0000026077032
100
AcDbArc
 50
72.50834504057266
 51
74.05398305887867
  0
ARC
  5
380
330
342
100
AcDbEntity
  8
1
  6
Continuous
 62
     1
100
AcDbCircle
 10
-38.83759405751989
 20
-152.9250353807325
 30
0.0
 40
175.0000026077032
100
AcDbArc
 50
74.21768529997298
 51
75.74894734113752
  0
ARC
  5
381
330
342
100
AcDbEntity
  8
1
  6
Continuous
 62
     1
100
AcDbCircle
 10
-38.83759405751989
 20
-152.9250353807325
 30
0.0
 40
175.0000026077032
100
AcDbArc
 50
74.21768529997298
 51
75.74894734113752
  0
ARC
  5
382
330
342
100
AcDbEntity
  8
1
  6
Continuous
 62
     1
100
AcDbCircle
 10
5.199998613260604
 20
1.729583494933443
 30
0.0
 40
0.5000000074505806
100
AcDbArc
 50
87.03048763146612
 51
180.0
  0
ARC
  5
383
330
342
100
AcDbEntity
  8
1
  6
Continuous
 62
     1
100
AcDbCircle
 10
5.199998613260604
 20
1.729583494933443
 30
0.0
 40
0.5000000074505806
100
AcDbArc
 50
87.03048763146612
 51
180.0
  0
ARC
  5
384
330
342
100
AcDbEntity
  8
1
  6
Continuous
 62
     1
100
AcDbCircle
 10
2.999998580478035
 20
1.843706787415826
 30
0.0
 40
0.5000000074505806
100
AcDbArc
 50
0.0
 51
87.03048763146612
  0
ARC
  5
385
330
342
100
AcDbEntity
  8
1
  6
Continuous
 62
     1
100
AcDbCircle
 10
2.999998580478035
 20
1.843706787415826
 30
0.0
 40
0.5000000074505806
100
AcDbArc
 50
0.0
 51
87.03048763146612
  0
ARC
  5
386
330
342
100
AcDbEntity
  8
1
  6
Continuous
 62
     1
100
AcDbCircle
 10
3.999998595379196
 20
0.5000017184332819
 30
0.0
 40
0.5000000074505806
100
AcDbArc
 50
180.0
 51
270.0
  0
ARC
  5
387
330
342
100
AcDbEntity
  8
1
  6
Continuous
 62
     1
100
AcDbCircle
 10
3.999998595379196
 20
0.5000017184332819
 30
0.0
 40
0.5000000074505806
100
AcDbArc
 50
180.0
 51
270.0
  0
ARC
  5
388
330
342
100
AcDbEntity
  8
1
  6
Continuous
 62
     1
100
AcDbCircle
 10
4.199998598359443
 20
0.5000017184332819
 30
0.0
 40
0.5000000074505806
100
AcDbArc
 50
270.0
 51
0.0
  0
ARC
  5
389
330
342
100
AcDbEntity
  8
1
  6
Continuous
 62
     1
100
AcDbCircle
 10
4.199998598359443
 20
0.5000017184332819
 30
0.0
 40
0.5000000074505806
100
AcDbArc
 50
270.0
 51
0.0
  0
ARC
  5
38A
330
342
100
AcDbEntity
  8
1
  6
Continuous
 62
     1
100
AcDbCircle
 10
0.4999985432251322
 20
2.974736925560698
 30
0.0
 40
0.5000000074505806
100
AcDbArc
 50
180.0
 51
267.0304876314661
  0
ARC
  5
38B
330
342
100
AcDbEntity
  8
1
  6
Continuous
 62
     1
100
AcDbCircle
 10
0.4999985432251322
 20
2.974736925560698
 30
0.0
 40
0.5000000074505806
100
AcDbArc
 50
180.0
 51
267.0304876314661
  0
ARC
  5
38C
330
342
100
AcDbEntity
  8
1
  6
Continuous
 62
     1
100
AcDbCircle
 10
0.9999985506757127
 20
15.87640500368754
 30
0.0
 40
0.5000000074505806
100
AcDbArc
 50
0.0
 51
90.0
  0
ARC
  5
38D
330
342
100
AcDbEntity
  8
1
  6
Continuous
 62
     1
100
AcDbCircle
 10
0.9999985506757127
 20
15.87640500368754
 30
0.0
 40
0.5000000074505806
100
AcDbArc
 50
0.0
 51
90.0
  0
ARC
  5
38E
330
342
100
AcDbEntity
  8
1
  6
Continuous
 62
     1
100
AcDbCircle
 10
1.999998565576874
 20
14.37640498133579
 30
0.0
 40
0.5000000074505806
100
AcDbArc
 50
180.0
 51
270.0
  0
ARC
  5
38F
330
342
100
AcDbEntity
  8
1
  6
Continuous
 62
     1
100
AcDbCircle
 10
1.999998565576874
 20
14.37640498133579
 30
0.0
 40
0.5000000074505806
100
AcDbArc
 50
180.0
 51
270.0
  0
ARC
  5
390
330
342
100
AcDbEntity
  8
1
  6
Continuous
 62
     1
100
AcDbCircle
 10
2.999998580478035
 20
14.37640498133579
 30
0.0
 40
0.5000000074505806
100
AcDbArc
 50
270.0
 51
0.0
  0
ARC
  5
391
330
342
100
AcDbEntity
  8
1
  6
Continuous
 62
     1
100
AcDbCircle
 10
2.999998580478035
 20
14.37640498133579
 30
0.0
 40
0.5000000074505806
100
AcDbArc
 50
270.0
 51
0.0
  0
ARC
  5
392
330
342
100
AcDbEntity
  8
1
  6
Continuous
 62
     1
100
AcDbCircle
 10
3.749998591653906
 20
16.50095457405233
 30
0.0
 40
0.2500000037252903
100
AcDbArc
 50
90.0
 51
180.0
  0
ARC
  5
393
330
342
100
AcDbEntity
  8
1
  6
Continuous
 62
     1
100
AcDbCircle
 10
3.749998591653906
 20
16.50095457405233
 30
0.0
 40
0.2500000037252903
100
AcDbArc
 50
90.0
 51
180.0
  0
ARC
  5
394
330
342
100
AcDbEntity
  8
1
  6
Continuous
 62
     1
100
AcDbCircle
 10
0.4999985432251322
 20
15.87640500368754
 30
0.0
 40
0.5000000074505806
100
AcDbArc
 50
90.0
 51
180.0
  0
ARC
  5
395
330
342
100
AcDbEntity
  8
1
  6
Continuous
 62
     1
100
AcDbCircle
 10
0.4999985432251322
 20
15.87640500368754
 30
0.0
 40
0.5000000074505806
100
AcDbArc
 50
90.0
 51
180.0
  0
LINE
  5
396
330
342
100
AcDbEntity
  8
1
  6
Continuous
 62
     1
100
AcDbLine
 10
4.699998605810009
 20
14.37616402834576
 30
0.0
 11
4.699998605810009
 21
3.457806390321117
 31
0.0
  0
LINE
  5
397
330
342
100
AcDbEntity
  8
1
  6
Continuous
 62
     1
100
AcDbLine
 10
1.499998558126293
 20
12.67640495600382
 30
0.0
 11
2.999998580478035
 21
12.67640495600382
 31
0.0
  0
LINE
  5
398
330
342
100
AcDbEntity
  8
1
  6
Continuous
 62
     1
100
AcDbLine
 10
3.499998587928616
 20
12.17640494855323
 30
0.0
 11
3.499998587928616
 21
6.260448352973739
 31
0.0
  0
LINE
  5
399
330
342
100
AcDbEntity
  8
1
  6
Continuous
 62
     1
100
AcDbLine
 10
3.499998587928616
 20
5.760448345523159
 30
0.0
 11
3.499998587928616
 21
3.506135236214853
 31
0.0
  0
LINE
  5
39A
330
342
100
AcDbEntity
  8
1
  6
Continuous
 62
     1
100
AcDbLine
 10
3.749998591653906
 20
6.010448349248449
 30
0.0
 11
3.499998587928616
 21
5.760448345523159
 31
0.0
  0
LINE
  5
39B
330
342
100
AcDbEntity
  8
1
  6
Continuous
 62
     1
100
AcDbLine
 10
3.499998587928616
 20
6.260448352973739
 30
0.0
 11
3.749998591653906
 21
6.010448349248449
 31
0.0
  0
ARC
  5
39C
330
342
100
AcDbEntity
  8
1
  6
Continuous
 62
     1
100
AcDbCircle
 10
1.499998558126293
 20
14.17640497835556
 30
0.0
 40
1.500000022351742
100
AcDbArc
 50
180.0
 51
270.0
  0
ARC
  5
39D
330
342
100
AcDbEntity
  8
1
  6
Continuous
 62
     1
100
AcDbCircle
 10
1.499998558126293
 20
14.17640497835556
 30
0.0
 40
1.500000022351742
100
AcDbArc
 50
180.0
 51
270.0
  0
ARC
  5
39E
330
342
100
AcDbEntity
  8
1
  6
Continuous
 62
     1
100
AcDbCircle
 10
0.4999985432251322
 20
3.172910281472554
 30
0.0
 40
0.5000000074505806
100
AcDbArc
 50
86.80326998923003
 51
180.0
  0
ARC
  5
39F
330
342
100
AcDbEntity
  8
1
  6
Continuous
 62
     1
100
AcDbCircle
 10
0.4999985432251322
 20
3.172910281472554
 30
0.0
 40
0.5000000074505806
100
AcDbArc
 50
86.80326998923003
 51
180.0
  0
LINE
  5
3A0
330
342
100
AcDbEntity
  8
1
  6
Continuous
 62
     1
100
AcDbLine
 10
3.499998587928616
 20
3.506135236214853
 30
0.0
 11
0.5259008278842288
 21
3.672238909832693
 31
0.0
  0
LINE
  5
3A1
330
342
100
AcDbEntity
  8
1
  6
Continuous
 62
     1
100
AcDbLine
 10
26.73472036676287
 20
0.6384236465974809
 30
0.0
 11
26.73472036676287
 21
0.5000017184332819
 31
0.0
  0
LINE
  5
3A2
330
342
100
AcDbEntity
  8
1
  6
Continuous
 62
     1
100
AcDbLine
 10
27.23472037421345
 20
0.0000017109827084
 30
0.0
 11
27.4347203771937
 21
0.0000017109827084
 31
0.0
  0
LINE
  5
3A3
330
342
100
AcDbEntity
  8
1
  6
Continuous
 62
     1
100
AcDbLine
 10
27.93472038464427
 20
0.5000017184332819
 30
0.0
 11
27.93472038464427
 21
1.780196819706582
 31
0.0
  0
LINE
  5
3A4
330
342
100
AcDbEntity
  8
1
  6
Continuous
 62
     1
100
AcDbLine
 10
27.93472038464427
 20
1.780196819706582
 30
0.0
 11
28.82626640805972
 21
3.845825901492198
 31
0.0
  0
LINE
  5
3A5
330
342
100
AcDbEntity
  8
1
  6
Continuous
 62
     1
100
AcDbLine
 10
29.02440383963888
 20
4.3048918724134
 30
0.0
 11
29.81641790253985
 21
6.139914673865604
 31
0.0
  0
LINE
  5
3A6
330
342
100
AcDbEntity
  8
1
  6
Continuous
 62
     1
100
AcDbLine
 10
30.14642229487502
 20
6.269768430243545
 30
0.0
 11
31.86041904195619
 21
5.517515220118717
 31
0.0
  0
LINE
  5
3A7
330
342
100
AcDbEntity
  8
1
  6
Continuous
 62
     1
100
AcDbLine
 10
32.33416834882388
 20
6.948605813402779
 30
0.0
 11
32.47164105722544
 21
6.887335542316301
 31
0.0
  0
ARC
  5
3A8
330
342
100
AcDbEntity
  8
1
  6
Continuous
 62
     1
100
AcDbCircle
 10
32.16603018518977
 20
6.202425685110668
 30
0.0
 40
0.7500773215370462
100
AcDbArc
 50
245.9532857459955
 51
65.95328574599522
  0
ARC
  5
3A9
330
342
100
AcDbEntity
  8
1
  6
Continuous
 62
     1
100
AcDbCircle
 10
32.16603018518977
 20
6.202425685110668
 30
0.0
 40
0.7500773215370462
100
AcDbArc
 50
245.9532857459955
 51
65.95328574599522
  0
LINE
  5
3AA
330
342
100
AcDbEntity
  8
1
  6
Continuous
 62
     1
100
AcDbLine
 10
28.71609468255413
 20
6.883443852148616
 30
0.0
 11
28.81269186697543
 21
6.842576203878181
 31
0.0
  0
LINE
  5
3AB
330
342
100
AcDbEntity
  8
1
  6
Continuous
 62
     1
100
AcDbLine
 10
28.71286308736286
 20
6.611282221345526
 30
0.0
 11
26.85573724974445
 21
2.308494661344959
 31
0.0
  0
LINE
  5
3AC
330
342
100
AcDbEntity
  8
1
  6
Continuous
 62
     1
100
AcDbLine
 10
29.02440383963888
 20
4.3048918724134
 30
0.0
 11
28.69580213838871
 21
4.174427602742362
 31
0.0
  0
LINE
  5
3AD
330
342
100
AcDbEntity
  8
1
  6
Continuous
 62
     1
100
AcDbLine
 10
28.69580213838871
 20
4.174427602742362
 30
0.0
 11
28.82626640805975
 21
3.845825901492198
 31
0.0
  0
ARC
  5
3AE
330
342
100
AcDbEntity
  8
1
  6
Continuous
 62
     1
100
AcDbCircle
 10
30.04595088800043
 20
6.040845958076034
 30
0.0
 40
0.2500000037252903
100
AcDbArc
 50
66.3038891776564
 51
156.6544926093118
  0
ARC
  5
3AF
330
342
100
AcDbEntity
  8
1
  6
Continuous
 62
     1
100
AcDbCircle
 10
30.04595088800043
 20
6.040845958076034
 30
0.0
 40
0.2500000037252903
100
AcDbArc
 50
66.3038891776564
 51
156.6544926093118
  0
ARC
  5
3B0
330
342
100
AcDbEntity
  8
1
  6
Continuous
 62
     1
100
AcDbCircle
 10
28.48333010190227
 20
6.710350937135111
 30
0.0
 40
0.2500000037252903
100
AcDbArc
 50
336.6544926093099
 51
67.13402998437653
  0
ARC
  5
3B1
330
342
100
AcDbEntity
  8
1
  6
Continuous
 62
     1
100
AcDbCircle
 10
28.48333010190227
 20
6.710350937135111
 30
0.0
 40
0.2500000037252903
100
AcDbArc
 50
336.6544926093099
 51
67.13402998437653
  0
ARC
  5
3B2
330
342
100
AcDbEntity
  8
1
  6
Continuous
 62
     1
100
AcDbCircle
 10
27.4347203771937
 20
0.5000017184332819
 30
0.0
 40
0.5000000074505806
100
AcDbArc
 50
270.0
 51
0.0
  0
ARC
  5
3B3
330
342
100
AcDbEntity
  8
1
  6
Continuous
 62
     1
100
AcDbCircle
 10
27.4347203771937
 20
0.5000017184332819
 30
0.0
 40
0.5000000074505806
100
AcDbArc
 50
270.0
 51
0.0
  0
ARC
  5
3B4
330
342
100
AcDbEntity
  8
1
  6
Continuous
 62
     1
100
AcDbCircle
 10
27.23472037421345
 20
0.5000017184332819
 30
0.0
 40
0.5000000074505806
100
AcDbArc
 50
180.0
 51
270.0
  0
ARC
  5
3B5
330
342
100
AcDbEntity
  8
1
  6
Continuous
 62
     1
100
AcDbCircle
 10
27.23472037421345
 20
0.5000017184332819
 30
0.0
 40
0.5000000074505806
100
AcDbArc
 50
180.0
 51
270.0
  0
ARC
  5
3B6
330
342
100
AcDbEntity
  8
1
  6
Continuous
 62
     1
100
AcDbCircle
 10
26.23472035931229
 20
0.6384236465974809
 30
0.0
 40
0.5000000074505806
100
AcDbArc
 50
0.0
 51
87.03048763146612
  0
ARC
  5
3B7
330
342
100
AcDbEntity
  8
1
  6
Continuous
 62
     1
100
AcDbCircle
 10
26.23472035931229
 20
0.6384236465974809
 30
0.0
 40
0.5000000074505806
100
AcDbArc
 50
0.0
 51
87.03048763146612
  0
ARC
  5
3B8
330
342
100
AcDbEntity
  8
1
  6
Continuous
 62
     1
100
AcDbCircle
 10
5.19999861326059
 20
14.37616402834576
 30
0.0
 40
0.5000000074505806
100
AcDbArc
 50
75.25292644146062
 51
180.0
  0
ARC
  5
3B9
330
342
100
AcDbEntity
  8
1
  6
Continuous
 62
     1
100
AcDbCircle
 10
5.19999861326059
 20
14.37616402834576
 30
0.0
 40
0.5000000074505806
100
AcDbArc
 50
75.25292644146062
 51
180.0
  0
ARC
  5
3BA
330
342
100
AcDbEntity
  8
1
  6
Continuous
 62
     1
100
AcDbCircle
 10
2.999998580478035
 20
12.17640494855323
 30
0.0
 40
0.5000000074505806
100
AcDbArc
 50
0.0
 51
90.0
  0
ARC
  5
3BB
330
342
100
AcDbEntity
  8
1
  6
Continuous
 62
     1
100
AcDbCircle
 10
2.999998580478035
 20
12.17640494855323
 30
0.0
 40
0.5000000074505806
100
AcDbArc
 50
0.0
 51
90.0
  0
ENDBLK
  5
344
330
342
100
AcDbEntity
  8
0
100
AcDbBlockEnd
  0
ENDSEC
  0
SECTION
  2
ENTITIES
  0
INSERT
  5
77
330
1F
100
AcDbEntity
  8
1
100
AcDbBlockReference
  2
GEN_BLOCK
 10
51.18037414550781
 20
-21.44252967834473
 30
0.0
  0
INSERT
  5
7C
330
1F
100
AcDbEntity
  8
1
100
AcDbBlockReference
  2
GEN_BLOCK00000
 10
-50.59598922729492
 20
-43.38799667358398
 30
0.0
  0
INSERT
  5
27F
330
1F
100
AcDbEntity
  8
0
100
AcDbBlockReference
 66
     1
  2
PROTO
 10
-140.6499938964844
 20
-97.11000061035156
 30
0.0
  0
ATTRIB
  5
280
330
27F
100
AcDbEntity
  8
0
100
AcDbText
 10
0.0
 20
0.0
 30
0.0
 40
1.0
  1
PROTO
100
AcDbAttribute
  2
PAT_NAME
 70
     1
280
     0
  0
SEQEND
  5
281
330
27F
100
AcDbEntity
  8
0
  0
INSERT
  5
2E0
330
1F
100
AcDbEntity
  8
1
100
AcDbBlockReference
 66
     1
  2
_RASTER_[X__IMAGES_LOGO_JPG]
 10
-139.33984375
 20
-95.79985046386719
 30
0.0
  0
ATTRIB
  5
2E1
330
2E0
100
AcDbEntity
  8
1
100
AcDbText
 10
0.0
 20
0.0
 30
0.0
 40
1.0
  1
_RASTER_[X:\IMAGES\LOGO.JPG]
100
AcDbAttribute
  2
PAT_NAME
 70
     1
280
     0
  0
ATTRIB
  5
2E3
330
2E0
100
AcDbEntity
  8
1
100
AcDbText
 10
0.0
 20
0.0
 30
0.0
 40
1.0
  1

100
AcDbAttribute
  2
Symbol_Description
 70
     1
280
     0
  0
SEQEND
  5
2E2
330
2E0
100
AcDbEntity
  8
1
  0
INSERT
  5
2E7
330
1F
100
AcDbEntity
  8
1
100
AcDbBlockReference
  2
GEN_BLOCK00001
 10
-36.25168228149414
 20
-24.18291282653809
 30
0.0
  0
INSERT
  5
2F7
330
1F
100
AcDbEntity
  8
1
100
AcDbBlockReference
  2
GEN_BLOCK00002
 10
16.20511245727539
 20
-45.54443740844727
 30
0.0
  0
INSERT
  5
304
330
1F
100
AcDbEntity
  8
1
100
AcDbBlockReference
  2
GEN_BLOCK00003
 10
3.959965705871582
 20
-29.78000450134277
 30
0.0
  0
INSERT
  5
33C
330
1F
100
AcDbEntity
  8
SYSTEM_ASSIGNED_LAYER
100
AcDbBlockReference
  2
GEN_BLOCK00004
 10
-38.76866912841797
 20
-33.29644775390625
 30
0.0
  0
INSERT
  5
345
330
1F
100
AcDbEntity
  8
1
100
AcDbBlockReference
  2
GEN_BLOCK00005
 10
42.01493072509766
 20
-43.38799667358398
 30
0.0
  0
ENDSEC
  0
SECTION
  2
OBJECTS
  0
DICTIONARY
  5
C
330
0
100
AcDbDictionary
281
     1
  3
ACAD_DETAILVIEWSTYLE
350
3F0
  3
ACAD_GROUP
350
D
  3
ACAD_LAYOUT
350
1A
  3
ACAD_MATERIAL
350
43
  3
ACAD_MLEADERSTYLE
350
3EF
  3
ACAD_MLINESTYLE
350
17
  3
ACAD_PLOTSETTINGS
350
19
  3
ACAD_PLOTSTYLENAME
350
E
  3
ACAD_SCALELIST
350
47
  3
ACAD_SECTIONVIEWSTYLE
350
3F1
  3
ACAD_TABLESTYLE
350
3EE
  3
ACAD_VISUALSTYLE
350
2A
  3
AcDbVariableDictionary
350
3BC
  0
SUN
  5
69
330
29
100
AcDbSun
 90
        1
290
     0
 63
     7
421
 16777215
 40
1.0
291
     1
 91
  2455826
 92
 54000000
292
     0
 70
     2
 71
   256
280
     1
  0
DICTIONARY
  5
3F0
102
{ACAD_REACTORS
330
C
102
}
330
C
100
AcDbDictionary
281
     1
  0
DICTIONARY
  5
D
102
{ACAD_REACTORS
330
C
102
}
330
C
100
AcDbDictionary
281
     1
  0
DICTIONARY
  5
1A
102
{ACAD_REACTORS
330
C
102
}
330
C
100
AcDbDictionary
281
     1
  3
Layout1
350
1E
  3
Layout2
350
26
  3
Model
350
22
  0
DICTIONARY
  5
43
102
{ACAD_REACTORS
330
C
102
}
330
C
100
AcDbDictionary
281
     1
  3
ByBlock
350
45
  3
ByLayer
350
44
  3
Global
350
46
  0
DICTIONARY
  5
3EF
102
{ACAD_REACTORS
330
C
102
}
330
C
100
AcDbDictionary
281
     1
  0
DICTIONARY
  5
17
102
{ACAD_REACTORS
330
C
102
}
330
C
100
AcDbDictionary
281
     1
  3
Standard
350
18
  0
DICTIONARY
  5
19
102
{ACAD_REACTORS
330
C
102
}
330
C
100
AcDbDictionary
281
     1
  0
ACDBDICTIONARYWDFLT
  5
E
102
{ACAD_REACTORS
330
C
102
}
330
C
100
AcDbDictionary
281
     1
  3
Normal
350
F
100
AcDbDictionaryWithDefault
340
F
  0
DICTIONARY
  5
47
102
{ACAD_REACTORS
330
C
102
}
330
C
100
AcDbDictionary
281
     1
  3
A0
350
48
  3
A1
350
49
  3
A2
350
4A
  3
A3
350
4B
  3
A4
350
4C
  3
A5
350
4D
  3
A6
350
4E
  3
A7
350
4F
  3
A8
350
50
  3
A9
350
51
  3
B0
350
52
  3
B1
350
53
  3
B2
350
54
  3
B3
350
55
  3
B4
350
56
  3
B5
350
57
  3
B6
350
58
  3
B7
350
59
  3
B8
350
5A
  3
B9
350
5B
  3
C0
350
5C
  3
C1
350
5D
  3
C2
350
5E
  3
C3
350
5F
  3
C4
350
60
  3
C5
350
61
  3
C6
350
62
  3
C7
350
63
  3
C8
350
64
  3
C9
350
65
  3
D0
350
66
  3
D1
350
67
  3
D2
350
68
  0
DICTIONARY
  5
3F1
102
{ACAD_REACTORS
330
C
102
}
330
C
100
AcDbDictionary
281
     1
  0
DICTIONARY
  5
3EE
102
{ACAD_REACTORS
330
C
102
}
330
C
100
AcDbDictionary
281
     1
  0
DICTIONARY
  5
2A
102
{ACAD_REACTORS
330
C
102
}
330
C
100
AcDbDictionary
281
     1
  3
2dWireframe
350
2F
  3
Basic
350
32
  3
Brighten
350
36
  3
ColorChange
350
3A
  3
Conceptual
350
34
  3
Dim
350
35
  3
EdgeColorOff
350
3D
  3
Facepattern
350
39
  3
Flat
350
2B
  3
FlatWithEdges
350
2C
  3
Gouraud
350
2D
  3
GouraudWithEdges
350
2E
  3
Hidden
350
31
  3
JitterOff
350
3B
  3
Linepattern
350
38
  3
OverhangOff
350
3C
  3
Realistic
350
33
  3
Shaded
350
42
  3
Shaded with edges
350
41
  3
Shades of Gray
350
3E
  3
Sketchy
350
3F
  3
Thicken
350
37
  3
Wireframe
350
30
  3
X-Ray
350
40
  0
DICTIONARY
  5
3BC
102
{ACAD_REACTORS
330
C
102
}
330
C
100
AcDbDictionary
281
     1
  3
CANNOSCALE
350
3BD
  0
LAYOUT
  5
1E
102
{ACAD_REACTORS
330
1A
102
}
330
1A
100
AcDbPlotSettings
  1

  2
none_device
  4

  6

 40
0.0
 41
0.0
 42
0.0
 43
0.0
 44
0.0
 45
0.0
 46
0.0
 47
0.0
 48
0.0
 49
0.0
140
0.0
141
0.0
142
1.0
143
1.0
 70
   688
 72
     1
 73
     0
 74
     5
  7

 75
    16
 76
     0
 77
     2
 78
   300
147
1.0
148
0.0
149
0.0
100
AcDbLayout
  1
Layout1
 70
     1
 71
     1
 10
0.0
 20
0.0
 11
420.0
 21
297.0
 12
0.0
 22
0.0
 32
0.0
 14
1.000000000000000E+20
 24
1.000000000000000E+20
 34
1.000000000000000E+20
 15
-1.000000000000000E+20
 25
-1.000000000000000E+20
 35
-1.000000000000000E+20
146
0.0
 13
0.0
 23
0.0
 33
0.0
 16
1.0
 26
0.0
 36
0.0
 17
0.0
 27
1.0
 37
0.0
 76
     0
330
1B
  0
LAYOUT
  5
26
102
{ACAD_REACTORS
330
1A
102
}
330
1A
100
AcDbPlotSettings
  1

  2
none_device
  4

  6

 40
0.0
 41
0.0
 42
0.0
 43
0.0
 44
0.0
 45
0.0
 46
0.0
 47
0.0
 48
0.0
 49
0.0
140
0.0
141
0.0
142
1.0
143
1.0
 70
   688
 72
     1
 73
     0
 74
     5
  7

 75
    16
 76
     0
 77
     2
 78
   300
147
1.0
148
0.0
149
0.0
100
AcDbLayout
  1
Layout2
 70
     1
 71
     2
 10
0.0
 20
0.0
 11
0.0
 21
0.0
 12
0.0
 22
0.0
 32
0.0
 14
0.0
 24
0.0
 34
0.0
 15
0.0
 25
0.0
 35
0.0
146
0.0
 13
0.0
 23
0.0
 33
0.0
 16
1.0
 26
0.0
 36
0.0
 17
0.0
 27
1.0
 37
0.0
 76
     0
330
23
  0
LAYOUT
  5
22
102
{ACAD_REACTORS
330
1A
102
}
330
1A
100
AcDbPlotSettings
  1

  2
none_device
  4
Letter_(8.50_x_11.00_Inches)
  6

 40
6.35
 41
6.35
 42
6.35000508
 43
6.35000508
 44
215.9
 45
279.4
 46
0.0
 47
0.0
 48
0.0
 49
0.0
140
0.0
141
0.0
142
1.0
143
1.0
 70
  1712
 72
     1
 73
     0
 74
     0
  7

 75
     0
 76
     0
 77
     2
 78
   300
147
1.0
148
0.0
149
0.0
100
AcDbLayout
  1
Model
 70
     1
 71
     0
 10
0.0
 20
0.0
 11
420.0
 21
297.0
 12
0.0
 22
0.0
 32
0.0
 14
-140.65
 24
-97.11000000000001
 34
0.0
 15
141.4571075439453
 25
97.11000000000001
 35
0.0
146
0.0
 13
0.0
 23
0.0
 33
0.0
 16
1.0
 26
0.0
 36
0.0
 17
0.0
 27
1.0
 37
0.0
 76
     0
330
1F
331
29
  0
MATERIAL
  5
45
102
{ACAD_REACTORS
330
43
102
}
330
43
100
AcDbMaterial
  1
ByBlock
 72
     1
 94
      127
  0
MATERIAL
  5
44
102
{ACAD_REACTORS
330
43
102
}
330
43
100
AcDbMaterial
  1
ByLayer
 72
     1
 94
      127
  0
MATERIAL
  5
46
102
{ACAD_REACTORS
330
43
102
}
330
43
100
AcDbMaterial
  1
Global
 72
     1
 94
      127
  0
MLINESTYLE
  5
18
102
{ACAD_REACTORS
330
17
102
}
330
17
100
AcDbMlineStyle
  2
Standard
 70
     0
  3

 62
   256
 51
90.0
 52
90.0
 71
     2
 49
0.5
 62
   256
  6
BYLAYER
 49
-0.5
 62
   256
  6
BYLAYER
  0
ACDBPLACEHOLDER
  5
F
102
{ACAD_REACTORS
330
E
102
}
330
E
  0
SCALE
  5
48
102
{ACAD_REACTORS
330
47
102
}
330
47
100
AcDbScale
 70
     0
300
1:1
140
1.0
141
1.0
290
     1
  0
SCALE
  5
49
102
{ACAD_REACTORS
330
47
102
}
330
47
100
AcDbScale
 70
     0
300
1:2
140
1.0
141
2.0
290
     0
  0
SCALE
  5
4A
102
{ACAD_REACTORS
330
47
102
}
330
47
100
AcDbScale
 70
     0
300
1:4
140
1.0
141
4.0
290
     0
  0
SCALE
  5
4B
102
{ACAD_REACTORS
330
47
102
}
330
47
100
AcDbScale
 70
     0
300
1:5
140
1.0
141
5.0
290
     0
  0
SCALE
  5
4C
102
{ACAD_REACTORS
330
47
102
}
330
47
100
AcDbScale
 70
     0
300
1:8
140
1.0
141
8.0
290
     0
  0
SCALE
  5
4D
102
{ACAD_REACTORS
330
47
102
}
330
47
100
AcDbScale
 70
     0
300
1:10
140
1.0
141
10.0
290
     0
  0
SCALE
  5
4E
102
{ACAD_REACTORS
330
47
102
}
330
47
100
AcDbScale
 70
     0
300
1:16
140
1.0
141
16.0
290
     0
  0
SCALE
  5
4F
102
{ACAD_REACTORS
330
47
102
}
330
47
100
AcDbScale
 70
     0
300
1:20
140
1.0
141
20.0
290
     0
  0
SCALE
  5
50
102
{ACAD_REACTORS
330
47
102
}
330
47
100
AcDbScale
 70
     0
300
1:30
140
1.0
141
30.0
290
     0
  0
SCALE
  5
51
102
{ACAD_REACTORS
330
47
102
}
330
47
100
AcDbScale
 70
     0
300
1:40
140
1.0
141
40.0
290
     0
  0
SCALE
  5
52
102
{ACAD_REACTORS
330
47
102
}
330
47
100
AcDbScale
 70
     0
300
1:50
140
1.0
141
50.0
290
     0
  0
SCALE
  5
53
102
{ACAD_REACTORS
330
47
102
}
330
47
100
AcDbScale
 70
     0
300
1:100
140
1.0
141
100.0
290
     0
  0
SCALE
  5
54
102
{ACAD_REACTORS
330
47
102
}
330
47
100
AcDbScale
 70
     0
300
2:1
140
2.0
141
1.0
290
     0
  0
SCALE
  5
55
102
{ACAD_REACTORS
330
47
102
}
330
47
100
AcDbScale
 70
     0
300
4:1
140
4.0
141
1.0
290
     0
  0
SCALE
  5
56
102
{ACAD_REACTORS
330
47
102
}
330
47
100
AcDbScale
 70
     0
300
8:1
140
8.0
141
1.0
290
     0
  0
SCALE
  5
57
102
{ACAD_REACTORS
330
47
102
}
330
47
100
AcDbScale
 70
     0
300
10:1
140
10.0
141
1.0
290
     0
  0
SCALE
  5
58
102
{ACAD_REACTORS
330
47
102
}
330
47
100
AcDbScale
 70
     0
300
100:1
140
100.0
141
1.0
290
     0
  0
SCALE
  5
59
102
{ACAD_REACTORS
330
47
102
}
330
47
100
AcDbScale
 70
     0
300
1/128" = 1'-0"
140
0.0078125
141
12.0
290
     0
  0
SCALE
  5
5A
102
{ACAD_REACTORS
330
47
102
}
330
47
100
AcDbScale
 70
     0
300
1/64" = 1'-0"
140
0.015625
141
12.0
290
     0
  0
SCALE
  5
5B
102
{ACAD_REACTORS
330
47
102
}
330
47
100
AcDbScale
 70
     0
300
1/32" = 1'-0"
140
0.03125
141
12.0
290
     0
  0
SCALE
  5
5C
102
{ACAD_REACTORS
330
47
102
}
330
47
100
AcDbScale
 70
     0
300
1/16" = 1'-0"
140
0.0625
141
12.0
290
     0
  0
SCALE
  5
5D
102
{ACAD_REACTORS
330
47
102
}
330
47
100
AcDbScale
 70
     0
300
3/32" = 1'-0"
140
0.09375
141
12.0
290
     0
  0
SCALE
  5
5E
102
{ACAD_REACTORS
330
47
102
}
330
47
100
AcDbScale
 70
     0
300
1/8" = 1'-0"
140
0.125
141
12.0
290
     0
  0
SCALE
  5
5F
102
{ACAD_REACTORS
330
47
102
}
330
47
100
AcDbScale
 70
     0
300
3/16" = 1'-0"
140
0.1875
141
12.0
290
     0
  0
SCALE
  5
60
102
{ACAD_REACTORS
330
47
102
}
330
47
100
AcDbScale
 70
     0
300
1/4" = 1'-0"
140
0.25
141
12.0
290
     0
  0
SCALE
  5
61
102
{ACAD_REACTORS
330
47
102
}
330
47
100
AcDbScale
 70
     0
300
3/8" = 1'-0"
140
0.375
141
12.0
290
     0
  0
SCALE
  5
62
102
{ACAD_REACTORS
330
47
102
}
330
47
100
AcDbScale
 70
     0
300
1/2" = 1'-0"
140
0.5
141
12.0
290
     0
  0
SCALE
  5
63
102
{ACAD_REACTORS
330
47
102
}
330
47
100
AcDbScale
 70
     0
300
3/4" = 1'-0"
140
0.75
141
12.0
290
     0
  0
SCALE
  5
64
102
{ACAD_REACTORS
330
47
102
}
330
47
100
AcDbScale
 70
     0
300
1" = 1'-0"
140
1.0
141
12.0
290
     0
  0
SCALE
  5
65
102
{ACAD_REACTORS
330
47
102
}
330
47
100
AcDbScale
 70
     0
300
1-1/2" = 1'-0"
140
1.5
141
12.0
290
     0
  0
SCALE
  5
66
102
{ACAD_REACTORS
330
47
102
}
330
47
100
AcDbScale
 70
     0
300
3" = 1'-0"
140
3.0
141
12.0
290
     0
  0
SCALE
  5
67
102
{ACAD_REACTORS
330
47
102
}
330
47
100
AcDbScale
 70
     0
300
6" = 1'-0"
140
6.0
141
12.0
290
     0
  0
SCALE
  5
68
102
{ACAD_REACTORS
330
47
102
}
330
47
100
AcDbScale
 70
     0
300
1'-0" = 1'-0"
140
12.0
141
12.0
290
     0
  0
VISUALSTYLE
  5
2F
102
{ACAD_REACTORS
330
2A
102
}
102
{ACAD_XDICTIONARY
360
3C6
102
}
330
2A
100
AcDbVisualStyle
  2
2dWireframe
 70
     4
177
     2
291
     0
 71
     0
176
     1
 72
     2
176
     1
 73
     0
176
     1
 90
        0
176
     1
 40
0.6
176
     1
 41
30.0
176
     1
 62
     5
 63
     7
421
 16777215
176
     1
 74
     1
176
     1
 91
        4
176
     1
 64
     7
176
     1
 65
   257
176
     1
 75
     1
176
     1
175
     1
176
     1
 42
1.0
176
     1
 92
        0
176
     1
 66
   257
176
     1
 43
1.0
176
     1
 76
     1
176
     1
 77
     6
176
     1
 78
     2
176
     1
 67
     7
176
     1
 79
     5
176
     1
170
     0
176
     1
171
     0
176
     1
290
     0
176
     1
 93
        1
176
     1
 44
0.0
176
     1
173
     0
176
     1
  0
VISUALSTYLE
  5
32
102
{ACAD_REACTORS
330
2A
102
}
102
{ACAD_XDICTIONARY
360
3CC
102
}
330
2A
100
AcDbVisualStyle
  2
Basic
 70
     7
177
     2
291
     1
 71
     1
176
     1
 72
     0
176
     1
 73
     1
176
     1
 90
        0
176
     1
 40
0.6
176
     1
 41
30.0
176
     1
 62
     5
 63
     7
421
 16777215
176
     1
 74
     0
176
     1
 91
        4
176
     1
 64
     7
176
     1
 65
   257
176
     1
 75
     1
176
     1
175
     1
176
     1
 42
1.0
176
     1
 92
        8
176
     1
 66
     7
176
     1
 43
1.0
176
     1
 76
     1
176
     1
 77
     6
176
     1
 78
     2
176
     1
 67
     7
176
     1
 79
     5
176
     1
170
     0
176
     1
171
     0
176
     1
290
     0
176
     1
 93
        1
176
     1
 44
0.0
176
     1
173
     0
176
     1
  0
VISUALSTYLE
  5
36
102
{ACAD_REACTORS
330
2A
102
}
102
{ACAD_XDICTIONARY
360
3D4
102
}
330
2A
100
AcDbVisualStyle
  2
Brighten
 70
    12
177
     2
291
     1
 71
     2
176
     1
 72
     2
176
     1
 73
     0
176
     1
 90
        0
176
     1
 40
0.6
176
     1
 41
30.0
176
     1
 62
     5
 63
     7
421
 16777215
176
     1
 74
     1
176
     1
 91
        4
176
     1
 64
     7
176
     1
 65
   257
176
     1
 75
     1
176
     1
175
     1
176
     1
 42
1.0
176
     1
 92
        8
176
     1
 66
     7
176
     1
 43
1.0
176
     1
 76
     1
176
     1
 77
     6
176
     1
 78
     2
176
     1
 67
     7
176
     1
 79
     5
176
     1
170
     0
176
     1
171
     0
176
     1
290
     0
176
     1
 93
        1
176
     1
 44
50.0
176
     1
173
     0
176
     1
  0
VISUALSTYLE
  5
3A
102
{ACAD_REACTORS
330
2A
102
}
102
{ACAD_XDICTIONARY
360
3DC
102
}
330
2A
100
AcDbVisualStyle
  2
ColorChange
 70
    16
177
     2
291
     1
 71
     2
176
     1
 72
     2
176
     1
 73
     3
176
     1
 90
        0
176
     1
 40
0.6
176
     1
 41
30.0
176
     1
 62
     5
 63
     8
421
  8421504
176
     1
 74
     1
176
     1
 91
        4
176
     1
 64
     7
176
     1
 65
   257
176
     1
 75
     1
176
     1
175
     1
176
     1
 42
1.0
176
     1
 92
        8
176
     1
 66
     8
424
  8421504
176
     1
 43
1.0
176
     1
 76
     1
176
     1
 77
     6
176
     1
 78
     2
176
     1
 67
     7
176
     1
 79
     5
176
     1
170
     0
176
     1
171
     0
176
     1
290
     0
176
     1
 93
        1
176
     1
 44
0.0
176
     1
173
     0
176
     1
  0
VISUALSTYLE
  5
34
102
{ACAD_REACTORS
330
2A
102
}
102
{ACAD_XDICTIONARY
360
3D0
102
}
330
2A
100
AcDbVisualStyle
  2
Conceptual
 70
     9
177
     2
291
     0
 71
     3
176
     1
 72
     2
176
     1
 73
     0
176
     1
 90
        0
176
     1
 40
0.6
176
     1
 41
30.0
176
     1
 62
     5
 63
     7
421
 16777215
176
     1
 74
     2
176
     1
 91
        2
176
     1
 64
     7
176
     1
 65
   257
176
     1
 75
     1
176
     1
175
     1
176
     1
 42
179.0
176
     1
 92
        8
176
     1
 66
     7
176
     1
 43
1.0
176
     1
 76
     1
176
     1
 77
     6
176
     1
 78
     2
176
     1
 67
     7
176
     1
 79
     3
176
     1
170
     0
176
     1
171
     0
176
     1
290
     0
176
     1
 93
        1
176
     1
 44
0.0
176
     1
173
     0
176
     1
  0
VISUALSTYLE
  5
35
102
{ACAD_REACTORS
330
2A
102
}
102
{ACAD_XDICTIONARY
360
3D2
102
}
330
2A
100
AcDbVisualStyle
  2
Dim
 70
    11
177
     2
291
     1
 71
     2
176
     1
 72
     2
176
     1
 73
     0
176
     1
 90
        0
176
     1
 40
0.6
176
     1
 41
30.0
176
     1
 62
     5
 63
     7
421
 16777215
176
     1
 74
     1
176
     1
 91
        4
176
     1
 64
     7
176
     1
 65
   257
176
     1
 75
     1
176
     1
175
     1
176
     1
 42
1.0
176
     1
 92
        8
176
     1
 66
     7
176
     1
 43
1.0
176
     1
 76
     1
176
     1
 77
     6
176
     1
 78
     2
176
     1
 67
     7
176
     1
 79
     5
176
     1
170
     0
176
     1
171
     0
176
     1
290
     0
176
     1
 93
        1
176
     1
 44
-50.0
176
     1
173
     0
176
     1
  0
VISUALSTYLE
  5
3D
102
{ACAD_REACTORS
330
2A
102
}
102
{ACAD_XDICTIONARY
360
3E2
102
}
330
2A
100
AcDbVisualStyle
  2
EdgeColorOff
 70
    22
177
     2
291
     1
 71
     2
176
     0
 72
     2
176
     0
 73
     0
176
     0
 90
        0
176
     0
 40
0.6
176
     0
 41
30.0
176
     0
 62
     5
 63
     7
421
 16777215
176
     0
 74
     1
176
     0
 91
        4
176
     0
 64
     7
176
     0
 65
   257
176
     0
 75
     1
176
     0
175
     1
176
     0
 42
1.0
176
     0
 92
        8
176
     2
 66
     7
176
     0
 43
1.0
176
     0
 76
     1
176
     0
 77
     6
176
     0
 78
     2
176
     0
 67
     7
176
     0
 79
     5
176
     0
170
     0
176
     0
171
     0
176
     0
290
     0
176
     0
 93
        1
176
     0
 44
0.0
176
     0
173
     0
176
     0
  0
VISUALSTYLE
  5
39
102
{ACAD_REACTORS
330
2A
102
}
102
{ACAD_XDICTIONARY
360
3DA
102
}
330
2A
100
AcDbVisualStyle
  2
Facepattern
 70
    15
177
     2
291
     1
 71
     2
176
     1
 72
     2
176
     1
 73
     0
176
     1
 90
        0
176
     1
 40
0.6
176
     1
 41
30.0
176
     1
 62
     5
 63
     7
421
 16777215
176
     1
 74
     1
176
     1
 91
        4
176
     1
 64
     7
176
     1
 65
   257
176
     1
 75
     1
176
     1
175
     1
176
     1
 42
1.0
176
     1
 92
        8
176
     1
 66
     7
176
     1
 43
1.0
176
     1
 76
     1
176
     1
 77
     6
176
     1
 78
     2
176
     1
 67
     7
176
     1
 79
     5
176
     1
170
     0
176
     1
171
     0
176
     1
290
     0
176
     1
 93
        1
176
     1
 44
0.0
176
     1
173
     0
176
     1
  0
VISUALSTYLE
  5
2B
102
{ACAD_REACTORS
330
2A
102
}
102
{ACAD_XDICTIONARY
360
3BE
102
}
330
2A
100
AcDbVisualStyle
  2
Flat
 70
     0
177
     2
291
     1
 71
     2
176
     1
 72
     1
176
     1
 73
     1
176
     1
 90
        2
176
     1
 40
0.6
176
     1
 41
30.0
176
     1
 62
     5
 63
     7
421
 16777215
176
     1
 74
     0
176
     1
 91
        0
176
     1
 64
     7
176
     1
 65
   257
176
     1
 75
     1
176
     1
175
     1
176
     1
 42
1.0
176
     1
 92
        8
176
     1
 66
     7
176
     1
 43
1.0
176
     1
 76
     1
176
     1
 77
     6
176
     1
 78
     2
176
     1
 67
     7
176
     1
 79
     5
176
     1
170
     0
176
     1
171
     0
176
     1
290
     0
176
     1
 93
       13
176
     1
 44
0.0
176
     1
173
     0
176
     1
  0
VISUALSTYLE
  5
2C
102
{ACAD_REACTORS
330
2A
102
}
102
{ACAD_XDICTIONARY
360
3C0
102
}
330
2A
100
AcDbVisualStyle
  2
FlatWithEdges
 70
     1
177
     2
291
     1
 71
     2
176
     1
 72
     1
176
     1
 73
     1
176
     1
 90
        2
176
     1
 40
0.6
176
     1
 41
30.0
176
     1
 62
     5
 63
     7
421
 16777215
176
     1
 74
     1
176
     1
 91
        0
176
     1
 64
     7
176
     1
 65
   257
176
     1
 75
     1
176
     1
175
     1
176
     1
 42
1.0
176
     1
 92
        0
176
     1
 66
   257
176
     1
 43
1.0
176
     1
 76
     1
176
     1
 77
     6
176
     1
 78
     2
176
     1
 67
     7
176
     1
 79
     5
176
     1
170
     0
176
     1
171
     0
176
     1
290
     0
176
     1
 93
       13
176
     1
 44
0.0
176
     1
173
     0
176
     1
  0
VISUALSTYLE
  5
2D
102
{ACAD_REACTORS
330
2A
102
}
102
{ACAD_XDICTIONARY
360
3C2
102
}
330
2A
100
AcDbVisualStyle
  2
Gouraud
 70
     2
177
     2
291
     1
 71
     2
176
     1
 72
     2
176
     1
 73
     1
176
     1
 90
        2
176
     1
 40
0.6
176
     1
 41
30.0
176
     1
 62
     5
 63
     7
421
 16777215
176
     1
 74
     0
176
     1
 91
        0
176
     1
 64
     7
176
     1
 65
   257
176
     1
 75
     1
176
     1
175
     1
176
     1
 42
1.0
176
     1
 92
        0
176
     1
 66
     7
176
     1
 43
1.0
176
     1
 76
     1
176
     1
 77
     6
176
     1
 78
     2
176
     1
 67
     7
176
     1
 79
     5
176
     1
170
     0
176
     1
171
     0
176
     1
290
     0
176
     1
 93
       13
176
     1
 44
0.0
176
     1
173
     0
176
     1
  0
VISUALSTYLE
  5
2E
102
{ACAD_REACTORS
330
2A
102
}
102
{ACAD_XDICTIONARY
360
3C4
102
}
330
2A
100
AcDbVisualStyle
  2
GouraudWithEdges
 70
     3
177
     2
291
     1
 71
     2
176
     1
 72
     2
176
     1
 73
     1
176
     1
 90
        2
176
     1
 40
0.6
176
     1
 41
30.0
176
     1
 62
     5
 63
     7
421
 16777215
176
     1
 74
     1
176
     1
 91
        0
176
     1
 64
     7
176
     1
 65
   257
176
     1
 75
     1
176
     1
175
     1
176
     1
 42
1.0
176
     1
 92
        0
176
     1
 66
   257
176
     1
 43
1.0
176
     1
 76
     1
176
     1
 77
     6
176
     1
 78
     2
176
     1
 67
     7
176
     1
 79
     5
176
     1
170
     0
176
     1
171
     0
176
     1
290
     0
176
     1
 93
       13
176
     1
 44
0.0
176
     1
173
     0
176
     1
  0
VISUALSTYLE
  5
31
102
{ACAD_REACTORS
330
2A
102
}
102
{ACAD_XDICTIONARY
360
3CA
102
}
330
2A
100
AcDbVisualStyle
  2
Hidden
 70
     6
177
     2
291
     0
 71
     1
176
     1
 72
     2
176
     1
 73
     2
176
     1
 90
        0
176
     1
 40
0.6
176
     1
 41
30.0
176
     1
 62
     5
 63
     7
421
 16777215
176
     1
 74
     2
176
     1
 91
        2
176
     1
 64
     7
176
     1
 65
   257
176
     1
 75
     2
176
     1
175
     1
176
     1
 42
40.0
176
     1
 92
        0
176
     1
 66
   257
176
     1
 43
1.0
176
     1
 76
     1
176
     1
 77
     6
176
     1
 78
     2
176
     1
 67
     7
176
     1
 79
     3
176
     1
170
     0
176
     1
171
     0
176
     1
290
     0
176
     1
 93
        1
176
     1
 44
0.0
176
     1
173
     0
176
     1
  0
VISUALSTYLE
  5
3B
102
{ACAD_REACTORS
330
2A
102
}
102
{ACAD_XDICTIONARY
360
3DE
102
}
330
2A
100
AcDbVisualStyle
  2
JitterOff
 70
    20
177
     2
291
     1
 71
     2
176
     0
 72
     2
176
     0
 73
     0
176
     0
 90
        0
176
     0
 40
0.6
176
     0
 41
30.0
176
     0
 62
     5
 63
     7
421
 16777215
176
     0
 74
     1
176
     0
 91
        4
176
     0
 64
     7
176
     0
 65
   257
176
     0
 75
     1
176
     0
175
     1
176
     0
 42
1.0
176
     0
 92
       10
176
     2
 66
     7
176
     0
 43
1.0
176
     0
 76
     1
176
     0
 77
     6
176
     0
 78
     2
176
     0
 67
     7
176
     0
 79
     5
176
     0
170
     0
176
     0
171
     0
176
     0
290
     0
176
     0
 93
        1
176
     0
 44
0.0
176
     0
173
     0
176
     0
  0
VISUALSTYLE
  5
38
102
{ACAD_REACTORS
330
2A
102
}
102
{ACAD_XDICTIONARY
360
3D8
102
}
330
2A
100
AcDbVisualStyle
  2
Linepattern
 70
    14
177
     2
291
     1
 71
     2
176
     1
 72
     2
176
     1
 73
     0
176
     1
 90
        0
176
     1
 40
0.6
176
     1
 41
30.0
176
     1
 62
     5
 63
     7
421
 16777215
176
     1
 74
     1
176
     1
 91
        4
176
     1
 64
     7
176
     1
 65
   257
176
     1
 75
     7
176
     1
175
     7
176
     1
 42
1.0
176
     1
 92
        8
176
     1
 66
     7
176
     1
 43
1.0
176
     1
 76
     1
176
     1
 77
     6
176
     1
 78
     2
176
     1
 67
     7
176
     1
 79
     5
176
     1
170
     0
176
     1
171
     0
176
     1
290
     0
176
     1
 93
        1
176
     1
 44
0.0
176
     1
173
     0
176
     1
  0
VISUALSTYLE
  5
3C
102
{ACAD_REACTORS
330
2A
102
}
102
{ACAD_XDICTIONARY
360
3E0
102
}
330
2A
100
AcDbVisualStyle
  2
OverhangOff
 70
    21
177
     2
291
     1
 71
     2
176
     0
 72
     2
176
     0
 73
     0
176
     0
 90
        0
176
     0
 40
0.6
176
     0
 41
30.0
176
     0
 62
     5
 63
     7
421
 16777215
176
     0
 74
     1
176
     0
 91
        4
176
     0
 64
     7
176
     0
 65
   257
176
     0
 75
     1
176
     0
175
     1
176
     0
 42
1.0
176
     0
 92
        9
176
     2
 66
     7
176
     0
 43
1.0
176
     0
 76
     1
176
     0
 77
     6
176
     0
 78
     2
176
     0
 67
     7
176
     0
 79
     5
176
     0
170
     0
176
     0
171
     0
176
     0
290
     0
176
     0
 93
        1
176
     0
 44
0.0
176
     0
173
     0
176
     0
  0
VISUALSTYLE
  5
33
102
{ACAD_REACTORS
330
2A
102
}
102
{ACAD_XDICTIONARY
360
3CE
102
}
330
2A
100
AcDbVisualStyle
  2
Realistic
 70
     8
177
     2
291
     0
 71
     2
176
     1
 72
     3
176
     1
 73
     0
176
     1
 90
        2
176
     1
 40
0.6
176
     1
 41
30.0
176
     1
 62
     5
 63
     7
421
 16777215
176
     1
 74
     0
176
     1
 91
        0
176
     1
 64
     7
176
     1
 65
   257
176
     1
 75
     1
176
     1
175
     1
176
     1
 42
1.0
176
     1
 92
        8
176
     1
 66
   257
176
     1
 43
1.0
176
     1
 76
     1
176
     1
 77
     6
176
     1
 78
     2
176
     1
 67
     7
176
     1
 79
     3
176
     1
170
     0
176
     1
171
     0
176
     1
290
     0
176
     1
 93
       13
176
     1
 44
0.0
176
     1
173
     0
176
     1
  0
VISUALSTYLE
  5
42
102
{ACAD_REACTORS
330
2A
102
}
102
{ACAD_XDICTIONARY
360
3EC
102
}
330
2A
100
AcDbVisualStyle
  2
Shaded
 70
    27
177
     2
291
     0
 71
     2
176
     1
 72
     2
176
     1
 73
     1
176
     1
 90
        2
176
     1
 40
0.6
176
     1
 41
30.0
176
     1
 62
     5
 63
     7
421
 16777215
176
     1
 74
     0
176
     1
 91
        4
176
     1
 64
     7
176
     1
 65
   257
176
     1
 75
     1
176
     1
175
     1
176
     1
 42
1.0
176
     1
 92
        8
176
     1
 66
   257
176
     1
 43
1.0
176
     1
 76
     1
176
     1
 77
     6
176
     1
 78
     2
176
     1
 67
     8
425
  7895160
176
     1
 79
     3
176
     1
170
     0
176
     1
171
     0
176
     1
290
     0
176
     1
 93
        5
176
     1
 44
0.0
176
     1
173
     0
176
     1
  0
VISUALSTYLE
  5
41
102
{ACAD_REACTORS
330
2A
102
}
102
{ACAD_XDICTIONARY
360
3EA
102
}
330
2A
100
AcDbVisualStyle
  2
Shaded with edges
 70
    26
177
     2
291
     0
 71
     2
176
     1
 72
     2
176
     1
 73
     1
176
     1
 90
        2
176
     1
 40
0.6
176
     1
 41
30.0
176
     1
 62
     5
 63
     7
421
 16777215
176
     1
 74
     1
176
     1
 91
       10
176
     1
 64
     7
176
     1
 65
   257
176
     1
 75
     2
176
     1
175
     1
176
     1
 42
1.0
176
     1
 92
        8
176
     1
 66
   257
176
     1
 43
1.0
176
     1
 76
     1
176
     1
 77
     6
176
     1
 78
     2
176
     1
 67
     7
176
     1
 79
     3
176
     1
170
     0
176
     1
171
     0
176
     1
290
     0
176
     1
 93
        5
176
     1
 44
0.0
176
     1
173
     0
176
     1
  0
VISUALSTYLE
  5
3E
102
{ACAD_REACTORS
330
2A
102
}
102
{ACAD_XDICTIONARY
360
3E4
102
}
330
2A
100
AcDbVisualStyle
  2
Shades of Gray
 70
    23
177
     2
291
     0
 71
     2
176
     1
 72
     2
176
     1
 73
     3
176
     1
 90
        0
176
     1
 40
0.6
176
     1
 41
30.0
176
     1
 62
     5
 63
     7
421
 16777215
176
     1
 74
     2
176
     1
 91
        2
176
     1
 64
     7
176
     1
 65
     7
176
     1
 75
     1
176
     1
175
     1
176
     1
 42
40.0
176
     1
 92
        8
176
     1
 66
     7
176
     1
 43
1.0
176
     1
 76
     1
176
     1
 77
     6
176
     1
 78
     2
176
     1
 67
     7
176
     1
 79
     3
176
     1
170
     0
176
     1
171
     0
176
     1
290
     0
176
     1
 93
        1
176
     1
 44
0.0
176
     1
173
     0
176
     1
  0
VISUALSTYLE
  5
3F
102
{ACAD_REACTORS
330
2A
102
}
102
{ACAD_XDICTIONARY
360
3E6
102
}
330
2A
100
AcDbVisualStyle
  2
Sketchy
 70
    24
177
     2
291
     0
 71
     1
176
     1
 72
     2
176
     1
 73
     2
176
     1
 90
        0
176
     1
 40
0.6
176
     1
 41
30.0
176
     1
 62
     5
 63
     7
421
 16777215
176
     1
 74
     2
176
     1
 91
        2
176
     1
 64
     7
176
     1
 65
     7
176
     1
 75
     1
176
     1
175
     1
176
     1
 42
40.0
176
     1
 92
       11
176
     1
 66
     7
176
     1
 43
1.0
176
     1
 76
     1
176
     1
 77
     6
176
     1
 78
     2
176
     1
 67
     7
176
     1
 79
     6
176
     1
170
     0
176
     1
171
     0
176
     1
290
     0
176
     1
 93
        1
176
     1
 44
0.0
176
     1
173
     0
176
     1
  0
VISUALSTYLE
  5
37
102
{ACAD_REACTORS
330
2A
102
}
102
{ACAD_XDICTIONARY
360
3D6
102
}
330
2A
100
AcDbVisualStyle
  2
Thicken
 70
    13
177
     2
291
     1
 71
     2
176
     1
 72
     2
176
     1
 73
     0
176
     1
 90
        0
176
     1
 40
0.6
176
     1
 41
30.0
176
     1
 62
     5
 63
     7
421
 16777215
176
     1
 74
     1
176
     1
 91
        4
176
     1
 64
     7
176
     1
 65
   257
176
     1
 75
     1
176
     1
175
     1
176
     1
 42
1.0
176
     1
 92
       12
176
     1
 66
     7
176
     1
 43
1.0
176
     1
 76
     1
176
     1
 77
     6
176
     1
 78
     2
176
     1
 67
     7
176
     1
 79
     5
176
     1
170
     0
176
     1
171
     0
176
     1
290
     0
176
     1
 93
        1
176
     1
 44
0.0
176
     1
173
     0
176
     1
  0
VISUALSTYLE
  5
30
102
{ACAD_REACTORS
330
2A
102
}
102
{ACAD_XDICTIONARY
360
3C8
102
}
330
2A
100
AcDbVisualStyle
  2
Wireframe
 70
     5
177
     2
291
     0
 71
     0
176
     1
 72
     2
176
     1
 73
     0
176
     1
 90
        0
176
     1
 40
0.6
176
     1
 41
30.0
176
     1
 62
     5
 63
     7
421
 16777215
176
     1
 74
     1
176
     1
 91
        4
176
     1
 64
     7
176
     1
 65
   257
176
     1
 75
     1
176
     1
175
     1
176
     1
 42
1.0
176
     1
 92
        0
176
     1
 66
   257
176
     1
 43
1.0
176
     1
 76
     1
176
     1
 77
     6
176
     1
 78
     2
176
     1
 67
     7
176
     1
 79
     3
176
     1
170
     0
176
     1
171
     0
176
     1
290
     0
176
     1
 93
        1
176
     1
 44
0.0
176
     1
173
     0
176
     1
  0
VISUALSTYLE
  5
40
102
{ACAD_REACTORS
330
2A
102
}
102
{ACAD_XDICTIONARY
360
3E8
102
}
330
2A
100
AcDbVisualStyle
  2
X-Ray
 70
    25
177
     2
291
     0
 71
     2
176
     1
 72
     2
176
     1
 73
     1
176
     1
 90
        1
176
     1
 40
0.5
176
     1
 41
30.0
176
     1
 62
     5
 63
     7
421
 16777215
176
     1
 74
     1
176
     1
 91
        0
176
     1
 64
     7
176
     1
 65
   257
176
     1
 75
     1
176
     1
175
     1
176
     1
 42
1.0
176
     1
 92
        8
176
     1
 66
     7
176
     1
 43
1.0
176
     1
 76
     1
176
     1
 77
     6
176
     1
 78
     2
176
     1
 67
     7
176
     1
 79
     3
176
     1
170
     0
176
     1
171
     0
176
     1
290
     0
176
     1
 93
       13
176
     1
 44
0.0
176
     1
173
     0
176
     1
  0
DICTIONARYVAR
  5
3BD
102
{ACAD_REACTORS
330
3BC
102
}
330
3BC
100
DictionaryVariables
280
     0
  1
1:1
  0
DICTIONARY
  5
3C6
330
2F
100
AcDbDictionary
280
     1
281
     1
  3
ACAD_XREC_ROUNDTRIP
360
3C7
  0
DICTIONARY
  5
3CC
330
32
100
AcDbDictionary
280
     1
281
     1
  3
ACAD_XREC_ROUNDTRIP
360
3CD
  0
DICTIONARY
  5
3D4
330
36
100
AcDbDictionary
280
     1
281
     1
  3
ACAD_XREC_ROUNDTRIP
360
3D5
  0
DICTIONARY
  5
3DC
330
3A
100
AcDbDictionary
280
     1
281
     1
  3
ACAD_XREC_ROUNDTRIP
360
3DD
  0
DICTIONARY
  5
3D0
330
34
100
AcDbDictionary
280
     1
281
     1
  3
ACAD_XREC_ROUNDTRIP
360
3D1
  0
DICTIONARY
  5
3D2
330
35
100
AcDbDictionary
280
     1
281
     1
  3
ACAD_XREC_ROUNDTRIP
360
3D3
  0
DICTIONARY
  5
3E2
330
3D
100
AcDbDictionary
280
     1
281
     1
  3
ACAD_XREC_ROUNDTRIP
360
3E3
  0
DICTIONARY
  5
3DA
330
39
100
AcDbDictionary
280
     1
281
     1
  3
ACAD_XREC_ROUNDTRIP
360
3DB
  0
DICTIONARY
  5
3BE
330
2B
100
AcDbDictionary
280
     1
281
     1
  3
ACAD_XREC_ROUNDTRIP
360
3BF
  0
DICTIONARY
  5
3C0
330
2C
100
AcDbDictionary
280
     1
281
     1
  3
ACAD_XREC_ROUNDTRIP
360
3C1
  0
DICTIONARY
  5
3C2
330
2D
100
AcDbDictionary
280
     1
281
     1
  3
ACAD_XREC_ROUNDTRIP
360
3C3
  0
DICTIONARY
  5
3C4
330
2E
100
AcDbDictionary
280
     1
281
     1
  3
ACAD_XREC_ROUNDTRIP
360
3C5
  0
DICTIONARY
  5
3CA
330
31
100
AcDbDictionary
280
     1
281
     1
  3
ACAD_XREC_ROUNDTRIP
360
3CB
  0
DICTIONARY
  5
3DE
330
3B
100
AcDbDictionary
280
     1
281
     1
  3
ACAD_XREC_ROUNDTRIP
360
3DF
  0
DICTIONARY
  5
3D8
330
38
100
AcDbDictionary
280
     1
281
     1
  3
ACAD_XREC_ROUNDTRIP
360
3D9
  0
DICTIONARY
  5
3E0
330
3C
100
AcDbDictionary
280
     1
281
     1
  3
ACAD_XREC_ROUNDTRIP
360
3E1
  0
DICTIONARY
  5
3CE
330
33
100
AcDbDictionary
280
     1
281
     1
  3
ACAD_XREC_ROUNDTRIP
360
3CF
  0
DICTIONARY
  5
3EC
330
42
100
AcDbDictionary
280
     1
281
     1
  3
ACAD_XREC_ROUNDTRIP
360
3ED
  0
DICTIONARY
  5
3EA
330
41
100
AcDbDictionary
280
     1
281
     1
  3
ACAD_XREC_ROUNDTRIP
360
3EB
  0
DICTIONARY
  5
3E4
330
3E
100
AcDbDictionary
280
     1
281
     1
  3
ACAD_XREC_ROUNDTRIP
360
3E5
  0
DICTIONARY
  5
3E6
330
3F
100
AcDbDictionary
280
     1
281
     1
  3
ACAD_XREC_ROUNDTRIP
360
3E7
  0
DICTIONARY
  5
3D6
330
37
100
AcDbDictionary
280
     1
281
     1
  3
ACAD_XREC_ROUNDTRIP
360
3D7
  0
DICTIONARY
  5
3C8
330
30
100
AcDbDictionary
280
     1
281
     1
  3
ACAD_XREC_ROUNDTRIP
360
3C9
  0
DICTIONARY
  5
3E8
330
40
100
AcDbDictionary
280
     1
281
     1
  3
ACAD_XREC_ROUNDTRIP
360
3E9
  0
XRECORD
  5
3C7
102
{ACAD_REACTORS
330
3C6
102
}
330
3C6
100
AcDbXrecord
280
     1
102
RTVSPost2010Prop28
280
     1
102
RTVSPost2010PropOp28
 70
     1
102
RTVSPost2010Prop29
280
     1
102
RTVSPost2010PropOp29
 70
     1
102
RTVSPost2010Prop30
280
     0
102
RTVSPost2010PropOp30
 70
     1
102
RTVSPost2010Prop31
280
     0
102
RTVSPost2010PropOp31
 70
     1
102
RTVSPost2010Prop32
280
     0
102
RTVSPost2010PropOp32
 70
     1
102
RTVSPost2010Prop33
280
     0
102
RTVSPost2010PropOp33
 70
     1
102
RTVSPost2010Prop34
280
     0
102
RTVSPost2010PropOp34
 70
     1
102
RTVSPost2010Prop35
280
     0
102
RTVSPost2010PropOp35
 70
     1
102
RTVSPost2010Prop36
280
     0
102
RTVSPost2010PropOp36
 70
     1
102
RTVSPost2010Prop37
 90
       50
102
RTVSPost2010PropOp37
 70
     1
102
RTVSPost2010Prop38
140
0.0
102
RTVSPost2010PropOp38
 70
     1
102
RTVSPost2010Prop39
140
1.0
102
RTVSPost2010PropOp39
 70
     1
102
RTVSPost2010Prop40
 90
        0
102
RTVSPost2010PropOp40
 70
     1
102
RTVSPost2010Prop41ColorIndex
 90
       18
102
RTVSPost2010Prop41ColorRGB
 90
        0
102
RTVSPost2010PropOp41
 70
     1
102
RTVSPost2010Prop42
 90
       50
102
RTVSPost2010PropOp42
 70
     1
102
RTVSPost2010Prop43
 90
        3
102
RTVSPost2010PropOp43
 70
     1
102
RTVSPost2010Prop44ColorIndex
 90
        5
102
RTVSPost2010Prop44ColorRGB
 90
      255
102
RTVSPost2010PropOp44
 70
     1
102
RTVSPost2010Prop45
280
     0
102
RTVSPost2010PropOp45
 70
     1
102
RTVSPost2010Prop46
 90
       50
102
RTVSPost2010PropOp46
 70
     1
102
RTVSPost2010Prop47
 90
       50
102
RTVSPost2010PropOp47
 70
     1
102
RTVSPost2010Prop48
 90
       50
102
RTVSPost2010PropOp48
 70
     1
102
RTVSPost2010Prop49
280
     0
102
RTVSPost2010PropOp49
 70
     1
102
RTVSPost2010Prop50
 90
       50
102
RTVSPost2010PropOp50
 70
     1
102
RTVSPost2010Prop51ColorIndex
 90
      256
102
RTVSPost2010Prop51ColorRGB
 90
-16777216
102
RTVSPost2010PropOp51
 70
     0
102
RTVSPost2010Prop52
140
1.0
102
RTVSPost2010PropOp52
 70
     0
102
RTVSPost2010Prop53
 90
        2
102
RTVSPost2010PropOp53
 70
     1
102
RTVSPost2010Prop54
  1
strokes_ogs.tif
102
RTVSPost2010PropOp54
 70
     1
102
RTVSPost2010Prop55
280
     0
102
RTVSPost2010PropOp55
 70
     1
102
RTVSPost2010Prop56
140
1.0
102
RTVSPost2010PropOp56
 70
     1
102
RTVSPost2010Prop57
140
1.0
102
RTVSPost2010PropOp57
 70
     1
  0
XRECORD
  5
3CD
102
{ACAD_REACTORS
330
3CC
102
}
330
3CC
100
AcDbXrecord
280
     1
102
RTVSPost2010Prop28
280
     0
102
RTVSPost2010PropOp28
 70
     1
102
RTVSPost2010Prop29
280
     1
102
RTVSPost2010PropOp29
 70
     1
102
RTVSPost2010Prop30
280
     1
102
RTVSPost2010PropOp30
 70
     1
102
RTVSPost2010Prop31
280
     0
102
RTVSPost2010PropOp31
 70
     1
102
RTVSPost2010Prop32
280
     0
102
RTVSPost2010PropOp32
 70
     1
102
RTVSPost2010Prop33
280
     0
102
RTVSPost2010PropOp33
 70
     1
102
RTVSPost2010Prop34
280
     0
102
RTVSPost2010PropOp34
 70
     1
102
RTVSPost2010Prop35
280
     0
102
RTVSPost2010PropOp35
 70
     1
102
RTVSPost2010Prop36
280
     0
102
RTVSPost2010PropOp36
 70
     1
102
RTVSPost2010Prop37
 90
       50
102
RTVSPost2010PropOp37
 70
     1
102
RTVSPost2010Prop38
140
0.0
102
RTVSPost2010PropOp38
 70
     1
102
RTVSPost2010Prop39
140
1.0
102
RTVSPost2010PropOp39
 70
     1
102
RTVSPost2010Prop40
 90
        0
102
RTVSPost2010PropOp40
 70
     1
102
RTVSPost2010Prop41ColorIndex
 90
       18
102
RTVSPost2010Prop41ColorRGB
 90
        0
102
RTVSPost2010PropOp41
 70
     1
102
RTVSPost2010Prop42
 90
       50
102
RTVSPost2010PropOp42
 70
     1
102
RTVSPost2010Prop43
 90
        3
102
RTVSPost2010PropOp43
 70
     1
102
RTVSPost2010Prop44ColorIndex
 90
        5
102
RTVSPost2010Prop44ColorRGB
 90
      255
102
RTVSPost2010PropOp44
 70
     1
102
RTVSPost2010Prop45
280
     0
102
RTVSPost2010PropOp45
 70
     1
102
RTVSPost2010Prop46
 90
       50
102
RTVSPost2010PropOp46
 70
     1
102
RTVSPost2010Prop47
 90
       50
102
RTVSPost2010PropOp47
 70
     1
102
RTVSPost2010Prop48
 90
       50
102
RTVSPost2010PropOp48
 70
     1
102
RTVSPost2010Prop49
280
     0
102
RTVSPost2010PropOp49
 70
     1
102
RTVSPost2010Prop50
 90
       50
102
RTVSPost2010PropOp50
 70
     1
102
RTVSPost2010Prop51ColorIndex
 90
      256
102
RTVSPost2010Prop51ColorRGB
 90
-16777216
102
RTVSPost2010PropOp51
 70
     0
102
RTVSPost2010Prop52
140
1.0
102
RTVSPost2010PropOp52
 70
     0
102
RTVSPost2010Prop53
 90
        2
102
RTVSPost2010PropOp53
 70
     1
102
RTVSPost2010Prop54
  1
strokes_ogs.tif
102
RTVSPost2010PropOp54
 70
     1
102
RTVSPost2010Prop55
280
     0
102
RTVSPost2010PropOp55
 70
     1
102
RTVSPost2010Prop56
140
1.0
102
RTVSPost2010PropOp56
 70
     1
102
RTVSPost2010Prop57
140
1.0
102
RTVSPost2010PropOp57
 70
     1
  0
XRECORD
  5
3D5
102
{ACAD_REACTORS
330
3D4
102
}
330
3D4
100
AcDbXrecord
280
     1
102
RTVSPost2010Prop28
280
     0
102
RTVSPost2010PropOp28
 70
     1
102
RTVSPost2010Prop29
280
     1
102
RTVSPost2010PropOp29
 70
     1
102
RTVSPost2010Prop30
280
     1
102
RTVSPost2010PropOp30
 70
     1
102
RTVSPost2010Prop31
280
     0
102
RTVSPost2010PropOp31
 70
     1
102
RTVSPost2010Prop32
280
     0
102
RTVSPost2010PropOp32
 70
     1
102
RTVSPost2010Prop33
280
     0
102
RTVSPost2010PropOp33
 70
     1
102
RTVSPost2010Prop34
280
     0
102
RTVSPost2010PropOp34
 70
     1
102
RTVSPost2010Prop35
280
     0
102
RTVSPost2010PropOp35
 70
     1
102
RTVSPost2010Prop36
280
     0
102
RTVSPost2010PropOp36
 70
     1
102
RTVSPost2010Prop37
 90
       50
102
RTVSPost2010PropOp37
 70
     1
102
RTVSPost2010Prop38
140
0.0
102
RTVSPost2010PropOp38
 70
     1
102
RTVSPost2010Prop39
140
1.0
102
RTVSPost2010PropOp39
 70
     1
102
RTVSPost2010Prop40
 90
        0
102
RTVSPost2010PropOp40
 70
     1
102
RTVSPost2010Prop41ColorIndex
 90
       18
102
RTVSPost2010Prop41ColorRGB
 90
        0
102
RTVSPost2010PropOp41
 70
     1
102
RTVSPost2010Prop42
 90
       50
102
RTVSPost2010PropOp42
 70
     1
102
RTVSPost2010Prop43
 90
        3
102
RTVSPost2010PropOp43
 70
     1
102
RTVSPost2010Prop44ColorIndex
 90
        5
102
RTVSPost2010Prop44ColorRGB
 90
      255
102
RTVSPost2010PropOp44
 70
     1
102
RTVSPost2010Prop45
280
     0
102
RTVSPost2010PropOp45
 70
     1
102
RTVSPost2010Prop46
 90
       50
102
RTVSPost2010PropOp46
 70
     1
102
RTVSPost2010Prop47
 90
       50
102
RTVSPost2010PropOp47
 70
     1
102
RTVSPost2010Prop48
 90
       50
102
RTVSPost2010PropOp48
 70
     1
102
RTVSPost2010Prop49
280
     0
102
RTVSPost2010PropOp49
 70
     1
102
RTVSPost2010Prop50
 90
       50
102
RTVSPost2010PropOp50
 70
     1
102
RTVSPost2010Prop51ColorIndex
 90
      256
102
RTVSPost2010Prop51ColorRGB
 90
-16777216
102
RTVSPost2010PropOp51
 70
     0
102
RTVSPost2010Prop52
140
1.0
102
RTVSPost2010PropOp52
 70
     0
102
RTVSPost2010Prop53
 90
        2
102
RTVSPost2010PropOp53
 70
     1
102
RTVSPost2010Prop54
  1
strokes_ogs.tif
102
RTVSPost2010PropOp54
 70
     1
102
RTVSPost2010Prop55
280
     0
102
RTVSPost2010PropOp55
 70
     1
102
RTVSPost2010Prop56
140
1.0
102
RTVSPost2010PropOp56
 70
     1
102
RTVSPost2010Prop57
140
1.0
102
RTVSPost2010PropOp57
 70
     1
  0
XRECORD
  5
3DD
102
{ACAD_REACTORS
330
3DC
102
}
330
3DC
100
AcDbXrecord
280
     1
102
RTVSPost2010Prop28
280
     0
102
RTVSPost2010PropOp28
 70
     1
102
RTVSPost2010Prop29
280
     1
102
RTVSPost2010PropOp29
 70
     1
102
RTVSPost2010Prop30
280
     1
102
RTVSPost2010PropOp30
 70
     1
102
RTVSPost2010Prop31
280
     0
102
RTVSPost2010PropOp31
 70
     1
102
RTVSPost2010Prop32
280
     0
102
RTVSPost2010PropOp32
 70
     1
102
RTVSPost2010Prop33
280
     0
102
RTVSPost2010PropOp33
 70
     1
102
RTVSPost2010Prop34
280
     0
102
RTVSPost2010PropOp34
 70
     1
102
RTVSPost2010Prop35
280
     0
102
RTVSPost2010PropOp35
 70
     1
102
RTVSPost2010Prop36
280
     0
102
RTVSPost2010PropOp36
 70
     1
102
RTVSPost2010Prop37
 90
       50
102
RTVSPost2010PropOp37
 70
     1
102
RTVSPost2010Prop38
140
0.0
102
RTVSPost2010PropOp38
 70
     1
102
RTVSPost2010Prop39
140
1.0
102
RTVSPost2010PropOp39
 70
     1
102
RTVSPost2010Prop40
 90
        0
102
RTVSPost2010PropOp40
 70
     1
102
RTVSPost2010Prop41ColorIndex
 90
       18
102
RTVSPost2010Prop41ColorRGB
 90
        0
102
RTVSPost2010PropOp41
 70
     1
102
RTVSPost2010Prop42
 90
       50
102
RTVSPost2010PropOp42
 70
     1
102
RTVSPost2010Prop43
 90
        3
102
RTVSPost2010PropOp43
 70
     1
102
RTVSPost2010Prop44ColorIndex
 90
        5
102
RTVSPost2010Prop44ColorRGB
 90
      255
102
RTVSPost2010PropOp44
 70
     1
102
RTVSPost2010Prop45
280
     0
102
RTVSPost2010PropOp45
 70
     1
102
RTVSPost2010Prop46
 90
       50
102
RTVSPost2010PropOp46
 70
     1
102
RTVSPost2010Prop47
 90
       50
102
RTVSPost2010PropOp47
 70
     1
102
RTVSPost2010Prop48
 90
       50
102
RTVSPost2010PropOp48
 70
     1
102
RTVSPost2010Prop49
280
     0
102
RTVSPost2010PropOp49
 70
     1
102
RTVSPost2010Prop50
 90
       50
102
RTVSPost2010PropOp50
 70
     1
102
RTVSPost2010Prop51ColorIndex
 90
      256
102
RTVSPost2010Prop51ColorRGB
 90
-16777216
102
RTVSPost2010PropOp51
 70
     0
102
RTVSPost2010Prop52
140
1.0
102
RTVSPost2010PropOp52
 70
     0
102
RTVSPost2010Prop53
 90
        2
102
RTVSPost2010PropOp53
 70
     1
102
RTVSPost2010Prop54
  1
strokes_ogs.tif
102
RTVSPost2010PropOp54
 70
     1
102
RTVSPost2010Prop55
280
     0
102
RTVSPost2010PropOp55
 70
     1
102
RTVSPost2010Prop56
140
1.0
102
RTVSPost2010PropOp56
 70
     1
102
RTVSPost2010Prop57
140
1.0
102
RTVSPost2010PropOp57
 70
     1
  0
XRECORD
  5
3D1
102
{ACAD_REACTORS
330
3D0
102
}
330
3D0
100
AcDbXrecord
280
     1
102
RTVSPost2010Prop28
280
     0
102
RTVSPost2010PropOp28
 70
     1
102
RTVSPost2010Prop29
280
     1
102
RTVSPost2010PropOp29
 70
     1
102
RTVSPost2010Prop30
280
     1
102
RTVSPost2010PropOp30
 70
     1
102
RTVSPost2010Prop31
280
     0
102
RTVSPost2010PropOp31
 70
     1
102
RTVSPost2010Prop32
280
     0
102
RTVSPost2010PropOp32
 70
     1
102
RTVSPost2010Prop33
280
     0
102
RTVSPost2010PropOp33
 70
     1
102
RTVSPost2010Prop34
280
     0
102
RTVSPost2010PropOp34
 70
     1
102
RTVSPost2010Prop35
280
     0
102
RTVSPost2010PropOp35
 70
     1
102
RTVSPost2010Prop36
280
     0
102
RTVSPost2010PropOp36
 70
     1
102
RTVSPost2010Prop37
 90
       50
102
RTVSPost2010PropOp37
 70
     1
102
RTVSPost2010Prop38
140
0.0
102
RTVSPost2010PropOp38
 70
     1
102
RTVSPost2010Prop39
140
1.0
102
RTVSPost2010PropOp39
 70
     1
102
RTVSPost2010Prop40
 90
        0
102
RTVSPost2010PropOp40
 70
     1
102
RTVSPost2010Prop41ColorIndex
 90
       18
102
RTVSPost2010Prop41ColorRGB
 90
        0
102
RTVSPost2010PropOp41
 70
     1
102
RTVSPost2010Prop42
 90
       50
102
RTVSPost2010PropOp42
 70
     1
102
RTVSPost2010Prop43
 90
        3
102
RTVSPost2010PropOp43
 70
     1
102
RTVSPost2010Prop44ColorIndex
 90
        5
102
RTVSPost2010Prop44ColorRGB
 90
      255
102
RTVSPost2010PropOp44
 70
     1
102
RTVSPost2010Prop45
280
     0
102
RTVSPost2010PropOp45
 70
     1
102
RTVSPost2010Prop46
 90
       50
102
RTVSPost2010PropOp46
 70
     1
102
RTVSPost2010Prop47
 90
       50
102
RTVSPost2010PropOp47
 70
     1
102
RTVSPost2010Prop48
 90
       50
102
RTVSPost2010PropOp48
 70
     1
102
RTVSPost2010Prop49
280
     0
102
RTVSPost2010PropOp49
 70
     1
102
RTVSPost2010Prop50
 90
       50
102
RTVSPost2010PropOp50
 70
     1
102
RTVSPost2010Prop51ColorIndex
 90
      256
102
RTVSPost2010Prop51ColorRGB
 90
-16777216
102
RTVSPost2010PropOp51
 70
     0
102
RTVSPost2010Prop52
140
1.0
102
RTVSPost2010PropOp52
 70
     0
102
RTVSPost2010Prop53
 90
        2
102
RTVSPost2010PropOp53
 70
     1
102
RTVSPost2010Prop54
  1
strokes_ogs.tif
102
RTVSPost2010PropOp54
 70
     1
102
RTVSPost2010Prop55
280
     0
102
RTVSPost2010PropOp55
 70
     1
102
RTVSPost2010Prop56
140
1.0
102
RTVSPost2010PropOp56
 70
     1
102
RTVSPost2010Prop57
140
1.0
102
RTVSPost2010PropOp57
 70
     1
  0
XRECORD
  5
3D3
102
{ACAD_REACTORS
330
3D2
102
}
330
3D2
100
AcDbXrecord
280
     1
102
RTVSPost2010Prop28
280
     0
102
RTVSPost2010PropOp28
 70
     1
102
RTVSPost2010Prop29
280
     1
102
RTVSPost2010PropOp29
 70
     1
102
RTVSPost2010Prop30
280
     1
102
RTVSPost2010PropOp30
 70
     1
102
RTVSPost2010Prop31
280
     0
102
RTVSPost2010PropOp31
 70
     1
102
RTVSPost2010Prop32
280
     0
102
RTVSPost2010PropOp32
 70
     1
102
RTVSPost2010Prop33
280
     0
102
RTVSPost2010PropOp33
 70
     1
102
RTVSPost2010Prop34
280
     0
102
RTVSPost2010PropOp34
 70
     1
102
RTVSPost2010Prop35
280
     0
102
RTVSPost2010PropOp35
 70
     1
102
RTVSPost2010Prop36
280
     0
102
RTVSPost2010PropOp36
 70
     1
102
RTVSPost2010Prop37
 90
       50
102
RTVSPost2010PropOp37
 70
     1
102
RTVSPost2010Prop38
140
0.0
102
RTVSPost2010PropOp38
 70
     1
102
RTVSPost2010Prop39
140
1.0
102
RTVSPost2010PropOp39
 70
     1
102
RTVSPost2010Prop40
 90
        0
102
RTVSPost2010PropOp40
 70
     1
102
RTVSPost2010Prop41ColorIndex
 90
       18
102
RTVSPost2010Prop41ColorRGB
 90
        0
102
RTVSPost2010PropOp41
 70
     1
102
RTVSPost2010Prop42
 90
       50
102
RTVSPost2010PropOp42
 70
     1
102
RTVSPost2010Prop43
 90
        3
102
RTVSPost2010PropOp43
 70
     1
102
RTVSPost2010Prop44ColorIndex
 90
        5
102
RTVSPost2010Prop44ColorRGB
 90
      255
102
RTVSPost2010PropOp44
 70
     1
102
RTVSPost2010Prop45
280
     0
102
RTVSPost2010PropOp45
 70
     1
102
RTVSPost2010Prop46
 90
       50
102
RTVSPost2010PropOp46
 70
     1
102
RTVSPost2010Prop47
 90
       50
102
RTVSPost2010PropOp47
 70
     1
102
RTVSPost2010Prop48
 90
       50
102
RTVSPost2010PropOp48
 70
     1
102
RTVSPost2010Prop49
280
     0
102
RTVSPost2010PropOp49
 70
     1
102
RTVSPost2010Prop50
 90
       50
102
RTVSPost2010PropOp50
 70
     1
102
RTVSPost2010Prop51ColorIndex
 90
      256
102
RTVSPost2010Prop51ColorRGB
 90
-16777216
102
RTVSPost2010PropOp51
 70
     0
102
RTVSPost2010Prop52
140
1.0
102
RTVSPost2010PropOp52
 70
     0
102
RTVSPost2010Prop53
 90
        2
102
RTVSPost2010PropOp53
 70
     1
102
RTVSPost2010Prop54
  1
strokes_ogs.tif
102
RTVSPost2010PropOp54
 70
     1
102
RTVSPost2010Prop55
280
     0
102
RTVSPost2010PropOp55
 70
     1
102
RTVSPost2010Prop56
140
1.0
102
RTVSPost2010PropOp56
 70
     1
102
RTVSPost2010Prop57
140
1.0
102
RTVSPost2010PropOp57
 70
     1
  0
XRECORD
  5
3E3
102
{ACAD_REACTORS
330
3E2
102
}
330
3E2
100
AcDbXrecord
280
     1
102
RTVSPost2010Prop28
280
     0
102
RTVSPost2010PropOp28
 70
     0
102
RTVSPost2010Prop29
280
     1
102
RTVSPost2010PropOp29
 70
     0
102
RTVSPost2010Prop30
280
     1
102
RTVSPost2010PropOp30
 70
     0
102
RTVSPost2010Prop31
280
     0
102
RTVSPost2010PropOp31
 70
     0
102
RTVSPost2010Prop32
280
     0
102
RTVSPost2010PropOp32
 70
     0
102
RTVSPost2010Prop33
280
     0
102
RTVSPost2010PropOp33
 70
     0
102
RTVSPost2010Prop34
280
     0
102
RTVSPost2010PropOp34
 70
     0
102
RTVSPost2010Prop35
280
     0
102
RTVSPost2010PropOp35
 70
     0
102
RTVSPost2010Prop36
280
     0
102
RTVSPost2010PropOp36
 70
     0
102
RTVSPost2010Prop37
 90
       50
102
RTVSPost2010PropOp37
 70
     0
102
RTVSPost2010Prop38
140
0.0
102
RTVSPost2010PropOp38
 70
     0
102
RTVSPost2010Prop39
140
1.0
102
RTVSPost2010PropOp39
 70
     0
102
RTVSPost2010Prop40
 90
        0
102
RTVSPost2010PropOp40
 70
     0
102
RTVSPost2010Prop41ColorIndex
 90
       18
102
RTVSPost2010Prop41ColorRGB
 90
        0
102
RTVSPost2010PropOp41
 70
     0
102
RTVSPost2010Prop42
 90
       50
102
RTVSPost2010PropOp42
 70
     0
102
RTVSPost2010Prop43
 90
        3
102
RTVSPost2010PropOp43
 70
     0
102
RTVSPost2010Prop44ColorIndex
 90
        5
102
RTVSPost2010Prop44ColorRGB
 90
      255
102
RTVSPost2010PropOp44
 70
     0
102
RTVSPost2010Prop45
280
     0
102
RTVSPost2010PropOp45
 70
     0
102
RTVSPost2010Prop46
 90
       50
102
RTVSPost2010PropOp46
 70
     0
102
RTVSPost2010Prop47
 90
       50
102
RTVSPost2010PropOp47
 70
     0
102
RTVSPost2010Prop48
 90
       50
102
RTVSPost2010PropOp48
 70
     0
102
RTVSPost2010Prop49
280
     0
102
RTVSPost2010PropOp49
 70
     0
102
RTVSPost2010Prop50
 90
       50
102
RTVSPost2010PropOp50
 70
     0
102
RTVSPost2010Prop51ColorIndex
 90
      256
102
RTVSPost2010Prop51ColorRGB
 90
-16777216
102
RTVSPost2010PropOp51
 70
     0
102
RTVSPost2010Prop52
140
1.0
102
RTVSPost2010PropOp52
 70
     0
102
RTVSPost2010Prop53
 90
        2
102
RTVSPost2010PropOp53
 70
     0
102
RTVSPost2010Prop54
  1
strokes_ogs.tif
102
RTVSPost2010PropOp54
 70
     0
102
RTVSPost2010Prop55
280
     0
102
RTVSPost2010PropOp55
 70
     0
102
RTVSPost2010Prop56
140
1.0
102
RTVSPost2010PropOp56
 70
     0
102
RTVSPost2010Prop57
140
1.0
102
RTVSPost2010PropOp57
 70
     0
  0
XRECORD
  5
3DB
102
{ACAD_REACTORS
330
3DA
102
}
330
3DA
100
AcDbXrecord
280
     1
102
RTVSPost2010Prop28
280
     0
102
RTVSPost2010PropOp28
 70
     1
102
RTVSPost2010Prop29
280
     1
102
RTVSPost2010PropOp29
 70
     1
102
RTVSPost2010Prop30
280
     1
102
RTVSPost2010PropOp30
 70
     1
102
RTVSPost2010Prop31
280
     0
102
RTVSPost2010PropOp31
 70
     1
102
RTVSPost2010Prop32
280
     0
102
RTVSPost2010PropOp32
 70
     1
102
RTVSPost2010Prop33
280
     0
102
RTVSPost2010PropOp33
 70
     1
102
RTVSPost2010Prop34
280
     0
102
RTVSPost2010PropOp34
 70
     1
102
RTVSPost2010Prop35
280
     0
102
RTVSPost2010PropOp35
 70
     1
102
RTVSPost2010Prop36
280
     0
102
RTVSPost2010PropOp36
 70
     1
102
RTVSPost2010Prop37
 90
       50
102
RTVSPost2010PropOp37
 70
     1
102
RTVSPost2010Prop38
140
0.0
102
RTVSPost2010PropOp38
 70
     1
102
RTVSPost2010Prop39
140
1.0
102
RTVSPost2010PropOp39
 70
     1
102
RTVSPost2010Prop40
 90
        0
102
RTVSPost2010PropOp40
 70
     1
102
RTVSPost2010Prop41ColorIndex
 90
       18
102
RTVSPost2010Prop41ColorRGB
 90
        0
102
RTVSPost2010PropOp41
 70
     1
102
RTVSPost2010Prop42
 90
       50
102
RTVSPost2010PropOp42
 70
     1
102
RTVSPost2010Prop43
 90
        3
102
RTVSPost2010PropOp43
 70
     1
102
RTVSPost2010Prop44ColorIndex
 90
        5
102
RTVSPost2010Prop44ColorRGB
 90
      255
102
RTVSPost2010PropOp44
 70
     1
102
RTVSPost2010Prop45
280
     0
102
RTVSPost2010PropOp45
 70
     1
102
RTVSPost2010Prop46
 90
       50
102
RTVSPost2010PropOp46
 70
     1
102
RTVSPost2010Prop47
 90
       50
102
RTVSPost2010PropOp47
 70
     1
102
RTVSPost2010Prop48
 90
       50
102
RTVSPost2010PropOp48
 70
     1
102
RTVSPost2010Prop49
280
     0
102
RTVSPost2010PropOp49
 70
     1
102
RTVSPost2010Prop50
 90
       50
102
RTVSPost2010PropOp50
 70
     1
102
RTVSPost2010Prop51ColorIndex
 90
      256
102
RTVSPost2010Prop51ColorRGB
 90
-16777216
102
RTVSPost2010PropOp51
 70
     0
102
RTVSPost2010Prop52
140
1.0
102
RTVSPost2010PropOp52
 70
     0
102
RTVSPost2010Prop53
 90
        2
102
RTVSPost2010PropOp53
 70
     1
102
RTVSPost2010Prop54
  1
strokes_ogs.tif
102
RTVSPost2010PropOp54
 70
     1
102
RTVSPost2010Prop55
280
     0
102
RTVSPost2010PropOp55
 70
     1
102
RTVSPost2010Prop56
140
1.0
102
RTVSPost2010PropOp56
 70
     1
102
RTVSPost2010Prop57
140
1.0
102
RTVSPost2010PropOp57
 70
     1
  0
XRECORD
  5
3BF
102
{ACAD_REACTORS
330
3BE
102
}
330
3BE
100
AcDbXrecord
280
     1
102
RTVSPost2010Prop28
280
     0
102
RTVSPost2010PropOp28
 70
     1
102
RTVSPost2010Prop29
280
     1
102
RTVSPost2010PropOp29
 70
     1
102
RTVSPost2010Prop30
280
     1
102
RTVSPost2010PropOp30
 70
     1
102
RTVSPost2010Prop31
280
     0
102
RTVSPost2010PropOp31
 70
     1
102
RTVSPost2010Prop32
280
     0
102
RTVSPost2010PropOp32
 70
     1
102
RTVSPost2010Prop33
280
     0
102
RTVSPost2010PropOp33
 70
     1
102
RTVSPost2010Prop34
280
     0
102
RTVSPost2010PropOp34
 70
     1
102
RTVSPost2010Prop35
280
     0
102
RTVSPost2010PropOp35
 70
     1
102
RTVSPost2010Prop36
280
     0
102
RTVSPost2010PropOp36
 70
     1
102
RTVSPost2010Prop37
 90
       50
102
RTVSPost2010PropOp37
 70
     1
102
RTVSPost2010Prop38
140
0.0
102
RTVSPost2010PropOp38
 70
     1
102
RTVSPost2010Prop39
140
1.0
102
RTVSPost2010PropOp39
 70
     1
102
RTVSPost2010Prop40
 90
        0
102
RTVSPost2010PropOp40
 70
     1
102
RTVSPost2010Prop41ColorIndex
 90
       18
102
RTVSPost2010Prop41ColorRGB
 90
        0
102
RTVSPost2010PropOp41
 70
     1
102
RTVSPost2010Prop42
 90
       50
102
RTVSPost2010PropOp42
 70
     1
102
RTVSPost2010Prop43
 90
        3
102
RTVSPost2010PropOp43
 70
     1
102
RTVSPost2010Prop44ColorIndex
 90
        5
102
RTVSPost2010Prop44ColorRGB
 90
      255
102
RTVSPost2010PropOp44
 70
     1
102
RTVSPost2010Prop45
280
     0
102
RTVSPost2010PropOp45
 70
     1
102
RTVSPost2010Prop46
 90
       50
102
RTVSPost2010PropOp46
 70
     1
102
RTVSPost2010Prop47
 90
       50
102
RTVSPost2010PropOp47
 70
     1
102
RTVSPost2010Prop48
 90
       50
102
RTVSPost2010PropOp48
 70
     1
102
RTVSPost2010Prop49
280
     0
102
RTVSPost2010PropOp49
 70
     1
102
RTVSPost2010Prop50
 90
       50
102
RTVSPost2010PropOp50
 70
     1
102
RTVSPost2010Prop51ColorIndex
 90
      256
102
RTVSPost2010Prop51ColorRGB
 90
-16777216
102
RTVSPost2010PropOp51
 70
     0
102
RTVSPost2010Prop52
140
1.0
102
RTVSPost2010PropOp52
 70
     0
102
RTVSPost2010Prop53
 90
        2
102
RTVSPost2010PropOp53
 70
     1
102
RTVSPost2010Prop54
  1
strokes_ogs.tif
102
RTVSPost2010PropOp54
 70
     1
102
RTVSPost2010Prop55
280
     0
102
RTVSPost2010PropOp55
 70
     1
102
RTVSPost2010Prop56
140
1.0
102
RTVSPost2010PropOp56
 70
     1
102
RTVSPost2010Prop57
140
1.0
102
RTVSPost2010PropOp57
 70
     1
  0
XRECORD
  5
3C1
102
{ACAD_REACTORS
330
3C0
102
}
330
3C0
100
AcDbXrecord
280
     1
102
RTVSPost2010Prop28
280
     0
102
RTVSPost2010PropOp28
 70
     1
102
RTVSPost2010Prop29
280
     1
102
RTVSPost2010PropOp29
 70
     1
102
RTVSPost2010Prop30
280
     1
102
RTVSPost2010PropOp30
 70
     1
102
RTVSPost2010Prop31
280
     0
102
RTVSPost2010PropOp31
 70
     1
102
RTVSPost2010Prop32
280
     0
102
RTVSPost2010PropOp32
 70
     1
102
RTVSPost2010Prop33
280
     0
102
RTVSPost2010PropOp33
 70
     1
102
RTVSPost2010Prop34
280
     0
102
RTVSPost2010PropOp34
 70
     1
102
RTVSPost2010Prop35
280
     0
102
RTVSPost2010PropOp35
 70
     1
102
RTVSPost2010Prop36
280
     0
102
RTVSPost2010PropOp36
 70
     1
102
RTVSPost2010Prop37
 90
       50
102
RTVSPost2010PropOp37
 70
     1
102
RTVSPost2010Prop38
140
0.0
102
RTVSPost2010PropOp38
 70
     1
102
RTVSPost2010Prop39
140
1.0
102
RTVSPost2010PropOp39
 70
     1
102
RTVSPost2010Prop40
 90
        0
102
RTVSPost2010PropOp40
 70
     1
102
RTVSPost2010Prop41ColorIndex
 90
       18
102
RTVSPost2010Prop41ColorRGB
 90
        0
102
RTVSPost2010PropOp41
 70
     1
102
RTVSPost2010Prop42
 90
       50
102
RTVSPost2010PropOp42
 70
     1
102
RTVSPost2010Prop43
 90
        3
102
RTVSPost2010PropOp43
 70
     1
102
RTVSPost2010Prop44ColorIndex
 90
        5
102
RTVSPost2010Prop44ColorRGB
 90
      255
102
RTVSPost2010PropOp44
 70
     1
102
RTVSPost2010Prop45
280
     0
102
RTVSPost2010PropOp45
 70
     1
102
RTVSPost2010Prop46
 90
       50
102
RTVSPost2010PropOp46
 70
     1
102
RTVSPost2010Prop47
 90
       50
102
RTVSPost2010PropOp47
 70
     1
102
RTVSPost2010Prop48
 90
       50
102
RTVSPost2010PropOp48
 70
     1
102
RTVSPost2010Prop49
280
     0
102
RTVSPost2010PropOp49
 70
     1
102
RTVSPost2010Prop50
 90
       50
102
RTVSPost2010PropOp50
 70
     1
102
RTVSPost2010Prop51ColorIndex
 90
      256
102
RTVSPost2010Prop51ColorRGB
 90
-16777216
102
RTVSPost2010PropOp51
 70
     0
102
RTVSPost2010Prop52
140
1.0
102
RTVSPost2010PropOp52
 70
     0
102
RTVSPost2010Prop53
 90
        2
102
RTVSPost2010PropOp53
 70
     1
102
RTVSPost2010Prop54
  1
strokes_ogs.tif
102
RTVSPost2010PropOp54
 70
     1
102
RTVSPost2010Prop55
280
     0
102
RTVSPost2010PropOp55
 70
     1
102
RTVSPost2010Prop56
140
1.0
102
RTVSPost2010PropOp56
 70
     1
102
RTVSPost2010Prop57
140
1.0
102
RTVSPost2010PropOp57
 70
     1
  0
XRECORD
  5
3C3
102
{ACAD_REACTORS
330
3C2
102
}
330
3C2
100
AcDbXrecord
280
     1
102
RTVSPost2010Prop28
280
     0
102
RTVSPost2010PropOp28
 70
     1
102
RTVSPost2010Prop29
280
     1
102
RTVSPost2010PropOp29
 70
     1
102
RTVSPost2010Prop30
280
     1
102
RTVSPost2010PropOp30
 70
     1
102
RTVSPost2010Prop31
280
     0
102
RTVSPost2010PropOp31
 70
     1
102
RTVSPost2010Prop32
280
     0
102
RTVSPost2010PropOp32
 70
     1
102
RTVSPost2010Prop33
280
     0
102
RTVSPost2010PropOp33
 70
     1
102
RTVSPost2010Prop34
280
     0
102
RTVSPost2010PropOp34
 70
     1
102
RTVSPost2010Prop35
280
     0
102
RTVSPost2010PropOp35
 70
     1
102
RTVSPost2010Prop36
280
     0
102
RTVSPost2010PropOp36
 70
     1
102
RTVSPost2010Prop37
 90
       50
102
RTVSPost2010PropOp37
 70
     1
102
RTVSPost2010Prop38
140
0.0
102
RTVSPost2010PropOp38
 70
     1
102
RTVSPost2010Prop39
140
1.0
102
RTVSPost2010PropOp39
 70
     1
102
RTVSPost2010Prop40
 90
        0
102
RTVSPost2010PropOp40
 70
     1
102
RTVSPost2010Prop41ColorIndex
 90
       18
102
RTVSPost2010Prop41ColorRGB
 90
        0
102
RTVSPost2010PropOp41
 70
     1
102
RTVSPost2010Prop42
 90
       50
102
RTVSPost2010PropOp42
 70
     1
102
RTVSPost2010Prop43
 90
        3
102
RTVSPost2010PropOp43
 70
     1
102
RTVSPost2010Prop44ColorIndex
 90
        5
102
RTVSPost2010Prop44ColorRGB
 90
      255
102
RTVSPost2010PropOp44
 70
     1
102
RTVSPost2010Prop45
280
     0
102
RTVSPost2010PropOp45
 70
     1
102
RTVSPost2010Prop46
 90
       50
102
RTVSPost2010PropOp46
 70
     1
102
RTVSPost2010Prop47
 90
       50
102
RTVSPost2010PropOp47
 70
     1
102
RTVSPost2010Prop48
 90
       50
102
RTVSPost2010PropOp48
 70
     1
102
RTVSPost2010Prop49
280
     0
102
RTVSPost2010PropOp49
 70
     1
102
RTVSPost2010Prop50
 90
       50
102
RTVSPost2010PropOp50
 70
     1
102
RTVSPost2010Prop51ColorIndex
 90
      256
102
RTVSPost2010Prop51ColorRGB
 90
-16777216
102
RTVSPost2010PropOp51
 70
     0
102
RTVSPost2010Prop52
140
1.0
102
RTVSPost2010PropOp52
 70
     0
102
RTVSPost2010Prop53
 90
        2
102
RTVSPost2010PropOp53
 70
     1
102
RTVSPost2010Prop54
  1
strokes_ogs.tif
102
RTVSPost2010PropOp54
 70
     1
102
RTVSPost2010Prop55
280
     0
102
RTVSPost2010PropOp55
 70
     1
102
RTVSPost2010Prop56
140
1.0
102
RTVSPost2010PropOp56
 70
     1
102
RTVSPost2010Prop57
140
1.0
102
RTVSPost2010PropOp57
 70
     1
  0
XRECORD
  5
3C5
102
{ACAD_REACTORS
330
3C4
102
}
330
3C4
100
AcDbXrecord
280
     1
102
RTVSPost2010Prop28
280
     0
102
RTVSPost2010PropOp28
 70
     1
102
RTVSPost2010Prop29
280
     1
102
RTVSPost2010PropOp29
 70
     1
102
RTVSPost2010Prop30
280
     1
102
RTVSPost2010PropOp30
 70
     1
102
RTVSPost2010Prop31
280
     0
102
RTVSPost2010PropOp31
 70
     1
102
RTVSPost2010Prop32
280
     0
102
RTVSPost2010PropOp32
 70
     1
102
RTVSPost2010Prop33
280
     0
102
RTVSPost2010PropOp33
 70
     1
102
RTVSPost2010Prop34
280
     0
102
RTVSPost2010PropOp34
 70
     1
102
RTVSPost2010Prop35
280
     0
102
RTVSPost2010PropOp35
 70
     1
102
RTVSPost2010Prop36
280
     0
102
RTVSPost2010PropOp36
 70
     1
102
RTVSPost2010Prop37
 90
       50
102
RTVSPost2010PropOp37
 70
     1
102
RTVSPost2010Prop38
140
0.0
102
RTVSPost2010PropOp38
 70
     1
102
RTVSPost2010Prop39
140
1.0
102
RTVSPost2010PropOp39
 70
     1
102
RTVSPost2010Prop40
 90
        0
102
RTVSPost2010PropOp40
 70
     1
102
RTVSPost2010Prop41ColorIndex
 90
       18
102
RTVSPost2010Prop41ColorRGB
 90
        0
102
RTVSPost2010PropOp41
 70
     1
102
RTVSPost2010Prop42
 90
       50
102
RTVSPost2010PropOp42
 70
     1
102
RTVSPost2010Prop43
 90
        3
102
RTVSPost2010PropOp43
 70
     1
102
RTVSPost2010Prop44ColorIndex
 90
        5
102
RTVSPost2010Prop44ColorRGB
 90
      255
102
RTVSPost2010PropOp44
 70
     1
102
RTVSPost2010Prop45
280
     0
102
RTVSPost2010PropOp45
 70
     1
102
RTVSPost2010Prop46
 90
       50
102
RTVSPost2010PropOp46
 70
     1
102
RTVSPost2010Prop47
 90
       50
102
RTVSPost2010PropOp47
 70
     1
102
RTVSPost2010Prop48
 90
       50
102
RTVSPost2010PropOp48
 70
     1
102
RTVSPost2010Prop49
280
     0
102
RTVSPost2010PropOp49
 70
     1
102
RTVSPost2010Prop50
 90
       50
102
RTVSPost2010PropOp50
 70
     1
102
RTVSPost2010Prop51ColorIndex
 90
      256
102
RTVSPost2010Prop51ColorRGB
 90
-16777216
102
RTVSPost2010PropOp51
 70
     0
102
RTVSPost2010Prop52
140
1.0
102
RTVSPost2010PropOp52
 70
     0
102
RTVSPost2010Prop53
 90
        2
102
RTVSPost2010PropOp53
 70
     1
102
RTVSPost2010Prop54
  1
strokes_ogs.tif
102
RTVSPost2010PropOp54
 70
     1
102
RTVSPost2010Prop55
280
     0
102
RTVSPost2010PropOp55
 70
     1
102
RTVSPost2010Prop56
140
1.0
102
RTVSPost2010PropOp56
 70
     1
102
RTVSPost2010Prop57
140
1.0
102
RTVSPost2010PropOp57
 70
     1
  0
XRECORD
  5
3CB
102
{ACAD_REACTORS
330
3CA
102
}
330
3CA
100
AcDbXrecord
280
     1
102
RTVSPost2010Prop28
280
     0
102
RTVSPost2010PropOp28
 70
     1
102
RTVSPost2010Prop29
280
     1
102
RTVSPost2010PropOp29
 70
     1
102
RTVSPost2010Prop30
280
     1
102
RTVSPost2010PropOp30
 70
     1
102
RTVSPost2010Prop31
280
     0
102
RTVSPost2010PropOp31
 70
     1
102
RTVSPost2010Prop32
280
     0
102
RTVSPost2010PropOp32
 70
     1
102
RTVSPost2010Prop33
280
     0
102
RTVSPost2010PropOp33
 70
     1
102
RTVSPost2010Prop34
280
     0
102
RTVSPost2010PropOp34
 70
     1
102
RTVSPost2010Prop35
280
     0
102
RTVSPost2010PropOp35
 70
     1
102
RTVSPost2010Prop36
280
     0
102
RTVSPost2010PropOp36
 70
     1
102
RTVSPost2010Prop37
 90
       50
102
RTVSPost2010PropOp37
 70
     1
102
RTVSPost2010Prop38
140
0.0
102
RTVSPost2010PropOp38
 70
     1
102
RTVSPost2010Prop39
140
1.0
102
RTVSPost2010PropOp39
 70
     1
102
RTVSPost2010Prop40
 90
        0
102
RTVSPost2010PropOp40
 70
     1
102
RTVSPost2010Prop41ColorIndex
 90
       18
102
RTVSPost2010Prop41ColorRGB
 90
        0
102
RTVSPost2010PropOp41
 70
     1
102
RTVSPost2010Prop42
 90
       50
102
RTVSPost2010PropOp42
 70
     1
102
RTVSPost2010Prop43
 90
        3
102
RTVSPost2010PropOp43
 70
     1
102
RTVSPost2010Prop44ColorIndex
 90
        5
102
RTVSPost2010Prop44ColorRGB
 90
      255
102
RTVSPost2010PropOp44
 70
     1
102
RTVSPost2010Prop45
280
     0
102
RTVSPost2010PropOp45
 70
     1
102
RTVSPost2010Prop46
 90
       50
102
RTVSPost2010PropOp46
 70
     1
102
RTVSPost2010Prop47
 90
       50
102
RTVSPost2010PropOp47
 70
     1
102
RTVSPost2010Prop48
 90
       50
102
RTVSPost2010PropOp48
 70
     1
102
RTVSPost2010Prop49
280
     0
102
RTVSPost2010PropOp49
 70
     1
102
RTVSPost2010Prop50
 90
       50
102
RTVSPost2010PropOp50
 70
     1
102
RTVSPost2010Prop51ColorIndex
 90
      256
102
RTVSPost2010Prop51ColorRGB
 90
-16777216
102
RTVSPost2010PropOp51
 70
     0
102
RTVSPost2010Prop52
140
1.0
102
RTVSPost2010PropOp52
 70
     0
102
RTVSPost2010Prop53
 90
        2
102
RTVSPost2010PropOp53
 70
     1
102
RTVSPost2010Prop54
  1
strokes_ogs.tif
102
RTVSPost2010PropOp54
 70
     1
102
RTVSPost2010Prop55
280
     0
102
RTVSPost2010PropOp55
 70
     1
102
RTVSPost2010Prop56
140
1.0
102
RTVSPost2010PropOp56
 70
     1
102
RTVSPost2010Prop57
140
1.0
102
RTVSPost2010PropOp57
 70
     1
  0
XRECORD
  5
3DF
102
{ACAD_REACTORS
330
3DE
102
}
330
3DE
100
AcDbXrecord
280
     1
102
RTVSPost2010Prop28
280
     0
102
RTVSPost2010PropOp28
 70
     0
102
RTVSPost2010Prop29
280
     1
102
RTVSPost2010PropOp29
 70
     0
102
RTVSPost2010Prop30
280
     1
102
RTVSPost2010PropOp30
 70
     0
102
RTVSPost2010Prop31
280
     0
102
RTVSPost2010PropOp31
 70
     0
102
RTVSPost2010Prop32
280
     0
102
RTVSPost2010PropOp32
 70
     0
102
RTVSPost2010Prop33
280
     0
102
RTVSPost2010PropOp33
 70
     0
102
RTVSPost2010Prop34
280
     0
102
RTVSPost2010PropOp34
 70
     0
102
RTVSPost2010Prop35
280
     0
102
RTVSPost2010PropOp35
 70
     0
102
RTVSPost2010Prop36
280
     0
102
RTVSPost2010PropOp36
 70
     0
102
RTVSPost2010Prop37
 90
       50
102
RTVSPost2010PropOp37
 70
     0
102
RTVSPost2010Prop38
140
0.0
102
RTVSPost2010PropOp38
 70
     0
102
RTVSPost2010Prop39
140
1.0
102
RTVSPost2010PropOp39
 70
     0
102
RTVSPost2010Prop40
 90
        0
102
RTVSPost2010PropOp40
 70
     0
102
RTVSPost2010Prop41ColorIndex
 90
       18
102
RTVSPost2010Prop41ColorRGB
 90
        0
102
RTVSPost2010PropOp41
 70
     0
102
RTVSPost2010Prop42
 90
       50
102
RTVSPost2010PropOp42
 70
     0
102
RTVSPost2010Prop43
 90
        3
102
RTVSPost2010PropOp43
 70
     0
102
RTVSPost2010Prop44ColorIndex
 90
        5
102
RTVSPost2010Prop44ColorRGB
 90
      255
102
RTVSPost2010PropOp44
 70
     0
102
RTVSPost2010Prop45
280
     0
102
RTVSPost2010PropOp45
 70
     0
102
RTVSPost2010Prop46
 90
       50
102
RTVSPost2010PropOp46
 70
     0
102
RTVSPost2010Prop47
 90
       50
102
RTVSPost2010PropOp47
 70
     0
102
RTVSPost2010Prop48
 90
       50
102
RTVSPost2010PropOp48
 70
     0
102
RTVSPost2010Prop49
280
     0
102
RTVSPost2010PropOp49
 70
     0
102
RTVSPost2010Prop50
 90
       50
102
RTVSPost2010PropOp50
 70
     0
102
RTVSPost2010Prop51ColorIndex
 90
      256
102
RTVSPost2010Prop51ColorRGB
 90
-16777216
102
RTVSPost2010PropOp51
 70
     0
102
RTVSPost2010Prop52
140
1.0
102
RTVSPost2010PropOp52
 70
     0
102
RTVSPost2010Prop53
 90
        2
102
RTVSPost2010PropOp53
 70
     0
102
RTVSPost2010Prop54
  1
strokes_ogs.tif
102
RTVSPost2010PropOp54
 70
     0
102
RTVSPost2010Prop55
280
     0
102
RTVSPost2010PropOp55
 70
     0
102
RTVSPost2010Prop56
140
1.0
102
RTVSPost2010PropOp56
 70
     0
102
RTVSPost2010Prop57
140
1.0
102
RTVSPost2010PropOp57
 70
     0
  0
XRECORD
  5
3D9
102
{ACAD_REACTORS
330
3D8
102
}
330
3D8
100
AcDbXrecord
280
     1
102
RTVSPost2010Prop28
280
     0
102
RTVSPost2010PropOp28
 70
     1
102
RTVSPost2010Prop29
280
     1
102
RTVSPost2010PropOp29
 70
     1
102
RTVSPost2010Prop30
280
     1
102
RTVSPost2010PropOp30
 70
     1
102
RTVSPost2010Prop31
280
     0
102
RTVSPost2010PropOp31
 70
     1
102
RTVSPost2010Prop32
280
     0
102
RTVSPost2010PropOp32
 70
     1
102
RTVSPost2010Prop33
280
     0
102
RTVSPost2010PropOp33
 70
     1
102
RTVSPost2010Prop34
280
     0
102
RTVSPost2010PropOp34
 70
     1
102
RTVSPost2010Prop35
280
     0
102
RTVSPost2010PropOp35
 70
     1
102
RTVSPost2010Prop36
280
     0
102
RTVSPost2010PropOp36
 70
     1
102
RTVSPost2010Prop37
 90
       50
102
RTVSPost2010PropOp37
 70
     1
102
RTVSPost2010Prop38
140
0.0
102
RTVSPost2010PropOp38
 70
     1
102
RTVSPost2010Prop39
140
1.0
102
RTVSPost2010PropOp39
 70
     1
102
RTVSPost2010Prop40
 90
        0
102
RTVSPost2010PropOp40
 70
     1
102
RTVSPost2010Prop41ColorIndex
 90
       18
102
RTVSPost2010Prop41ColorRGB
 90
        0
102
RTVSPost2010PropOp41
 70
     1
102
RTVSPost2010Prop42
 90
       50
102
RTVSPost2010PropOp42
 70
     1
102
RTVSPost2010Prop43
 90
        3
102
RTVSPost2010PropOp43
 70
     1
102
RTVSPost2010Prop44ColorIndex
 90
        5
102
RTVSPost2010Prop44ColorRGB
 90
      255
102
RTVSPost2010PropOp44
 70
     1
102
RTVSPost2010Prop45
280
     0
102
RTVSPost2010PropOp45
 70
     1
102
RTVSPost2010Prop46
 90
       50
102
RTVSPost2010PropOp46
 70
     1
102
RTVSPost2010Prop47
 90
       50
102
RTVSPost2010PropOp47
 70
     1
102
RTVSPost2010Prop48
 90
       50
102
RTVSPost2010PropOp48
 70
     1
102
RTVSPost2010Prop49
280
     0
102
RTVSPost2010PropOp49
 70
     1
102
RTVSPost2010Prop50
 90
       50
102
RTVSPost2010PropOp50
 70
     1
102
RTVSPost2010Prop51ColorIndex
 90
      256
102
RTVSPost2010Prop51ColorRGB
 90
-16777216
102
RTVSPost2010PropOp51
 70
     0
102
RTVSPost2010Prop52
140
1.0
102
RTVSPost2010PropOp52
 70
     0
102
RTVSPost2010Prop53
 90
        2
102
RTVSPost2010PropOp53
 70
     1
102
RTVSPost2010Prop54
  1
strokes_ogs.tif
102
RTVSPost2010PropOp54
 70
     1
102
RTVSPost2010Prop55
280
     0
102
RTVSPost2010PropOp55
 70
     1
102
RTVSPost2010Prop56
140
1.0
102
RTVSPost2010PropOp56
 70
     1
102
RTVSPost2010Prop57
140
1.0
102
RTVSPost2010PropOp57
 70
     1
  0
XRECORD
  5
3E1
102
{ACAD_REACTORS
330
3E0
102
}
330
3E0
100
AcDbXrecord
280
     1
102
RTVSPost2010Prop28
280
     0
102
RTVSPost2010PropOp28
 70
     0
102
RTVSPost2010Prop29
280
     1
102
RTVSPost2010PropOp29
 70
     0
102
RTVSPost2010Prop30
280
     1
102
RTVSPost2010PropOp30
 70
     0
102
RTVSPost2010Prop31
280
     0
102
RTVSPost2010PropOp31
 70
     0
102
RTVSPost2010Prop32
280
     0
102
RTVSPost2010PropOp32
 70
     0
102
RTVSPost2010Prop33
280
     0
102
RTVSPost2010PropOp33
 70
     0
102
RTVSPost2010Prop34
280
     0
102
RTVSPost2010PropOp34
 70
     0
102
RTVSPost2010Prop35
280
     0
102
RTVSPost2010PropOp35
 70
     0
102
RTVSPost2010Prop36
280
     0
102
RTVSPost2010PropOp36
 70
     0
102
RTVSPost2010Prop37
 90
       50
102
RTVSPost2010PropOp37
 70
     0
102
RTVSPost2010Prop38
140
0.0
102
RTVSPost2010PropOp38
 70
     0
102
RTVSPost2010Prop39
140
1.0
102
RTVSPost2010PropOp39
 70
     0
102
RTVSPost2010Prop40
 90
        0
102
RTVSPost2010PropOp40
 70
     0
102
RTVSPost2010Prop41ColorIndex
 90
       18
102
RTVSPost2010Prop41ColorRGB
 90
        0
102
RTVSPost2010PropOp41
 70
     0
102
RTVSPost2010Prop42
 90
       50
102
RTVSPost2010PropOp42
 70
     0
102
RTVSPost2010Prop43
 90
        3
102
RTVSPost2010PropOp43
 70
     0
102
RTVSPost2010Prop44ColorIndex
 90
        5
102
RTVSPost2010Prop44ColorRGB
 90
      255
102
RTVSPost2010PropOp44
 70
     0
102
RTVSPost2010Prop45
280
     0
102
RTVSPost2010PropOp45
 70
     0
102
RTVSPost2010Prop46
 90
       50
102
RTVSPost2010PropOp46
 70
     0
102
RTVSPost2010Prop47
 90
       50
102
RTVSPost2010PropOp47
 70
     0
102
RTVSPost2010Prop48
 90
       50
102
RTVSPost2010PropOp48
 70
     0
102
RTVSPost2010Prop49
280
     0
102
RTVSPost2010PropOp49
 70
     0
102
RTVSPost2010Prop50
 90
       50
102
RTVSPost2010PropOp50
 70
     0
102
RTVSPost2010Prop51ColorIndex
 90
      256
102
RTVSPost2010Prop51ColorRGB
 90
-16777216
102
RTVSPost2010PropOp51
 70
     0
102
RTVSPost2010Prop52
140
1.0
102
RTVSPost2010PropOp52
 70
     0
102
RTVSPost2010Prop53
 90
        2
102
RTVSPost2010PropOp53
 70
     0
102
RTVSPost2010Prop54
  1
strokes_ogs.tif
102
RTVSPost2010PropOp54
 70
     0
102
RTVSPost2010Prop55
280
     0
102
RTVSPost2010PropOp55
 70
     0
102
RTVSPost2010Prop56
140
1.0
102
RTVSPost2010PropOp56
 70
     0
102
RTVSPost2010Prop57
140
1.0
102
RTVSPost2010PropOp57
 70
     0
  0
XRECORD
  5
3CF
102
{ACAD_REACTORS
330
3CE
102
}
330
3CE
100
AcDbXrecord
280
     1
102
RTVSPost2010Prop28
280
     0
102
RTVSPost2010PropOp28
 70
     1
102
RTVSPost2010Prop29
280
     1
102
RTVSPost2010PropOp29
 70
     1
102
RTVSPost2010Prop30
280
     1
102
RTVSPost2010PropOp30
 70
     1
102
RTVSPost2010Prop31
280
     0
102
RTVSPost2010PropOp31
 70
     1
102
RTVSPost2010Prop32
280
     0
102
RTVSPost2010PropOp32
 70
     1
102
RTVSPost2010Prop33
280
     0
102
RTVSPost2010PropOp33
 70
     1
102
RTVSPost2010Prop34
280
     0
102
RTVSPost2010PropOp34
 70
     1
102
RTVSPost2010Prop35
280
     0
102
RTVSPost2010PropOp35
 70
     1
102
RTVSPost2010Prop36
280
     0
102
RTVSPost2010PropOp36
 70
     1
102
RTVSPost2010Prop37
 90
       50
102
RTVSPost2010PropOp37
 70
     1
102
RTVSPost2010Prop38
140
0.0
102
RTVSPost2010PropOp38
 70
     1
102
RTVSPost2010Prop39
140
1.0
102
RTVSPost2010PropOp39
 70
     1
102
RTVSPost2010Prop40
 90
        0
102
RTVSPost2010PropOp40
 70
     1
102
RTVSPost2010Prop41ColorIndex
 90
       18
102
RTVSPost2010Prop41ColorRGB
 90
        0
102
RTVSPost2010PropOp41
 70
     1
102
RTVSPost2010Prop42
 90
       50
102
RTVSPost2010PropOp42
 70
     1
102
RTVSPost2010Prop43
 90
        3
102
RTVSPost2010PropOp43
 70
     1
102
RTVSPost2010Prop44ColorIndex
 90
        5
102
RTVSPost2010Prop44ColorRGB
 90
      255
102
RTVSPost2010PropOp44
 70
     1
102
RTVSPost2010Prop45
280
     0
102
RTVSPost2010PropOp45
 70
     1
102
RTVSPost2010Prop46
 90
       50
102
RTVSPost2010PropOp46
 70
     1
102
RTVSPost2010Prop47
 90
       50
102
RTVSPost2010PropOp47
 70
     1
102
RTVSPost2010Prop48
 90
       50
102
RTVSPost2010PropOp48
 70
     1
102
RTVSPost2010Prop49
280
     0
102
RTVSPost2010PropOp49
 70
     1
102
RTVSPost2010Prop50
 90
       50
102
RTVSPost2010PropOp50
 70
     1
102
RTVSPost2010Prop51ColorIndex
 90
      256
102
RTVSPost2010Prop51ColorRGB
 90
-16777216
102
RTVSPost2010PropOp51
 70
     0
102
RTVSPost2010Prop52
140
1.0
102
RTVSPost2010PropOp52
 70
     0
102
RTVSPost2010Prop53
 90
        2
102
RTVSPost2010PropOp53
 70
     1
102
RTVSPost2010Prop54
  1
strokes_ogs.tif
102
RTVSPost2010PropOp54
 70
     1
102
RTVSPost2010Prop55
280
     0
102
RTVSPost2010PropOp55
 70
     1
102
RTVSPost2010Prop56
140
1.0
102
RTVSPost2010PropOp56
 70
     1
102
RTVSPost2010Prop57
140
1.0
102
RTVSPost2010PropOp57
 70
     1
  0
XRECORD
  5
3ED
102
{ACAD_REACTORS
330
3EC
102
}
330
3EC
100
AcDbXrecord
280
     1
102
RTVSPost2010Prop28
280
     0
102
RTVSPost2010PropOp28
 70
     1
102
RTVSPost2010Prop29
280
     1
102
RTVSPost2010PropOp29
 70
     1
102
RTVSPost2010Prop30
280
     1
102
RTVSPost2010PropOp30
 70
     1
102
RTVSPost2010Prop31
280
     0
102
RTVSPost2010PropOp31
 70
     1
102
RTVSPost2010Prop32
280
     0
102
RTVSPost2010PropOp32
 70
     1
102
RTVSPost2010Prop33
280
     0
102
RTVSPost2010PropOp33
 70
     1
102
RTVSPost2010Prop34
280
     0
102
RTVSPost2010PropOp34
 70
     1
102
RTVSPost2010Prop35
280
     0
102
RTVSPost2010PropOp35
 70
     1
102
RTVSPost2010Prop36
280
     0
102
RTVSPost2010PropOp36
 70
     1
102
RTVSPost2010Prop37
 90
       50
102
RTVSPost2010PropOp37
 70
     1
102
RTVSPost2010Prop38
140
0.0
102
RTVSPost2010PropOp38
 70
     1
102
RTVSPost2010Prop39
140
1.0
102
RTVSPost2010PropOp39
 70
     1
102
RTVSPost2010Prop40
 90
        0
102
RTVSPost2010PropOp40
 70
     1
102
RTVSPost2010Prop41ColorIndex
 90
       18
102
RTVSPost2010Prop41ColorRGB
 90
        0
102
RTVSPost2010PropOp41
 70
     1
102
RTVSPost2010Prop42
 90
       50
102
RTVSPost2010PropOp42
 70
     1
102
RTVSPost2010Prop43
 90
        3
102
RTVSPost2010PropOp43
 70
     1
102
RTVSPost2010Prop44ColorIndex
 90
        5
102
RTVSPost2010Prop44ColorRGB
 90
      255
102
RTVSPost2010PropOp44
 70
     1
102
RTVSPost2010Prop45
280
     0
102
RTVSPost2010PropOp45
 70
     1
102
RTVSPost2010Prop46
 90
       50
102
RTVSPost2010PropOp46
 70
     1
102
RTVSPost2010Prop47
 90
       50
102
RTVSPost2010PropOp47
 70
     1
102
RTVSPost2010Prop48
 90
       50
102
RTVSPost2010PropOp48
 70
     1
102
RTVSPost2010Prop49
280
     0
102
RTVSPost2010PropOp49
 70
     1
102
RTVSPost2010Prop50
 90
       50
102
RTVSPost2010PropOp50
 70
     1
102
RTVSPost2010Prop51ColorIndex
 90
      256
102
RTVSPost2010Prop51ColorRGB
 90
-16777216
102
RTVSPost2010PropOp51
 70
     0
102
RTVSPost2010Prop52
140
1.0
102
RTVSPost2010PropOp52
 70
     0
102
RTVSPost2010Prop53
 90
        2
102
RTVSPost2010PropOp53
 70
     1
102
RTVSPost2010Prop54
  1
strokes_ogs.tif
102
RTVSPost2010PropOp54
 70
     1
102
RTVSPost2010Prop55
280
     0
102
RTVSPost2010PropOp55
 70
     1
102
RTVSPost2010Prop56
140
1.0
102
RTVSPost2010PropOp56
 70
     1
102
RTVSPost2010Prop57
140
1.0
102
RTVSPost2010PropOp57
 70
     1
  0
XRECORD
  5
3EB
102
{ACAD_REACTORS
330
3EA
102
}
330
3EA
100
AcDbXrecord
280
     1
102
RTVSPost2010Prop28
280
     0
102
RTVSPost2010PropOp28
 70
     1
102
RTVSPost2010Prop29
280
     1
102
RTVSPost2010PropOp29
 70
     1
102
RTVSPost2010Prop30
280
     1
102
RTVSPost2010PropOp30
 70
     1
102
RTVSPost2010Prop31
280
     0
102
RTVSPost2010PropOp31
 70
     1
102
RTVSPost2010Prop32
280
     0
102
RTVSPost2010PropOp32
 70
     1
102
RTVSPost2010Prop33
280
     0
102
RTVSPost2010PropOp33
 70
     1
102
RTVSPost2010Prop34
280
     0
102
RTVSPost2010PropOp34
 70
     1
102
RTVSPost2010Prop35
280
     0
102
RTVSPost2010PropOp35
 70
     1
102
RTVSPost2010Prop36
280
     0
102
RTVSPost2010PropOp36
 70
     1
102
RTVSPost2010Prop37
 90
       50
102
RTVSPost2010PropOp37
 70
     1
102
RTVSPost2010Prop38
140
0.0
102
RTVSPost2010PropOp38
 70
     1
102
RTVSPost2010Prop39
140
1.0
102
RTVSPost2010PropOp39
 70
     1
102
RTVSPost2010Prop40
 90
        0
102
RTVSPost2010PropOp40
 70
     1
102
RTVSPost2010Prop41ColorIndex
 90
       18
102
RTVSPost2010Prop41ColorRGB
 90
        0
102
RTVSPost2010PropOp41
 70
     1
102
RTVSPost2010Prop42
 90
       50
102
RTVSPost2010PropOp42
 70
     1
102
RTVSPost2010Prop43
 90
        3
102
RTVSPost2010PropOp43
 70
     1
102
RTVSPost2010Prop44ColorIndex
 90
        5
102
RTVSPost2010Prop44ColorRGB
 90
      255
102
RTVSPost2010PropOp44
 70
     1
102
RTVSPost2010Prop45
280
     0
102
RTVSPost2010PropOp45
 70
     1
102
RTVSPost2010Prop46
 90
       50
102
RTVSPost2010PropOp46
 70
     1
102
RTVSPost2010Prop47
 90
       50
102
RTVSPost2010PropOp47
 70
     1
102
RTVSPost2010Prop48
 90
       50
102
RTVSPost2010PropOp48
 70
     1
102
RTVSPost2010Prop49
280
     0
102
RTVSPost2010PropOp49
 70
     1
102
RTVSPost2010Prop50
 90
       50
102
RTVSPost2010PropOp50
 70
     1
102
RTVSPost2010Prop51ColorIndex
 90
      256
102
RTVSPost2010Prop51ColorRGB
 90
-16777216
102
RTVSPost2010PropOp51
 70
     0
102
RTVSPost2010Prop52
140
1.0
102
RTVSPost2010PropOp52
 70
     0
102
RTVSPost2010Prop53
 90
        2
102
RTVSPost2010PropOp53
 70
     1
102
RTVSPost2010Prop54
  1
strokes_ogs.tif
102
RTVSPost2010PropOp54
 70
     1
102
RTVSPost2010Prop55
280
     0
102
RTVSPost2010PropOp55
 70
     1
102
RTVSPost2010Prop56
140
1.0
102
RTVSPost2010PropOp56
 70
     1
102
RTVSPost2010Prop57
140
1.0
102
RTVSPost2010PropOp57
 70
     1
  0
XRECORD
  5
3E5
102
{ACAD_REACTORS
330
3E4
102
}
330
3E4
100
AcDbXrecord
280
     1
102
RTVSPost2010Prop28
280
     0
102
RTVSPost2010PropOp28
 70
     1
102
RTVSPost2010Prop29
280
     1
102
RTVSPost2010PropOp29
 70
     1
102
RTVSPost2010Prop30
280
     1
102
RTVSPost2010PropOp30
 70
     1
102
RTVSPost2010Prop31
280
     0
102
RTVSPost2010PropOp31
 70
     1
102
RTVSPost2010Prop32
280
     0
102
RTVSPost2010PropOp32
 70
     1
102
RTVSPost2010Prop33
280
     0
102
RTVSPost2010PropOp33
 70
     1
102
RTVSPost2010Prop34
280
     0
102
RTVSPost2010PropOp34
 70
     1
102
RTVSPost2010Prop35
280
     0
102
RTVSPost2010PropOp35
 70
     1
102
RTVSPost2010Prop36
280
     0
102
RTVSPost2010PropOp36
 70
     1
102
RTVSPost2010Prop37
 90
       50
102
RTVSPost2010PropOp37
 70
     1
102
RTVSPost2010Prop38
140
0.0
102
RTVSPost2010PropOp38
 70
     1
102
RTVSPost2010Prop39
140
1.0
102
RTVSPost2010PropOp39
 70
     1
102
RTVSPost2010Prop40
 90
        0
102
RTVSPost2010PropOp40
 70
     1
102
RTVSPost2010Prop41ColorIndex
 90
       18
102
RTVSPost2010Prop41ColorRGB
 90
        0
102
RTVSPost2010PropOp41
 70
     1
102
RTVSPost2010Prop42
 90
       50
102
RTVSPost2010PropOp42
 70
     1
102
RTVSPost2010Prop43
 90
        3
102
RTVSPost2010PropOp43
 70
     1
102
RTVSPost2010Prop44ColorIndex
 90
        5
102
RTVSPost2010Prop44ColorRGB
 90
      255
102
RTVSPost2010PropOp44
 70
     1
102
RTVSPost2010Prop45
280
     0
102
RTVSPost2010PropOp45
 70
     1
102
RTVSPost2010Prop46
 90
       50
102
RTVSPost2010PropOp46
 70
     1
102
RTVSPost2010Prop47
 90
       50
102
RTVSPost2010PropOp47
 70
     1
102
RTVSPost2010Prop48
 90
       50
102
RTVSPost2010PropOp48
 70
     1
102
RTVSPost2010Prop49
280
     0
102
RTVSPost2010PropOp49
 70
     1
102
RTVSPost2010Prop50
 90
       50
102
RTVSPost2010PropOp50
 70
     1
102
RTVSPost2010Prop51ColorIndex
 90
      256
102
RTVSPost2010Prop51ColorRGB
 90
-16777216
102
RTVSPost2010PropOp51
 70
     0
102
RTVSPost2010Prop52
140
1.0
102
RTVSPost2010PropOp52
 70
     0
102
RTVSPost2010Prop53
 90
        2
102
RTVSPost2010PropOp53
 70
     1
102
RTVSPost2010Prop54
  1
strokes_ogs.tif
102
RTVSPost2010PropOp54
 70
     1
102
RTVSPost2010Prop55
280
     0
102
RTVSPost2010PropOp55
 70
     1
102
RTVSPost2010Prop56
140
1.0
102
RTVSPost2010PropOp56
 70
     1
102
RTVSPost2010Prop57
140
1.0
102
RTVSPost2010PropOp57
 70
     1
  0
XRECORD
  5
3E7
102
{ACAD_REACTORS
330
3E6
102
}
330
3E6
100
AcDbXrecord
280
     1
102
RTVSPost2010Prop28
280
     0
102
RTVSPost2010PropOp28
 70
     1
102
RTVSPost2010Prop29
280
     1
102
RTVSPost2010PropOp29
 70
     1
102
RTVSPost2010Prop30
280
     1
102
RTVSPost2010PropOp30
 70
     1
102
RTVSPost2010Prop31
280
     0
102
RTVSPost2010PropOp31
 70
     1
102
RTVSPost2010Prop32
280
     0
102
RTVSPost2010PropOp32
 70
     1
102
RTVSPost2010Prop33
280
     0
102
RTVSPost2010PropOp33
 70
     1
102
RTVSPost2010Prop34
280
     0
102
RTVSPost2010PropOp34
 70
     1
102
RTVSPost2010Prop35
280
     0
102
RTVSPost2010PropOp35
 70
     1
102
RTVSPost2010Prop36
280
     0
102
RTVSPost2010PropOp36
 70
     1
102
RTVSPost2010Prop37
 90
       50
102
RTVSPost2010PropOp37
 70
     1
102
RTVSPost2010Prop38
140
0.0
102
RTVSPost2010PropOp38
 70
     1
102
RTVSPost2010Prop39
140
1.0
102
RTVSPost2010PropOp39
 70
     1
102
RTVSPost2010Prop40
 90
        0
102
RTVSPost2010PropOp40
 70
     1
102
RTVSPost2010Prop41ColorIndex
 90
       18
102
RTVSPost2010Prop41ColorRGB
 90
        0
102
RTVSPost2010PropOp41
 70
     1
102
RTVSPost2010Prop42
 90
       50
102
RTVSPost2010PropOp42
 70
     1
102
RTVSPost2010Prop43
 90
        3
102
RTVSPost2010PropOp43
 70
     1
102
RTVSPost2010Prop44ColorIndex
 90
        5
102
RTVSPost2010Prop44ColorRGB
 90
      255
102
RTVSPost2010PropOp44
 70
     1
102
RTVSPost2010Prop45
280
     0
102
RTVSPost2010PropOp45
 70
     1
102
RTVSPost2010Prop46
 90
       50
102
RTVSPost2010PropOp46
 70
     1
102
RTVSPost2010Prop47
 90
       50
102
RTVSPost2010PropOp47
 70
     1
102
RTVSPost2010Prop48
 90
       50
102
RTVSPost2010PropOp48
 70
     1
102
RTVSPost2010Prop49
280
     0
102
RTVSPost2010PropOp49
 70
     1
102
RTVSPost2010Prop50
 90
       50
102
RTVSPost2010PropOp50
 70
     1
102
RTVSPost2010Prop51ColorIndex
 90
      256
102
RTVSPost2010Prop51ColorRGB
 90
-16777216
102
RTVSPost2010PropOp51
 70
     0
102
RTVSPost2010Prop52
140
1.0
102
RTVSPost2010PropOp52
 70
     0
102
RTVSPost2010Prop53
 90
        2
102
RTVSPost2010PropOp53
 70
     1
102
RTVSPost2010Prop54
  1
strokes_ogs.tif
102
RTVSPost2010PropOp54
 70
     1
102
RTVSPost2010Prop55
280
     0
102
RTVSPost2010PropOp55
 70
     1
102
RTVSPost2010Prop56
140
1.0
102
RTVSPost2010PropOp56
 70
     1
102
RTVSPost2010Prop57
140
1.0
102
RTVSPost2010PropOp57
 70
     1
  0
XRECORD
  5
3D7
102
{ACAD_REACTORS
330
3D6
102
}
330
3D6
100
AcDbXrecord
280
     1
102
RTVSPost2010Prop28
280
     0
102
RTVSPost2010PropOp28
 70
     1
102
RTVSPost2010Prop29
280
     1
102
RTVSPost2010PropOp29
 70
     1
102
RTVSPost2010Prop30
280
     1
102
RTVSPost2010PropOp30
 70
     1
102
RTVSPost2010Prop31
280
     0
102
RTVSPost2010PropOp31
 70
     1
102
RTVSPost2010Prop32
280
     0
102
RTVSPost2010PropOp32
 70
     1
102
RTVSPost2010Prop33
280
     0
102
RTVSPost2010PropOp33
 70
     1
102
RTVSPost2010Prop34
280
     0
102
RTVSPost2010PropOp34
 70
     1
102
RTVSPost2010Prop35
280
     0
102
RTVSPost2010PropOp35
 70
     1
102
RTVSPost2010Prop36
280
     0
102
RTVSPost2010PropOp36
 70
     1
102
RTVSPost2010Prop37
 90
       50
102
RTVSPost2010PropOp37
 70
     1
102
RTVSPost2010Prop38
140
0.0
102
RTVSPost2010PropOp38
 70
     1
102
RTVSPost2010Prop39
140
1.0
102
RTVSPost2010PropOp39
 70
     1
102
RTVSPost2010Prop40
 90
        0
102
RTVSPost2010PropOp40
 70
     1
102
RTVSPost2010Prop41ColorIndex
 90
       18
102
RTVSPost2010Prop41ColorRGB
 90
        0
102
RTVSPost2010PropOp41
 70
     1
102
RTVSPost2010Prop42
 90
       50
102
RTVSPost2010PropOp42
 70
     1
102
RTVSPost2010Prop43
 90
        3
102
RTVSPost2010PropOp43
 70
     1
102
RTVSPost2010Prop44ColorIndex
 90
        5
102
RTVSPost2010Prop44ColorRGB
 90
      255
102
RTVSPost2010PropOp44
 70
     1
102
RTVSPost2010Prop45
280
     0
102
RTVSPost2010PropOp45
 70
     1
102
RTVSPost2010Prop46
 90
       50
102
RTVSPost2010PropOp46
 70
     1
102
RTVSPost2010Prop47
 90
       50
102
RTVSPost2010PropOp47
 70
     1
102
RTVSPost2010Prop48
 90
       50
102
RTVSPost2010PropOp48
 70
     1
102
RTVSPost2010Prop49
280
     0
102
RTVSPost2010PropOp49
 70
     1
102
RTVSPost2010Prop50
 90
       50
102
RTVSPost2010PropOp50
 70
     1
102
RTVSPost2010Prop51ColorIndex
 90
      256
102
RTVSPost2010Prop51ColorRGB
 90
-16777216
102
RTVSPost2010PropOp51
 70
     0
102
RTVSPost2010Prop52
140
1.0
102
RTVSPost2010PropOp52
 70
     0
102
RTVSPost2010Prop53
 90
        2
102
RTVSPost2010PropOp53
 70
     1
102
RTVSPost2010Prop54
  1
strokes_ogs.tif
102
RTVSPost2010PropOp54
 70
     1
102
RTVSPost2010Prop55
280
     0
102
RTVSPost2010PropOp55
 70
     1
102
RTVSPost2010Prop56
140
1.0
102
RTVSPost2010PropOp56
 70
     1
102
RTVSPost2010Prop57
140
1.0
102
RTVSPost2010PropOp57
 70
     1
  0
XRECORD
  5
3C9
102
{ACAD_REACTORS
330
3C8
102
}
330
3C8
100
AcDbXrecord
280
     1
102
RTVSPost2010Prop28
280
     0
102
RTVSPost2010PropOp28
 70
     1
102
RTVSPost2010Prop29
280
     1
102
RTVSPost2010PropOp29
 70
     1
102
RTVSPost2010Prop30
280
     1
102
RTVSPost2010PropOp30
 70
     1
102
RTVSPost2010Prop31
280
     0
102
RTVSPost2010PropOp31
 70
     1
102
RTVSPost2010Prop32
280
     0
102
RTVSPost2010PropOp32
 70
     1
102
RTVSPost2010Prop33
280
     0
102
RTVSPost2010PropOp33
 70
     1
102
RTVSPost2010Prop34
280
     0
102
RTVSPost2010PropOp34
 70
     1
102
RTVSPost2010Prop35
280
     0
102
RTVSPost2010PropOp35
 70
     1
102
RTVSPost2010Prop36
280
     0
102
RTVSPost2010PropOp36
 70
     1
102
RTVSPost2010Prop37
 90
       50
102
RTVSPost2010PropOp37
 70
     1
102
RTVSPost2010Prop38
140
0.0
102
RTVSPost2010PropOp38
 70
     1
102
RTVSPost2010Prop39
140
1.0
102
RTVSPost2010PropOp39
 70
     1
102
RTVSPost2010Prop40
 90
        0
102
RTVSPost2010PropOp40
 70
     1
102
RTVSPost2010Prop41ColorIndex
 90
       18
102
RTVSPost2010Prop41ColorRGB
 90
        0
102
RTVSPost2010PropOp41
 70
     1
102
RTVSPost2010Prop42
 90
       50
102
RTVSPost2010PropOp42
 70
     1
102
RTVSPost2010Prop43
 90
        3
102
RTVSPost2010PropOp43
 70
     1
102
RTVSPost2010Prop44ColorIndex
 90
        5
102
RTVSPost2010Prop44ColorRGB
 90
      255
102
RTVSPost2010PropOp44
 70
     1
102
RTVSPost2010Prop45
280
     0
102
RTVSPost2010PropOp45
 70
     1
102
RTVSPost2010Prop46
 90
       50
102
RTVSPost2010PropOp46
 70
     1
102
RTVSPost2010Prop47
 90
       50
102
RTVSPost2010PropOp47
 70
     1
102
RTVSPost2010Prop48
 90
       50
102
RTVSPost2010PropOp48
 70
     1
102
RTVSPost2010Prop49
280
     0
102
RTVSPost2010PropOp49
 70
     1
102
RTVSPost2010Prop50
 90
       50
102
RTVSPost2010PropOp50
 70
     1
102
RTVSPost2010Prop51ColorIndex
 90
      256
102
RTVSPost2010Prop51ColorRGB
 90
-16777216
102
RTVSPost2010PropOp51
 70
     0
102
RTVSPost2010Prop52
140
1.0
102
RTVSPost2010PropOp52
 70
     0
102
RTVSPost2010Prop53
 90
        2
102
RTVSPost2010PropOp53
 70
     1
102
RTVSPost2010Prop54
  1
strokes_ogs.tif
102
RTVSPost2010PropOp54
 70
     1
102
RTVSPost2010Prop55
280
     0
102
RTVSPost2010PropOp55
 70
     1
102
RTVSPost2010Prop56
140
1.0
102
RTVSPost2010PropOp56
 70
     1
102
RTVSPost2010Prop57
140
1.0
102
RTVSPost2010PropOp57
 70
     1
  0
XRECORD
  5
3E9
102
{ACAD_REACTORS
330
3E8
102
}
330
3E8
100
AcDbXrecord
280
     1
102
RTVSPost2010Prop28
280
     0
102
RTVSPost2010PropOp28
 70
     1
102
RTVSPost2010Prop29
280
     1
102
RTVSPost2010PropOp29
 70
     1
102
RTVSPost2010Prop30
280
     1
102
RTVSPost2010PropOp30
 70
     1
102
RTVSPost2010Prop31
280
     0
102
RTVSPost2010PropOp31
 70
     1
102
RTVSPost2010Prop32
280
     0
102
RTVSPost2010PropOp32
 70
     1
102
RTVSPost2010Prop33
280
     0
102
RTVSPost2010PropOp33
 70
     1
102
RTVSPost2010Prop34
280
     0
102
RTVSPost2010PropOp34
 70
     1
102
RTVSPost2010Prop35
280
     0
102
RTVSPost2010PropOp35
 70
     1
102
RTVSPost2010Prop36
280
     0
102
RTVSPost2010PropOp36
 70
     1
102
RTVSPost2010Prop37
 90
       50
102
RTVSPost2010PropOp37
 70
     1
102
RTVSPost2010Prop38
140
0.0
102
RTVSPost2010PropOp38
 70
     1
102
RTVSPost2010Prop39
140
1.0
102
RTVSPost2010PropOp39
 70
     1
102
RTVSPost2010Prop40
 90
        0
102
RTVSPost2010PropOp40
 70
     1
102
RTVSPost2010Prop41ColorIndex
 90
       18
102
RTVSPost2010Prop41ColorRGB
 90
        0
102
RTVSPost2010PropOp41
 70
     1
102
RTVSPost2010Prop42
 90
       50
102
RTVSPost2010PropOp42
 70
     1
102
RTVSPost2010Prop43
 90
        3
102
RTVSPost2010PropOp43
 70
     1
102
RTVSPost2010Prop44ColorIndex
 90
        5
102
RTVSPost2010Prop44ColorRGB
 90
      255
102
RTVSPost2010PropOp44
 70
     1
102
RTVSPost2010Prop45
280
     0
102
RTVSPost2010PropOp45
 70
     1
102
RTVSPost2010Prop46
 90
       50
102
RTVSPost2010PropOp46
 70
     1
102
RTVSPost2010Prop47
 90
       50
102
RTVSPost2010PropOp47
 70
     1
102
RTVSPost2010Prop48
 90
       50
102
RTVSPost2010PropOp48
 70
     1
102
RTVSPost2010Prop49
280
     0
102
RTVSPost2010PropOp49
 70
     1
102
RTVSPost2010Prop50
 90
       50
102
RTVSPost2010PropOp50
 70
     1
102
RTVSPost2010Prop51ColorIndex
 90
      256
102
RTVSPost2010Prop51ColorRGB
 90
-16777216
102
RTVSPost2010PropOp51
 70
     0
102
RTVSPost2010Prop52
140
1.0
102
RTVSPost2010PropOp52
 70
     0
102
RTVSPost2010Prop53
 90
        2
102
RTVSPost2010PropOp53
 70
     1
102
RTVSPost2010Prop54
  1
strokes_ogs.tif
102
RTVSPost2010PropOp54
 70
     1
102
RTVSPost2010Prop55
280
     0
102
RTVSPost2010PropOp55
 70
     1
102
RTVSPost2010Prop56
140
1.0
102
RTVSPost2010PropOp56
 70
     1
102
RTVSPost2010Prop57
140
1.0
102
RTVSPost2010PropOp57
 70
     1
  0
ENDSEC
  0
EOF
