  0
SECTION
  2
HEADER
  9
$ACADVER
  1
AC1024
  9
$ACADMAINTVER
 70
     6
  9
$DWGCODEPAGE
  3
ANSI_1252
  9
$INSBASE
 10
0.0
 20
0.0
 30
0.0
  9
$EXTMIN
 10
-97.11
 20
-140.65
 30
0.0
  9
$EXTMAX
 10
97.11
 20
140.65
 30
0.0
  9
$LIMMIN
 10
0.0
 20
0.0
  9
$LIMMAX
 10
420.0
 20
297.0
  9
$ORTHOMODE
 70
     0
  9
$REGENMODE
 70
     1
  9
$FILLMODE
 70
     1
  9
$QTEXTMODE
 70
     0
  9
$MIRRTEXT
 70
     1
  9
$LTSCALE
 40
1.0
  9
$ATTMODE
 70
     1
  9
$TEXTSIZE
 40
1.0
  9
$TRACEWID
 40
1.0
  9
$TEXTSTYLE
  7
Standard
  9
$CLAYER
  8
0
  9
$CELTYPE
  6
ByLayer
  9
$CECOLOR
 62
   256
  9
$CELTSCALE
 40
1.0
  9
$DISPSILH
 70
     0
  9
$DIMSCALE
 40
1.0
  9
$DIMASZ
 40
2.5
  9
$DIMEXO
 40
0.625
  9
$DIMDLI
 40
3.75
  9
$DIMRND
 40
0.0
  9
$DIMDLE
 40
0.0
  9
$DIMEXE
 40
1.25
  9
$DIMTP
 40
0.0
  9
$DIMTM
 40
0.0
  9
$DIMTXT
 40
2.5
  9
$DIMCEN
 40
2.5
  9
$DIMTSZ
 40
0.0
  9
$DIMTOL
 70
     0
  9
$DIMLIM
 70
     0
  9
$DIMTIH
 70
     0
  9
$DIMTOH
 70
     0
  9
$DIMSE1
 70
     0
  9
$DIMSE2
 70
     0
  9
$DIMTAD
 70
     1
  9
$DIMZIN
 70
     8
  9
$DIMBLK
  1

  9
$DIMASO
 70
     1
  9
$DIMSHO
 70
     1
  9
$DIMPOST
  1

  9
$DIMAPOST
  1

  9
$DIMALT
 70
     0
  9
$DIMALTD
 70
     3
  9
$DIMALTF
 40
0.03937007874016
  9
$DIMLFAC
 40
1.0
  9
$DIMTOFL
 70
     1
  9
$DIMTVP
 40
0.0
  9
$DIMTIX
 70
     0
  9
$DIMSOXD
 70
     0
  9
$DIMSAH
 70
     0
  9
$DIMBLK1
  1

  9
$DIMBLK2
  1

  9
$DIMSTYLE
  2
ISO-25
  9
$DIMCLRD
 70
     0
  9
$DIMCLRE
 70
     0
  9
$DIMCLRT
 70
     0
  9
$DIMTFAC
 40
1.0
  9
$DIMGAP
 40
0.625
  9
$DIMJUST
 70
     0
  9
$DIMSD1
 70
     0
  9
$DIMSD2
 70
     0
  9
$DIMTOLJ
 70
     0
  9
$DIMTZIN
 70
     8
  9
$DIMALTZ
 70
     0
  9
$DIMALTTZ
 70
     0
  9
$DIMUPT
 70
     0
  9
$DIMDEC
 70
     2
  9
$DIMTDEC
 70
     2
  9
$DIMALTU
 70
     2
  9
$DIMALTTD
 70
     3
  9
$DIMTXSTY
  7
Standard
  9
$DIMAUNIT
 70
     0
  9
$DIMADEC
 70
     0
  9
$DIMALTRND
 40
0.0
  9
$DIMAZIN
 70
     0
  9
$DIMDSEP
 70
    44
  9
$DIMATFIT
 70
     3
  9
$DIMFRAC
 70
     0
  9
$DIMLDRBLK
  1

  9
$DIMLUNIT
 70
     2
  9
$DIMLWD
 70
    -2
  9
$DIMLWE
 70
    -2
  9
$DIMTMOVE
 70
     0
  9
$DIMFXL
 40
1.0
  9
$DIMFXLON
 70
     0
  9
$DIMJOGANG
 40
0.7853981633974483
  9
$DIMTFILL
 70
     0
  9
$DIMTFILLCLR
 70
     0
  9
$DIMARCSYM
 70
     0
  9
$DIMLTYPE
  6

  9
$DIMLTEX1
  6

  9
$DIMLTEX2
  6

  9
$DIMTXTDIRECTION
 70
     0
  9
$LUNITS
 70
     2
  9
$LUPREC
 70
     4
  9
$SKETCHINC
 40
1.0
  9
$FILLETRAD
 40
10.0
  9
$AUNITS
 70
     0
  9
$AUPREC
 70
     0
  9
$MENU
  1
.
  9
$ELEVATION
 40
0.0
  9
$PELEVATION
 40
0.0
  9
$THICKNESS
 40
0.0
  9
$LIMCHECK
 70
     0
  9
$CHAMFERA
 40
0.0
  9
$CHAMFERB
 40
0.0
  9
$CHAMFERC
 40
0.0
  9
$CHAMFERD
 40
0.0
  9
$SKPOLY
 70
     0
  9
$TDCREATE
 40
2458045.490790359
  9
$TDUCREATE
 40
2458045.449123692
  9
$TDUPDATE
 40
2458045.490791296
  9
$TDUUPDATE
 40
2458045.44912463
  9
$TDINDWG
 40
0.0000000116
  9
$TDUSRTIMER
 40
0.0000000116
  9
$USRTIMER
 70
     1
  9
$ANGBASE
 50
0.0
  9
$ANGDIR
 70
     0
  9
$PDMODE
 70
     0
  9
$PDSIZE
 40
0.0
  9
$PLINEWID
 40
0.0
  9
$SPLFRAME
 70
     0
  9
$SPLINETYPE
 70
     6
  9
$SPLINESEGS
 70
     8
  9
$HANDSEED
  5
4F0
  9
$SURFTAB1
 70
     6
  9
$SURFTAB2
 70
     6
  9
$SURFTYPE
 70
     6
  9
$SURFU
 70
     6
  9
$SURFV
 70
     6
  9
$UCSBASE
  2

  9
$UCSNAME
  2

  9
$UCSORG
 10
0.0
 20
0.0
 30
0.0
  9
$UCSXDIR
 10
1.0
 20
0.0
 30
0.0
  9
$UCSYDIR
 10
0.0
 20
1.0
 30
0.0
  9
$UCSORTHOREF
  2

  9
$UCSORTHOVIEW
 70
     0
  9
$UCSORGTOP
 10
0.0
 20
0.0
 30
0.0
  9
$UCSORGBOTTOM
 10
0.0
 20
0.0
 30
0.0
  9
$UCSORGLEFT
 10
0.0
 20
0.0
 30
0.0
  9
$UCSORGRIGHT
 10
0.0
 20
0.0
 30
0.0
  9
$UCSORGFRONT
 10
0.0
 20
0.0
 30
0.0
  9
$UCSORGBACK
 10
0.0
 20
0.0
 30
0.0
  9
$PUCSBASE
  2

  9
$PUCSNAME
  2

  9
$PUCSORG
 10
0.0
 20
0.0
 30
0.0
  9
$PUCSXDIR
 10
1.0
 20
0.0
 30
0.0
  9
$PUCSYDIR
 10
0.0
 20
1.0
 30
0.0
  9
$PUCSORTHOREF
  2

  9
$PUCSORTHOVIEW
 70
     0
  9
$PUCSORGTOP
 10
0.0
 20
0.0
 30
0.0
  9
$PUCSORGBOTTOM
 10
0.0
 20
0.0
 30
0.0
  9
$PUCSORGLEFT
 10
0.0
 20
0.0
 30
0.0
  9
$PUCSORGRIGHT
 10
0.0
 20
0.0
 30
0.0
  9
$PUCSORGFRONT
 10
0.0
 20
0.0
 30
0.0
  9
$PUCSORGBACK
 10
0.0
 20
0.0
 30
0.0
  9
$USERI1
 70
     0
  9
$USERI2
 70
     0
  9
$USERI3
 70
     0
  9
$USERI4
 70
     0
  9
$USERI5
 70
     0
  9
$USERR1
 40
0.0
  9
$USERR2
 40
0.0
  9
$USERR3
 40
0.0
  9
$USERR4
 40
0.0
  9
$USERR5
 40
0.0
  9
$WORLDVIEW
 70
     1
  9
$SHADEDGE
 70
     3
  9
$SHADEDIF
 70
    70
  9
$TILEMODE
 70
     1
  9
$MAXACTVP
 70
    64
  9
$PINSBASE
 10
0.0
 20
0.0
 30
0.0
  9
$PLIMCHECK
 70
     0
  9
$PEXTMIN
 10
1.000000000000000E+20
 20
1.000000000000000E+20
 30
1.000000000000000E+20
  9
$PEXTMAX
 10
-1.000000000000000E+20
 20
-1.000000000000000E+20
 30
-1.000000000000000E+20
  9
$PLIMMIN
 10
0.0
 20
0.0
  9
$PLIMMAX
 10
420.0
 20
297.0
  9
$UNITMODE
 70
     0
  9
$VISRETAIN
 70
     1
  9
$PLINEGEN
 70
     0
  9
$PSLTSCALE
 70
     1
  9
$TREEDEPTH
 70
  3020
  9
$CMLSTYLE
  2
Standard
  9
$CMLJUST
 70
     0
  9
$CMLSCALE
 40
20.0
  9
$PROXYGRAPHICS
 70
     1
  9
$MEASUREMENT
 70
     1
  9
$CELWEIGHT
370
    -1
  9
$ENDCAPS
280
     0
  9
$JOINSTYLE
280
     0
  9
$LWDISPLAY
290
     0
  9
$INSUNITS
 70
     4
  9
$HYPERLINKBASE
  1

  9
$STYLESHEET
  1

  9
$XEDIT
290
     1
  9
$CEPSNTYPE
380
     0
  9
$PSTYLEMODE
290
     1
  9
$FINGERPRINTGUID
  2
{09491F1A-3C23-471D-9AFC-07168BED1C8A}
  9
$VERSIONGUID
  2
{FAEB1C32-E019-11D5-929B-00C0DF256EC4}
  9
$EXTNAMES
290
     1
  9
$PSVPSCALE
 40
0.0
  9
$OLESTARTUP
290
     0
  9
$SORTENTS
280
   127
  9
$INDEXCTL
280
     0
  9
$HIDETEXT
280
     1
  9
$XCLIPFRAME
280
     2
  9
$HALOGAP
280
     0
  9
$OBSCOLOR
 70
   257
  9
$OBSLTYPE
280
     0
  9
$INTERSECTIONDISPLAY
280
     0
  9
$INTERSECTIONCOLOR
 70
   257
  9
$DIMASSOC
280
     2
  9
$PROJECTNAME
  1

  9
$CAMERADISPLAY
290
     0
  9
$LENSLENGTH
 40
50.0
  9
$CAMERAHEIGHT
 40
0.0
  9
$STEPSPERSEC
 40
2.0
  9
$STEPSIZE
 40
6.0
  9
$3DDWFPREC
 40
2.0
  9
$PSOLWIDTH
 40
5.0
  9
$PSOLHEIGHT
 40
80.0
  9
$LOFTANG1
 40
1.570796326794897
  9
$LOFTANG2
 40
1.570796326794897
  9
$LOFTMAG1
 40
0.0
  9
$LOFTMAG2
 40
0.0
  9
$LOFTPARAM
 70
     7
  9
$LOFTNORMALS
280
     1
  9
$LATITUDE
 40
37.795
  9
$LONGITUDE
 40
-122.394
  9
$NORTHDIRECTION
 40
0.0
  9
$TIMEZONE
 70
 -8000
  9
$LIGHTGLYPHDISPLAY
280
     1
  9
$TILEMODELIGHTSYNCH
280
     1
  9
$CMATERIAL
347
44
  9
$SOLIDHIST
280
     1
  9
$SHOWHIST
280
     1
  9
$DWFFRAME
280
     2
  9
$DGNFRAME
280
     2
  9
$REALWORLDSCALE
290
     1
  9
$INTERFERECOLOR
 62
   256
  9
$CSHADOW
280
     0
  9
$SHADOWPLANELOCATION
 40
0.0
  0
ENDSEC
  0
SECTION
  2
CLASSES
  0
CLASS
  1
ACDBDICTIONARYWDFLT
  2
AcDbDictionaryWithDefault
  3
ObjectDBX Classes
 90
        0
 91
        4
280
     0
281
     0
  0
CLASS
  1
VISUALSTYLE
  2
AcDbVisualStyle
  3
ObjectDBX Classes
 90
     4095
 91
        4
280
     0
281
     0
  0
CLASS
  1
MATERIAL
  2
AcDbMaterial
  3
ObjectDBX Classes
 90
     1153
 91
        4
280
     0
281
     0
  0
CLASS
  1
SCALE
  2
AcDbScale
  3
ObjectDBX Classes
 90
     1153
 91
        4
280
     0
281
     0
  0
CLASS
  1
SUN
  2
AcDbSun
  3
SCENEOE
 90
     1153
 91
        4
280
     0
281
     0
  0
CLASS
  1
DICTIONARYVAR
  2
AcDbDictionaryVar
  3
ObjectDBX Classes
 90
        0
 91
        4
280
     0
281
     0
  0
ENDSEC
  0
SECTION
  2
TABLES
  0
TABLE
  2
VPORT
  5
8
330
0
100
AcDbSymbolTable
 70
     1
  0
VPORT
  5
29
330
8
100
AcDbSymbolTableRecord
100
AcDbViewportTableRecord
  2
*Active
 70
     0
 10
0.0
 20
0.0
 11
1.0
 21
1.0
 12
344.1869158878504
 22
148.5
 13
0.0
 23
0.0
 14
10.0
 24
10.0
 15
10.0
 25
10.0
 16
0.0
 26
0.0
 36
1.0
 17
0.0
 27
0.0
 37
0.0
 40
297.0
 41
1.972972972850329
 42
50.0
 43
0.0
 44
0.0
 50
0.0
 51
0.0
 71
     0
 72
   100
 73
     1
 74
     3
 75
     0
 76
     0
 77
     0
 78
     0
281
     0
 65
     1
110
0.0
120
0.0
130
0.0
111
1.0
121
0.0
131
0.0
112
0.0
122
1.0
132
0.0
 79
     0
146
0.0
 60
     3
 61
     5
292
     1
282
     1
141
0.0
142
0.0
 63
   250
361
69
  0
ENDTAB
  0
TABLE
  2
LTYPE
  5
5
330
0
100
AcDbSymbolTable
 70
     9
  0
LTYPE
  5
14
330
5
100
AcDbSymbolTableRecord
100
AcDbLinetypeTableRecord
  2
ByBlock
 70
     0
  3

 72
    65
 73
     0
 40
0.0
  0
LTYPE
  5
15
330
5
100
AcDbSymbolTableRecord
100
AcDbLinetypeTableRecord
  2
ByLayer
 70
     0
  3

 72
    65
 73
     0
 40
0.0
  0
LTYPE
  5
16
330
5
100
AcDbSymbolTableRecord
100
AcDbLinetypeTableRecord
  2
Continuous
 70
     0
  3
Solid line
 72
    65
 73
     0
 40
0.0
  0
LTYPE
  5
6A
330
5
100
AcDbSymbolTableRecord
100
AcDbLinetypeTableRecord
  2
DOT
 70
     0
  3
____    ____    
 72
    65
 73
     4
 40
16.0
 49
4.0
 74
     0
 49
-4.0
 74
     0
 49
4.0
 74
     0
 49
-4.0
 74
     0
  0
LTYPE
  5
6B
330
5
100
AcDbSymbolTableRecord
100
AcDbLinetypeTableRecord
  2
HIDDEN
 70
     0
  3
__  __  __  __  
 72
    65
 73
     8
 40
16.0
 49
2.0
 74
     0
 49
-2.0
 74
     0
 49
2.0
 74
     0
 49
-2.0
 74
     0
 49
2.0
 74
     0
 49
-2.0
 74
     0
 49
2.0
 74
     0
 49
-2.0
 74
     0
  0
LTYPE
  5
6C
330
5
100
AcDbSymbolTableRecord
100
AcDbLinetypeTableRecord
  2
DASHED
 70
     0
  3
________        
 72
    65
 73
     2
 40
16.0
 49
8.0
 74
     0
 49
-8.0
 74
     0
  0
LTYPE
  5
6D
330
5
100
AcDbSymbolTableRecord
100
AcDbLinetypeTableRecord
  2
DASHDOT
 70
     0
  3
____________    
 72
    65
 73
     2
 40
16.0
 49
12.0
 74
     0
 49
-4.0
 74
     0
  0
LTYPE
  5
6E
330
5
100
AcDbSymbolTableRecord
100
AcDbLinetypeTableRecord
  2
BORDER
 70
     0
  3
_____________ _ 
 72
    65
 73
     4
 40
16.0
 49
13.0
 74
     0
 49
-1.0
 74
     0
 49
1.0
 74
     0
 49
-1.0
 74
     0
  0
LTYPE
  5
6F
330
5
100
AcDbSymbolTableRecord
100
AcDbLinetypeTableRecord
  2
CENTER
 70
     0
  3
_________  ___  
 72
    65
 73
     4
 40
16.0
 49
9.0
 74
     0
 49
-2.0
 74
     0
 49
3.0
 74
     0
 49
-2.0
 74
     0
  0
LTYPE
  5
70
330
5
100
AcDbSymbolTableRecord
100
AcDbLinetypeTableRecord
  2
PHANTOM
 70
     0
  3
_______   ___   
 72
    65
 73
     4
 40
16.0
 49
7.0
 74
     0
 49
-3.0
 74
     0
 49
3.0
 74
     0
 49
-3.0
 74
     0
  0
LTYPE
  5
71
330
5
100
AcDbSymbolTableRecord
100
AcDbLinetypeTableRecord
  2
DIVIDE
 70
     0
  3
_______  __ __  
 72
    65
 73
     6
 40
16.0
 49
7.0
 74
     0
 49
-2.0
 74
     0
 49
2.0
 74
     0
 49
-1.0
 74
     0
 49
2.0
 74
     0
 49
-2.0
 74
     0
  0
ENDTAB
  0
TABLE
  2
LAYER
  5
2
330
0
100
AcDbSymbolTable
 70
     4
  0
LAYER
  5
10
330
2
100
AcDbSymbolTableRecord
100
AcDbLayerTableRecord
  2
0
 70
     0
 62
     7
  6
Continuous
370
    -3
390
F
347
46
  0
LAYER
  5
73
330
2
100
AcDbSymbolTableRecord
100
AcDbLayerTableRecord
  2
1
 70
     0
 62
     7
420
 16777215
  6
Continuous
370
    -3
390
F
347
46
  0
LAYER
  5
1F3
330
2
100
AcDbSymbolTableRecord
100
AcDbLayerTableRecord
  2
DIMENSION
 70
     0
 62
     7
420
 16777215
  6
Continuous
370
    -3
390
F
347
46
  0
LAYER
  5
2E1
330
2
100
AcDbSymbolTableRecord
100
AcDbLayerTableRecord
  2
GEN_LAYER
 70
     0
 62
     7
420
 16777215
  6
Continuous
370
    -3
390
F
347
46
  0
ENDTAB
  0
TABLE
  2
STYLE
  5
3
330
0
100
AcDbSymbolTable
 70
     2
  0
STYLE
  5
11
330
3
100
AcDbSymbolTableRecord
100
AcDbTextStyleTableRecord
  2
Standard
 70
     0
 40
0.0
 41
1.0
 50
0.0
 71
     0
 42
1.0
  3
txt
  4

  0
STYLE
  5
72
330
3
100
AcDbSymbolTableRecord
100
AcDbTextStyleTableRecord
  2
ARIAL
 70
     0
 40
0.2
 41
1.0
 50
0.0
 71
     0
 42
1.0
  3
ARIAL.TTF
  4

  0
ENDTAB
  0
TABLE
  2
VIEW
  5
6
330
0
100
AcDbSymbolTable
 70
     0
  0
ENDTAB
  0
TABLE
  2
UCS
  5
7
330
0
100
AcDbSymbolTable
 70
     0
  0
ENDTAB
  0
TABLE
  2
APPID
  5
9
330
0
100
AcDbSymbolTable
 70
     1
  0
APPID
  5
12
330
9
100
AcDbSymbolTableRecord
100
AcDbRegAppTableRecord
  2
ACAD
 70
     0
  0
ENDTAB
  0
TABLE
  2
DIMSTYLE
  5
A
330
0
100
AcDbSymbolTable
 70
     1
100
AcDbDimStyleTable
  0
DIMSTYLE
105
27
330
A
100
AcDbSymbolTableRecord
100
AcDbDimStyleTableRecord
  2
ISO-25
 70
     0
 41
2.5
 42
0.625
 43
3.75
 44
1.25
 73
     0
 74
     0
 77
     1
 78
     8
140
2.5
141
2.5
143
0.03937007874016
147
0.625
171
     3
172
     1
178
     0
271
     2
272
     2
274
     3
278
    44
283
     0
284
     8
340
11
  0
ENDTAB
  0
TABLE
  2
BLOCK_RECORD
  5
1
330
0
100
AcDbSymbolTable
 70
    71
  0
BLOCK_RECORD
  5
1F
330
1
100
AcDbSymbolTableRecord
100
AcDbBlockTableRecord
  2
*Model_Space
340
22
 70
     0
280
     1
281
     0
  0
BLOCK_RECORD
  5
1B
330
1
100
AcDbSymbolTableRecord
100
AcDbBlockTableRecord
  2
*Paper_Space
340
1E
 70
     0
280
     1
281
     0
  0
BLOCK_RECORD
  5
23
330
1
100
AcDbSymbolTableRecord
100
AcDbBlockTableRecord
  2
*Paper_Space0
340
26
 70
     0
280
     1
281
     0
  0
BLOCK_RECORD
  5
74
330
1
100
AcDbSymbolTableRecord
100
AcDbBlockTableRecord
  2
GEN_BLOCK
340
0
102
{BLKREFS
331
77
102
}
 70
     0
280
     1
281
     0
  0
BLOCK_RECORD
  5
7A
330
1
100
AcDbSymbolTableRecord
100
AcDbBlockTableRecord
  2
GEN_BLOCK00000
340
0
102
{BLKREFS
331
7D
102
}
 70
     0
280
     1
281
     0
  0
BLOCK_RECORD
  5
80
330
1
100
AcDbSymbolTableRecord
100
AcDbBlockTableRecord
  2
GEN_BLOCK00001
340
0
102
{BLKREFS
331
83
102
}
 70
     0
280
     1
281
     0
  0
BLOCK_RECORD
  5
86
330
1
100
AcDbSymbolTableRecord
100
AcDbBlockTableRecord
  2
GEN_BLOCK00002
340
0
102
{BLKREFS
331
89
102
}
 70
     0
280
     1
281
     0
  0
BLOCK_RECORD
  5
8C
330
1
100
AcDbSymbolTableRecord
100
AcDbBlockTableRecord
  2
GEN_BLOCK00003
340
0
102
{BLKREFS
331
8F
102
}
 70
     0
280
     1
281
     0
  0
BLOCK_RECORD
  5
92
330
1
100
AcDbSymbolTableRecord
100
AcDbBlockTableRecord
  2
GEN_BLOCK00004
340
0
102
{BLKREFS
331
95
102
}
 70
     0
280
     1
281
     0
  0
BLOCK_RECORD
  5
98
330
1
100
AcDbSymbolTableRecord
100
AcDbBlockTableRecord
  2
GEN_BLOCK00005
340
0
102
{BLKREFS
331
9B
102
}
 70
     0
280
     1
281
     0
  0
BLOCK_RECORD
  5
9E
330
1
100
AcDbSymbolTableRecord
100
AcDbBlockTableRecord
  2
GEN_BLOCK00006
340
0
102
{BLKREFS
331
A1
102
}
 70
     0
280
     1
281
     0
  0
BLOCK_RECORD
  5
A4
330
1
100
AcDbSymbolTableRecord
100
AcDbBlockTableRecord
  2
GEN_BLOCK00007
340
0
102
{BLKREFS
331
A7
102
}
 70
     0
280
     1
281
     0
  0
BLOCK_RECORD
  5
AA
330
1
100
AcDbSymbolTableRecord
100
AcDbBlockTableRecord
  2
GEN_BLOCK00008
340
0
102
{BLKREFS
331
AD
102
}
 70
     0
280
     1
281
     0
  0
BLOCK_RECORD
  5
CE
330
1
100
AcDbSymbolTableRecord
100
AcDbBlockTableRecord
  2
GEN_BLOCK00009
340
0
102
{BLKREFS
331
D2
102
}
 70
     0
280
     1
281
     0
  0
BLOCK_RECORD
  5
12C
330
1
100
AcDbSymbolTableRecord
100
AcDbBlockTableRecord
  2
GEN_BLOCK00010
340
0
102
{BLKREFS
331
12F
102
}
 70
     0
280
     1
281
     0
  0
BLOCK_RECORD
  5
132
330
1
100
AcDbSymbolTableRecord
100
AcDbBlockTableRecord
  2
GEN_BLOCK00011
340
0
102
{BLKREFS
331
135
102
}
 70
     0
280
     1
281
     0
  0
BLOCK_RECORD
  5
138
330
1
100
AcDbSymbolTableRecord
100
AcDbBlockTableRecord
  2
GEN_BLOCK00012
340
0
102
{BLKREFS
331
13B
102
}
 70
     0
280
     1
281
     0
  0
BLOCK_RECORD
  5
13E
330
1
100
AcDbSymbolTableRecord
100
AcDbBlockTableRecord
  2
GEN_BLOCK00013
340
0
102
{BLKREFS
331
141
102
}
 70
     0
280
     1
281
     0
  0
BLOCK_RECORD
  5
144
330
1
100
AcDbSymbolTableRecord
100
AcDbBlockTableRecord
  2
GEN_BLOCK00014
340
0
102
{BLKREFS
331
147
102
}
 70
     0
280
     1
281
     0
  0
BLOCK_RECORD
  5
18B
330
1
100
AcDbSymbolTableRecord
100
AcDbBlockTableRecord
  2
GEN_BLOCK00015
340
0
102
{BLKREFS
331
18E
102
}
 70
     0
280
     1
281
     0
  0
BLOCK_RECORD
  5
191
330
1
100
AcDbSymbolTableRecord
100
AcDbBlockTableRecord
  2
GEN_BLOCK00016
340
0
102
{BLKREFS
331
194
102
}
 70
     0
280
     1
281
     0
  0
BLOCK_RECORD
  5
197
330
1
100
AcDbSymbolTableRecord
100
AcDbBlockTableRecord
  2
GEN_BLOCK00017
340
0
102
{BLKREFS
331
19A
102
}
 70
     0
280
     1
281
     0
  0
BLOCK_RECORD
  5
19D
330
1
100
AcDbSymbolTableRecord
100
AcDbBlockTableRecord
  2
GEN_BLOCK00018
340
0
102
{BLKREFS
331
1A0
102
}
 70
     0
280
     1
281
     0
  0
BLOCK_RECORD
  5
1A3
330
1
100
AcDbSymbolTableRecord
100
AcDbBlockTableRecord
  2
GEN_BLOCK00019
340
0
102
{BLKREFS
331
1A6
102
}
 70
     0
280
     1
281
     0
  0
BLOCK_RECORD
  5
1A9
330
1
100
AcDbSymbolTableRecord
100
AcDbBlockTableRecord
  2
GEN_BLOCK00020
340
0
102
{BLKREFS
331
1AC
102
}
 70
     0
280
     1
281
     0
  0
BLOCK_RECORD
  5
1AF
330
1
100
AcDbSymbolTableRecord
100
AcDbBlockTableRecord
  2
GEN_BLOCK00021
340
0
102
{BLKREFS
331
1B2
102
}
 70
     0
280
     1
281
     0
  0
BLOCK_RECORD
  5
1B5
330
1
100
AcDbSymbolTableRecord
100
AcDbBlockTableRecord
  2
GEN_BLOCK00022
340
0
102
{BLKREFS
331
1B8
102
}
 70
     0
280
     1
281
     0
  0
BLOCK_RECORD
  5
1BB
330
1
100
AcDbSymbolTableRecord
100
AcDbBlockTableRecord
  2
GEN_BLOCK00023
340
0
102
{BLKREFS
331
1BE
102
}
 70
     0
280
     1
281
     0
  0
BLOCK_RECORD
  5
1C1
330
1
100
AcDbSymbolTableRecord
100
AcDbBlockTableRecord
  2
GEN_BLOCK00024
340
0
102
{BLKREFS
331
1C4
102
}
 70
     0
280
     1
281
     0
  0
BLOCK_RECORD
  5
1C6
330
1
100
AcDbSymbolTableRecord
100
AcDbBlockTableRecord
  2
_RASTER_[X__IMAGES_LOGO_JPG]
340
0
102
{BLKREFS
331
1CB
102
}
 70
     0
280
     1
281
     0
  0
BLOCK_RECORD
  5
1CF
330
1
100
AcDbSymbolTableRecord
100
AcDbBlockTableRecord
  2
GEN_BLOCK00025
340
0
102
{BLKREFS
331
1D3
102
}
 70
     0
280
     1
281
     0
  0
BLOCK_RECORD
  5
1D8
330
1
100
AcDbSymbolTableRecord
100
AcDbBlockTableRecord
  2
GEN_BLOCK00026
340
0
102
{BLKREFS
331
1DB
102
}
 70
     0
280
     1
281
     0
  0
BLOCK_RECORD
  5
1DE
330
1
100
AcDbSymbolTableRecord
100
AcDbBlockTableRecord
  2
GEN_BLOCK00027
340
0
102
{BLKREFS
331
1E1
102
}
 70
     0
280
     1
281
     0
  0
BLOCK_RECORD
  5
1ED
330
1
100
AcDbSymbolTableRecord
100
AcDbBlockTableRecord
  2
GEN_BLOCK00028
340
0
102
{BLKREFS
331
1F0
102
}
 70
     0
280
     1
281
     0
  0
BLOCK_RECORD
  5
1F4
330
1
100
AcDbSymbolTableRecord
100
AcDbBlockTableRecord
  2
LOOSE
340
0
102
{BLKREFS
331
1F8
102
}
 70
     0
280
     1
281
     0
  0
BLOCK_RECORD
  5
264
330
1
100
AcDbSymbolTableRecord
100
AcDbBlockTableRecord
  2
GEN_BLOCK00029
340
0
102
{BLKREFS
331
267
102
}
 70
     0
280
     1
281
     0
  0
BLOCK_RECORD
  5
26A
330
1
100
AcDbSymbolTableRecord
100
AcDbBlockTableRecord
  2
GEN_BLOCK00030
340
0
102
{BLKREFS
331
26D
102
}
 70
     0
280
     1
281
     0
  0
BLOCK_RECORD
  5
270
330
1
100
AcDbSymbolTableRecord
100
AcDbBlockTableRecord
  2
GEN_BLOCK00031
340
0
102
{BLKREFS
331
273
102
}
 70
     0
280
     1
281
     0
  0
BLOCK_RECORD
  5
276
330
1
100
AcDbSymbolTableRecord
100
AcDbBlockTableRecord
  2
GEN_BLOCK00032
340
0
102
{BLKREFS
331
279
102
}
 70
     0
280
     1
281
     0
  0
BLOCK_RECORD
  5
27C
330
1
100
AcDbSymbolTableRecord
100
AcDbBlockTableRecord
  2
GEN_BLOCK00033
340
0
102
{BLKREFS
331
27F
102
}
 70
     0
280
     1
281
     0
  0
BLOCK_RECORD
  5
282
330
1
100
AcDbSymbolTableRecord
100
AcDbBlockTableRecord
  2
GEN_BLOCK00034
340
0
102
{BLKREFS
331
285
102
}
 70
     0
280
     1
281
     0
  0
BLOCK_RECORD
  5
288
330
1
100
AcDbSymbolTableRecord
100
AcDbBlockTableRecord
  2
GEN_BLOCK00035
340
0
102
{BLKREFS
331
28B
102
}
 70
     0
280
     1
281
     0
  0
BLOCK_RECORD
  5
28E
330
1
100
AcDbSymbolTableRecord
100
AcDbBlockTableRecord
  2
GEN_BLOCK00036
340
0
102
{BLKREFS
331
291
102
}
 70
     0
280
     1
281
     0
  0
BLOCK_RECORD
  5
299
330
1
100
AcDbSymbolTableRecord
100
AcDbBlockTableRecord
  2
GEN_BLOCK00037
340
0
102
{BLKREFS
331
29C
102
}
 70
     0
280
     1
281
     0
  0
BLOCK_RECORD
  5
29F
330
1
100
AcDbSymbolTableRecord
100
AcDbBlockTableRecord
  2
GEN_BLOCK00038
340
0
102
{BLKREFS
331
2A2
102
}
 70
     0
280
     1
281
     0
  0
BLOCK_RECORD
  5
2A5
330
1
100
AcDbSymbolTableRecord
100
AcDbBlockTableRecord
  2
GEN_BLOCK00039
340
0
102
{BLKREFS
331
2A8
102
}
 70
     0
280
     1
281
     0
  0
BLOCK_RECORD
  5
2AB
330
1
100
AcDbSymbolTableRecord
100
AcDbBlockTableRecord
  2
GEN_BLOCK00040
340
0
102
{BLKREFS
331
2AE
102
}
 70
     0
280
     1
281
     0
  0
BLOCK_RECORD
  5
2B1
330
1
100
AcDbSymbolTableRecord
100
AcDbBlockTableRecord
  2
GEN_BLOCK00041
340
0
102
{BLKREFS
331
2B4
102
}
 70
     0
280
     1
281
     0
  0
BLOCK_RECORD
  5
2B7
330
1
100
AcDbSymbolTableRecord
100
AcDbBlockTableRecord
  2
GEN_BLOCK00042
340
0
102
{BLKREFS
331
2BA
102
}
 70
     0
280
     1
281
     0
  0
BLOCK_RECORD
  5
2BD
330
1
100
AcDbSymbolTableRecord
100
AcDbBlockTableRecord
  2
GEN_BLOCK00043
340
0
102
{BLKREFS
331
2C0
102
}
 70
     0
280
     1
281
     0
  0
BLOCK_RECORD
  5
2C3
330
1
100
AcDbSymbolTableRecord
100
AcDbBlockTableRecord
  2
GEN_BLOCK00044
340
0
102
{BLKREFS
331
2C6
102
}
 70
     0
280
     1
281
     0
  0
BLOCK_RECORD
  5
2C9
330
1
100
AcDbSymbolTableRecord
100
AcDbBlockTableRecord
  2
GEN_BLOCK00045
340
0
102
{BLKREFS
331
2CC
102
}
 70
     0
280
     1
281
     0
  0
BLOCK_RECORD
  5
2CF
330
1
100
AcDbSymbolTableRecord
100
AcDbBlockTableRecord
  2
GEN_BLOCK00046
340
0
102
{BLKREFS
331
2D2
102
}
 70
     0
280
     1
281
     0
  0
BLOCK_RECORD
  5
2D5
330
1
100
AcDbSymbolTableRecord
100
AcDbBlockTableRecord
  2
GEN_BLOCK00047
340
0
102
{BLKREFS
331
2D8
102
}
 70
     0
280
     1
281
     0
  0
BLOCK_RECORD
  5
2DB
330
1
100
AcDbSymbolTableRecord
100
AcDbBlockTableRecord
  2
GEN_BLOCK00048
340
0
102
{BLKREFS
331
2DE
102
}
 70
     0
280
     1
281
     0
  0
BLOCK_RECORD
  5
2E2
330
1
100
AcDbSymbolTableRecord
100
AcDbBlockTableRecord
  2
GEN_BLOCK00049
340
0
102
{BLKREFS
331
2E5
102
}
 70
     0
280
     1
281
     0
  0
BLOCK_RECORD
  5
34F
330
1
100
AcDbSymbolTableRecord
100
AcDbBlockTableRecord
  2
GEN_BLOCK00050
340
0
102
{BLKREFS
331
352
102
}
 70
     0
280
     1
281
     0
  0
BLOCK_RECORD
  5
355
330
1
100
AcDbSymbolTableRecord
100
AcDbBlockTableRecord
  2
GEN_BLOCK00051
340
0
102
{BLKREFS
331
358
102
}
 70
     0
280
     1
281
     0
  0
BLOCK_RECORD
  5
35B
330
1
100
AcDbSymbolTableRecord
100
AcDbBlockTableRecord
  2
GEN_BLOCK00052
340
0
102
{BLKREFS
331
35E
102
}
 70
     0
280
     1
281
     0
  0
BLOCK_RECORD
  5
383
330
1
100
AcDbSymbolTableRecord
100
AcDbBlockTableRecord
  2
GEN_BLOCK00053
340
0
102
{BLKREFS
331
386
102
}
 70
     0
280
     1
281
     0
  0
BLOCK_RECORD
  5
389
330
1
100
AcDbSymbolTableRecord
100
AcDbBlockTableRecord
  2
GEN_BLOCK00054
340
0
102
{BLKREFS
331
38C
102
}
 70
     0
280
     1
281
     0
  0
BLOCK_RECORD
  5
38F
330
1
100
AcDbSymbolTableRecord
100
AcDbBlockTableRecord
  2
GEN_BLOCK00055
340
0
102
{BLKREFS
331
392
102
}
 70
     0
280
     1
281
     0
  0
BLOCK_RECORD
  5
395
330
1
100
AcDbSymbolTableRecord
100
AcDbBlockTableRecord
  2
GEN_BLOCK00056
340
0
102
{BLKREFS
331
398
102
}
 70
     0
280
     1
281
     0
  0
BLOCK_RECORD
  5
39B
330
1
100
AcDbSymbolTableRecord
100
AcDbBlockTableRecord
  2
GEN_BLOCK00057
340
0
102
{BLKREFS
331
39E
102
}
 70
     0
280
     1
281
     0
  0
BLOCK_RECORD
  5
3A1
330
1
100
AcDbSymbolTableRecord
100
AcDbBlockTableRecord
  2
GEN_BLOCK00058
340
0
102
{BLKREFS
331
3A4
102
}
 70
     0
280
     1
281
     0
  0
BLOCK_RECORD
  5
3A7
330
1
100
AcDbSymbolTableRecord
100
AcDbBlockTableRecord
  2
GEN_BLOCK00059
340
0
102
{BLKREFS
331
3AA
102
}
 70
     0
280
     1
281
     0
  0
BLOCK_RECORD
  5
3AD
330
1
100
AcDbSymbolTableRecord
100
AcDbBlockTableRecord
  2
GEN_BLOCK00060
340
0
102
{BLKREFS
331
3B0
102
}
 70
     0
280
     1
281
     0
  0
BLOCK_RECORD
  5
3B3
330
1
100
AcDbSymbolTableRecord
100
AcDbBlockTableRecord
  2
GEN_BLOCK00061
340
0
102
{BLKREFS
331
3B6
102
}
 70
     0
280
     1
281
     0
  0
BLOCK_RECORD
  5
3B9
330
1
100
AcDbSymbolTableRecord
100
AcDbBlockTableRecord
  2
GEN_BLOCK00062
340
0
102
{BLKREFS
331
3BC
102
}
 70
     0
280
     1
281
     0
  0
BLOCK_RECORD
  5
3BF
330
1
100
AcDbSymbolTableRecord
100
AcDbBlockTableRecord
  2
LOOSE00063
340
0
102
{BLKREFS
331
3C3
102
}
 70
     0
280
     1
281
     0
  0
BLOCK_RECORD
  5
450
330
1
100
AcDbSymbolTableRecord
100
AcDbBlockTableRecord
  2
GEN_BLOCK00064
340
0
102
{BLKREFS
331
453
102
}
 70
     0
280
     1
281
     0
  0
BLOCK_RECORD
  5
456
330
1
100
AcDbSymbolTableRecord
100
AcDbBlockTableRecord
  2
GEN_BLOCK00065
340
0
102
{BLKREFS
331
459
102
}
 70
     0
280
     1
281
     0
  0
BLOCK_RECORD
  5
45C
330
1
100
AcDbSymbolTableRecord
100
AcDbBlockTableRecord
  2
GEN_BLOCK00066
340
0
102
{BLKREFS
331
460
102
}
 70
     0
280
     1
281
     0
  0
ENDTAB
  0
ENDSEC
  0
SECTION
  2
BLOCKS
  0
BLOCK
  5
20
330
1F
100
AcDbEntity
  8
0
100
AcDbBlockBegin
  2
*Model_Space
 70
     0
 10
0.0
 20
0.0
 30
0.0
  3
*Model_Space
  1
*Model_Space
  0
ENDBLK
  5
21
330
1F
100
AcDbEntity
  8
0
100
AcDbBlockEnd
  0
BLOCK
  5
1C
330
1B
100
AcDbEntity
 67
     1
  8
0
100
AcDbBlockBegin
  2
*Paper_Space
 70
     0
 10
0.0
 20
0.0
 30
0.0
  3
*Paper_Space
  1
*Paper_Space
  0
ENDBLK
  5
1D
330
1B
100
AcDbEntity
 67
     1
  8
0
100
AcDbBlockEnd
  0
BLOCK
  5
24
330
23
100
AcDbEntity
  8
0
100
AcDbBlockBegin
  2
*Paper_Space0
 70
     0
 10
0.0
 20
0.0
 30
0.0
  3
*Paper_Space0
  1
*Paper_Space0
  0
ENDBLK
  5
25
330
23
100
AcDbEntity
  8
0
100
AcDbBlockEnd
  0
BLOCK
  5
75
330
74
100
AcDbEntity
  8
0
100
AcDbBlockBegin
  2
GEN_BLOCK
 70
     0
 10
0.0
 20
0.0
 30
0.0
  3
GEN_BLOCK
  1
GEN_BLOCK
  0
LINE
  5
78
330
74
100
AcDbEntity
  8
1
  6
Continuous
 62
     4
100
AcDbLine
 10
-0.0000010232917518
 20
0.307565401387933
 30
0.0
 11
0.3389325901834965
 21
0.3624674674105535
 31
0.0
  0
LINE
  5
79
330
74
100
AcDbEntity
  8
1
  6
Continuous
 62
     4
100
AcDbLine
 10
0.3389325901834965
 20
0.3624674674105464
 30
0.0
 11
0.3976468003316924
 21
-0.0000001198686022
 31
0.0
  0
ENDBLK
  5
76
330
74
100
AcDbEntity
  8
0
100
AcDbBlockEnd
  0
BLOCK
  5
7B
330
7A
100
AcDbEntity
  8
0
100
AcDbBlockBegin
  2
GEN_BLOCK00000
 70
     0
 10
0.0
 20
0.0
 30
0.0
  3
GEN_BLOCK00000
  1
GEN_BLOCK00000
  0
LINE
  5
7E
330
7A
100
AcDbEntity
  8
1
  6
Continuous
 62
     4
100
AcDbLine
 10
-0.00000045966447
 20
0.2645648124346565
 30
0.0
 11
0.3313902250766958
 21
0.3544004694073806
 31
0.0
  0
LINE
  5
7F
330
7A
100
AcDbEntity
  8
1
  6
Continuous
 62
     4
100
AcDbLine
 10
0.3313902250766958
 20
0.3544004694073735
 30
0.0
 11
0.4274636522610962
 21
-0.0000004432471314
 31
0.0
  0
ENDBLK
  5
7C
330
7A
100
AcDbEntity
  8
0
100
AcDbBlockEnd
  0
BLOCK
  5
81
330
80
100
AcDbEntity
  8
0
100
AcDbBlockBegin
  2
GEN_BLOCK00001
 70
     0
 10
0.0
 20
0.0
 30
0.0
  3
GEN_BLOCK00001
  1
GEN_BLOCK00001
  0
LINE
  5
84
330
80
100
AcDbEntity
  8
1
  6
Continuous
 62
     4
100
AcDbLine
 10
-0.0000001615094192
 20
0.2589783350423716
 30
0.0
 11
0.3301931051608165
 21
0.353119919066522
 31
0.0
  0
LINE
  5
85
330
80
100
AcDbEntity
  8
1
  6
Continuous
 62
     4
100
AcDbLine
 10
0.3301931051608165
 20
0.3531199190665149
 30
0.0
 11
0.4308714429450475
 21
-0.000000432375181
 31
0.0
  0
ENDBLK
  5
82
330
80
100
AcDbEntity
  8
0
100
AcDbBlockEnd
  0
BLOCK
  5
87
330
86
100
AcDbEntity
  8
0
100
AcDbBlockBegin
  2
GEN_BLOCK00002
 70
     0
 10
0.0
 20
0.0
 30
0.0
  3
GEN_BLOCK00002
  1
GEN_BLOCK00002
  0
LINE
  5
8A
330
86
100
AcDbEntity
  8
1
  6
Continuous
 62
     4
100
AcDbLine
 10
0.0000008076271456
 20
0.275603194638343
 30
0.0
 11
0.3336176868671288
 21
0.3567820655538441
 31
0.0
  0
LINE
  5
8B
330
86
100
AcDbEntity
  8
1
  6
Continuous
 62
     4
100
AcDbLine
 10
0.3336176868671288
 20
0.356782065553837
 30
0.0
 11
0.4204332410315459
 21
0.000000381808114
 31
0.0
  0
ENDBLK
  5
88
330
86
100
AcDbEntity
  8
0
100
AcDbBlockEnd
  0
BLOCK
  5
8D
330
8C
100
AcDbEntity
  8
0
100
AcDbBlockBegin
  2
GEN_BLOCK00003
 70
     0
 10
0.0
 20
0.0
 30
0.0
  3
GEN_BLOCK00003
  1
GEN_BLOCK00003
  0
LINE
  5
90
330
8C
100
AcDbEntity
  8
1
  6
Continuous
 62
     4
100
AcDbLine
 10
-0.0000000972806333
 20
0.1267222056066259
 30
0.0
 11
0.2901537928321716
 21
0.3103003939878803
 31
0.0
  0
LINE
  5
91
330
8C
100
AcDbEntity
  8
1
  6
Continuous
 62
     4
100
AcDbLine
 10
0.2901537928321787
 20
0.3103003939878732
 30
0.0
 11
0.48647879682742
 21
-0.0000004328038017
 31
0.0
  0
ENDBLK
  5
8E
330
8C
100
AcDbEntity
  8
0
100
AcDbBlockEnd
  0
BLOCK
  5
93
330
92
100
AcDbEntity
  8
0
100
AcDbBlockBegin
  2
GEN_BLOCK00004
 70
     0
 10
0.0
 20
0.0
 30
0.0
  3
GEN_BLOCK00004
  1
GEN_BLOCK00004
  0
LINE
  5
96
330
92
100
AcDbEntity
  8
1
  6
Continuous
 62
     4
100
AcDbLine
 10
-0.0000001276964596
 20
0.1948447770776411
 30
0.0
 11
0.3133804321376417
 21
0.3351403789866438
 31
0.0
  0
LINE
  5
97
330
92
100
AcDbEntity
  8
1
  6
Continuous
 62
     4
100
AcDbLine
 10
0.3133804321376488
 20
0.3351403789866367
 30
0.0
 11
0.463417508155068
 21
0.000000130551058
 31
0.0
  0
ENDBLK
  5
94
330
92
100
AcDbEntity
  8
0
100
AcDbBlockEnd
  0
BLOCK
  5
99
330
98
100
AcDbEntity
  8
0
100
AcDbBlockBegin
  2
GEN_BLOCK00005
 70
     0
 10
0.0
 20
0.0
 30
0.0
  3
GEN_BLOCK00005
  1
GEN_BLOCK00005
  0
LINE
  5
9C
330
98
100
AcDbEntity
  8
1
  6
Continuous
 62
     4
100
AcDbLine
 10
0.0000012233127364
 20
0.3278430295432671
 30
0.0
 11
0.3413328285744939
 21
0.3650312863775227
 31
0.0
  0
LINE
  5
9D
330
98
100
AcDbEntity
  8
1
  6
Continuous
 62
     4
100
AcDbLine
 10
0.3413328285744939
 20
0.3650312863775156
 30
0.0
 11
0.3811032650078445
 21
-0.0000007980852033
 31
0.0
  0
ENDBLK
  5
9A
330
98
100
AcDbEntity
  8
0
100
AcDbBlockEnd
  0
BLOCK
  5
9F
330
9E
100
AcDbEntity
  8
0
100
AcDbBlockBegin
  2
GEN_BLOCK00006
 70
     0
 10
0.0
 20
0.0
 30
0.0
  3
GEN_BLOCK00006
  1
GEN_BLOCK00006
  0
LINE
  5
A2
330
9E
100
AcDbEntity
  8
1
  6
Continuous
 62
     4
100
AcDbLine
 10
-0.0000006410321269
 20
0.0560065750755712
 30
0.0
 11
0.2609879969433209
 21
0.2791100534094184
 31
0.0
  0
LINE
  5
A3
330
9E
100
AcDbEntity
  8
1
  6
Continuous
 62
     4
100
AcDbLine
 10
0.260987996943328
 20
0.2791100534094184
 30
0.0
 11
0.4995827432008539
 21
-0.0000004217785374
 31
0.0
  0
ENDBLK
  5
A0
330
9E
100
AcDbEntity
  8
0
100
AcDbBlockEnd
  0
BLOCK
  5
A5
330
A4
100
AcDbEntity
  8
0
100
AcDbBlockBegin
  2
GEN_BLOCK00007
 70
     0
 10
0.0
 20
0.0
 30
0.0
  3
GEN_BLOCK00007
  1
GEN_BLOCK00007
  0
LINE
  5
A8
330
A4
100
AcDbEntity
  8
1
  6
Continuous
 62
     4
100
AcDbLine
 10
0.0000016668597382
 20
0.139342678992783
 30
0.0
 11
0.2948359122729727
 21
0.3153057402543595
 31
0.0
  0
LINE
  5
A9
330
A4
100
AcDbEntity
  8
1
  6
Continuous
 62
     4
100
AcDbLine
 10
0.2948359122729798
 20
0.3153057402543524
 30
0.0
 11
0.4830170301378587
 21
-0.0000004239423745
 31
0.0
  0
ENDBLK
  5
A6
330
A4
100
AcDbEntity
  8
0
100
AcDbBlockEnd
  0
BLOCK
  5
AB
330
AA
100
AcDbEntity
  8
0
100
AcDbBlockBegin
  2
GEN_BLOCK00008
 70
     0
 10
0.0
 20
0.0
 30
0.0
  3
GEN_BLOCK00008
  1
GEN_BLOCK00008
  0
ARC
  5
AE
330
AA
100
AcDbEntity
  8
1
  6
Continuous
 62
     4
100
AcDbCircle
 10
25.94492025714476
 20
1.055079492480118
 30
0.0
 40
1.055080196068327
100
AcDbArc
 50
270.0
 51
46.05471037677459
  0
ARC
  5
AF
330
AA
100
AcDbEntity
  8
1
  6
Continuous
 62
     4
100
AcDbCircle
 10
25.94492025714476
 20
1.055079492480118
 30
0.0
 40
1.055080196068327
100
AcDbArc
 50
270.0
 51
46.05471037677459
  0
LINE
  5
B0
330
AA
100
AcDbEntity
  8
1
  6
Continuous
 62
     4
100
AcDbLine
 10
25.94492025714476
 20
-0.0000007035882064
 30
0.0
 11
0.2500004532130866
 21
-0.0000007035882064
 31
0.0
  0
LINE
  5
B1
330
AA
100
AcDbEntity
  8
1
  6
Continuous
 62
     4
100
AcDbLine
 10
0.0000004532130866
 20
0.2499992964117936
 30
0.0
 11
0.0000004532130866
 21
1.922649027222171
 31
0.0
  0
LINE
  5
B2
330
AA
100
AcDbEntity
  8
1
  6
Continuous
 62
     4
100
AcDbLine
 10
0.0000004532130866
 20
1.922649027222171
 30
0.0
 11
0.6250004532130866
 21
2.283492945465689
 31
0.0
  0
LINE
  5
B3
330
AA
100
AcDbEntity
  8
1
  6
Continuous
 62
     4
100
AcDbLine
 10
1.000000453213087
 20
2.066986594519577
 30
0.0
 11
1.000000453213087
 21
1.249999296411794
 31
0.0
  0
LINE
  5
B4
330
AA
100
AcDbEntity
  8
1
  6
Continuous
 62
     4
100
AcDbLine
 10
1.250000453213087
 20
0.9999992964117936
 30
0.0
 11
22.71108881265758
 21
0.9999992964117936
 31
0.0
  0
ARC
  5
B5
330
AA
100
AcDbEntity
  8
1
  6
Continuous
 62
     4
100
AcDbCircle
 10
22.71108881265758
 20
1.999999296411794
 30
0.0
 40
1.0
100
AcDbArc
 50
270.0
 51
50.61892761359804
  0
ARC
  5
B6
330
AA
100
AcDbEntity
  8
1
  6
Continuous
 62
     4
100
AcDbCircle
 10
22.71108881265758
 20
1.999999296411794
 30
0.0
 40
1.0
100
AcDbArc
 50
270.0
 51
50.61892761359804
  0
ARC
  5
B7
330
AA
100
AcDbEntity
  8
1
  6
Continuous
 62
     4
100
AcDbCircle
 10
-1.081731437570244
 20
-26.98537122977519
 30
0.0
 40
38.5
100
AcDbArc
 50
50.61892761359807
 51
84.56356643752977
  0
ARC
  5
B8
330
AA
100
AcDbEntity
  8
1
  6
Continuous
 62
     4
100
AcDbCircle
 10
-1.081731437570244
 20
-26.98537122977519
 30
0.0
 40
38.5
100
AcDbArc
 50
50.61892761359807
 51
84.56356643752977
  0
LINE
  5
B9
330
AA
100
AcDbEntity
  8
1
  6
Continuous
 62
     4
100
AcDbLine
 10
2.325619146947727
 20
11.21757725634062
 30
0.0
 11
2.272169236861792
 21
11.12499929641179
 31
0.0
  0
LINE
  5
BA
330
AA
100
AcDbEntity
  8
1
  6
Continuous
 62
     4
100
AcDbLine
 10
2.05566288591568
 20
10.99999929641179
 30
0.0
 11
1.180190258227118
 21
10.9999992964118
 31
0.0
  0
LINE
  5
BB
330
AA
100
AcDbEntity
  8
1
  6
Continuous
 62
     4
100
AcDbLine
 10
0.9430194337144897
 20
10.82905623791601
 30
0.0
 11
0.6000004532130809
 21
9.79999929641179
 31
0.0
  0
ARC
  5
BC
330
AA
100
AcDbEntity
  8
1
  6
Continuous
 62
     4
100
AcDbCircle
 10
0.3000004532130838
 20
9.79999929641179
 30
0.0
 40
0.2999999999999978
100
AcDbArc
 50
180.0
 51
0.0
  0
ARC
  5
BD
330
AA
100
AcDbEntity
  8
1
  6
Continuous
 62
     4
100
AcDbCircle
 10
0.3000004532130838
 20
9.79999929641179
 30
0.0
 40
0.2999999999999978
100
AcDbArc
 50
180.0
 51
0.0
  0
LINE
  5
BE
330
AA
100
AcDbEntity
  8
1
  6
Continuous
 62
     4
100
AcDbLine
 10
0.0000004532130866
 20
9.79999929641179
 30
0.0
 11
0.0000004532130866
 21
12.74990725316064
 31
0.0
  0
LINE
  5
BF
330
AA
100
AcDbEntity
  8
1
  6
Continuous
 62
     4
100
AcDbLine
 10
0.0000004532130866
 20
12.74990725316064
 30
0.0
 11
0.2427866052038254
 21
12.99269340515138
 31
0.0
  0
LINE
  5
C0
330
AA
100
AcDbEntity
  8
1
  6
Continuous
 62
     4
100
AcDbLine
 10
0.2427866052038326
 20
12.99269340515137
 30
0.0
 11
0.5024306984366191
 21
12.73304931191858
 31
0.0
  0
LINE
  5
C1
330
AA
100
AcDbEntity
  8
1
  6
Continuous
 62
     4
100
AcDbLine
 10
26.5348536776963
 20
1.951183965535108
 30
0.0
 11
26.67711549885255
 21
1.814740172097046
 31
0.0
  0
ARC
  5
C2
330
AA
100
AcDbEntity
  8
1
  6
Continuous
 62
     4
100
AcDbCircle
 10
1.250000453213087
 20
1.249999296411794
 30
0.0
 40
0.25
100
AcDbArc
 50
180.0
 51
270.0
  0
ARC
  5
C3
330
AA
100
AcDbEntity
  8
1
  6
Continuous
 62
     4
100
AcDbCircle
 10
1.250000453213087
 20
1.249999296411794
 30
0.0
 40
0.25
100
AcDbArc
 50
180.0
 51
270.0
  0
ARC
  5
C4
330
AA
100
AcDbEntity
  8
1
  6
Continuous
 62
     4
100
AcDbCircle
 10
0.7500004532130866
 20
2.066986594519577
 30
0.0
 40
0.25
100
AcDbArc
 50
0.0
 51
120.0
  0
ARC
  5
C5
330
AA
100
AcDbEntity
  8
1
  6
Continuous
 62
     4
100
AcDbCircle
 10
0.7500004532130866
 20
2.066986594519577
 30
0.0
 40
0.25
100
AcDbArc
 50
0.0
 51
120.0
  0
ARC
  5
C6
330
AA
100
AcDbEntity
  8
1
  6
Continuous
 62
     4
100
AcDbCircle
 10
0.2500004532130866
 20
0.2499992964117936
 30
0.0
 40
0.25
100
AcDbArc
 50
180.0
 51
270.0
  0
ARC
  5
C7
330
AA
100
AcDbEntity
  8
1
  6
Continuous
 62
     4
100
AcDbCircle
 10
0.2500004532130866
 20
0.2499992964117936
 30
0.0
 40
0.25
100
AcDbArc
 50
180.0
 51
270.0
  0
ARC
  5
C8
330
AA
100
AcDbEntity
  8
1
  6
Continuous
 62
     4
100
AcDbCircle
 10
1.180190258227118
 20
10.7499992964118
 30
0.0
 40
0.25
100
AcDbArc
 50
90.0
 51
161.5650511770777
  0
ARC
  5
C9
330
AA
100
AcDbEntity
  8
1
  6
Continuous
 62
     4
100
AcDbCircle
 10
1.180190258227118
 20
10.7499992964118
 30
0.0
 40
0.25
100
AcDbArc
 50
90.0
 51
161.5650511770777
  0
ARC
  5
CA
330
AA
100
AcDbEntity
  8
1
  6
Continuous
 62
     4
100
AcDbCircle
 10
2.05566288591568
 20
11.24999929641179
 30
0.0
 40
0.25
100
AcDbArc
 50
270.0
 51
329.9999999999991
  0
ARC
  5
CB
330
AA
100
AcDbEntity
  8
1
  6
Continuous
 62
     4
100
AcDbCircle
 10
2.05566288591568
 20
11.24999929641179
 30
0.0
 40
0.25
100
AcDbArc
 50
270.0
 51
329.9999999999991
  0
ARC
  5
CC
330
AA
100
AcDbEntity
  8
1
  6
Continuous
 62
     4
100
AcDbCircle
 10
2.542125497893831
 20
11.09257725634062
 30
0.0
 40
0.25
100
AcDbArc
 50
84.56356643752996
 51
149.9999999999995
  0
ARC
  5
CD
330
AA
100
AcDbEntity
  8
1
  6
Continuous
 62
     4
100
AcDbCircle
 10
2.542125497893831
 20
11.09257725634062
 30
0.0
 40
0.25
100
AcDbArc
 50
84.56356643752996
 51
149.9999999999995
  0
ENDBLK
  5
AC
330
AA
100
AcDbEntity
  8
0
100
AcDbBlockEnd
  0
BLOCK
  5
CF
330
CE
100
AcDbEntity
  8
0
100
AcDbBlockBegin
  2
GEN_BLOCK00009
 70
     2
 10
0.0
 20
0.0
 30
0.0
  3
GEN_BLOCK00009
  1
GEN_BLOCK00009
  0
ATTDEF
  5
D1
330
CE
100
AcDbEntity
  8
0
100
AcDbText
 10
0.0
 20
0.0
 30
0.0
 40
1.0
  1

100
AcDbAttributeDefinition
  3
Enter Symbol_Description
  2
Symbol_Description
 70
     0
280
     0
  0
TEXT
  5
D5
330
CE
100
AcDbEntity
  8
0
  6
Continuous
 62
    15
100
AcDbText
 10
91.22000026702881
 20
25.23999238014221
 30
0.0
 40
1.759999990463257
  1
DRAWN
  7
ARIAL
100
AcDbText
  0
TEXT
  5
D6
330
CE
100
AcDbEntity
  8
0
  6
Continuous
 62
    15
100
AcDbText
 10
123.2200012207031
 20
31.11999237537384
 30
0.0
 40
1.759999990463257
  1
1:1
  7
ARIAL
100
AcDbText
  0
TEXT
  5
D7
330
CE
100
AcDbEntity
  8
0
  6
Continuous
 62
    15
100
AcDbText
 10
91.22000026702881
 20
21.11999237537384
 30
0.0
 40
1.759999990463257
  1
PBA
  7
ARIAL
100
AcDbText
  0
TEXT
  5
D8
330
CE
100
AcDbEntity
  8
0
  6
Continuous
 62
    15
100
AcDbText
 10
123.2200012207031
 20
21.11999237537384
 30
0.0
 40
1.759999990463257
  1
XX
  7
ARIAL
100
AcDbText
  0
TEXT
  5
D9
330
CE
100
AcDbEntity
  8
0
  6
Continuous
 62
    15
100
AcDbText
 10
52.2998487617856
 20
11.99998474121094
 30
0.0
 40
1.759999990463257
  1
Mountpleasant, Dundalk, Ireland
  7
ARIAL
100
AcDbText
  0
TEXT
  5
DA
330
CE
100
AcDbEntity
  8
0
  6
Continuous
 62
    15
100
AcDbText
 10
55.04665867415602
 20
9.007984399795532
 30
0.0
 40
1.759999990463257
  1
Telephone (353/42) 9371244
  7
ARIAL
100
AcDbText
  0
TEXT
  5
DB
330
CE
100
AcDbEntity
  8
0
  6
Continuous
 62
    15
100
AcDbText
 10
59.40923912321492
 20
6.015984058380127
 30
0.0
 40
1.759999990463257
  1
Fax (353/42) 9371221
  7
ARIAL
100
AcDbText
  0
TEXT
  5
DC
330
CE
100
AcDbEntity
  8
0
  6
Continuous
 62
    15
100
AcDbText
 10
113.1999912261963
 20
6.239984750747681
 30
0.0
 40
1.759999990463257
  1
DESCRIPTION
  7
ARIAL
100
AcDbText
  0
TEXT
  5
DD
330
CE
100
AcDbEntity
  8
0
  6
Continuous
 62
    15
100
AcDbText
 10
113.1999912261963
 20
15.23999238014221
 30
0.0
 40
1.759999990463257
  1
CODE
  7
ARIAL
100
AcDbText
  0
TEXT
  5
DE
330
CE
100
AcDbEntity
  8
0
  6
Continuous
 62
    15
100
AcDbText
 10
123.2200012207031
 20
25.23999238014221
 30
0.0
 40
1.759999990463257
  1
TOLERANCE
  7
ARIAL
100
AcDbText
  0
TEXT
  5
DF
330
CE
100
AcDbEntity
  8
0
  6
Continuous
 62
    15
100
AcDbText
 10
123.2200012207031
 20
35.23999238014221
 30
0.0
 40
1.759999990463257
  1
SCALE
  7
ARIAL
100
AcDbText
  0
TEXT
  5
E0
330
CE
100
AcDbEntity
  8
0
  6
Continuous
 62
    15
100
AcDbText
 10
91.22000026702881
 20
35.23999238014221
 30
0.0
 40
1.759999990463257
  1
APPROVED
  7
ARIAL
100
AcDbText
  0
TEXT
  5
E1
330
CE
100
AcDbEntity
  8
0
  6
Continuous
 62
    15
100
AcDbText
 10
155.2200088500977
 20
25.23999238014221
 30
0.0
 40
1.759999990463257
  1
DATE OF LAST REV.
  7
ARIAL
100
AcDbText
  0
TEXT
  5
E2
330
CE
100
AcDbEntity
  8
0
  6
Continuous
 62
    15
100
AcDbText
 10
113.1999912261963
 20
11.11998474597931
 30
0.0
 40
1.759999990463257
  1
OUM
  7
ARIAL
100
AcDbText
  0
TEXT
  5
E3
330
CE
100
AcDbEntity
  8
0
  6
Continuous
 62
    15
100
AcDbText
 10
113.1999912261963
 20
2.119984745979309
 30
0.0
 40
1.759999990463257
  1
Assembled drawing for OUM solution
  7
ARIAL
100
AcDbText
  0
TEXT
  5
E4
330
CE
100
AcDbEntity
  8
0
  6
Continuous
 62
    15
100
AcDbText
 10
155.2200088500977
 20
21.11999237537384
 30
0.0
 40
1.759999990463257
  1
18/10/17
  7
ARIAL
100
AcDbText
  0
TEXT
  5
E5
330
CE
100
AcDbEntity
  8
0
  6
Continuous
 62
    15
100
AcDbText
 10
91.22000026702881
 20
31.11999237537384
 30
0.0
 40
1.759999990463257
  1
XX
  7
ARIAL
100
AcDbText
  0
TEXT
  5
E6
330
CE
100
AcDbEntity
  8
0
  6
Continuous
 62
    15
100
AcDbText
 10
123.2200012207031
 20
45.23999238014221
 30
0.0
 40
1.759999990463257
  1
DRAWING No
  7
ARIAL
100
AcDbText
  0
TEXT
  5
E7
330
CE
100
AcDbEntity
  8
0
  6
Continuous
 62
    15
100
AcDbText
 10
155.2200088500977
 20
35.23999238014221
 30
0.0
 40
1.759999990463257
  1
ORIGINAL DRAW DATE
  7
ARIAL
100
AcDbText
  0
TEXT
  5
E8
330
CE
100
AcDbEntity
  8
0
  6
Continuous
 62
    15
100
AcDbText
 10
155.2200088500977
 20
31.11999237537384
 30
0.0
 40
1.759999990463257
  1
06/03/03
  7
ARIAL
100
AcDbText
  0
TEXT
  5
E9
330
CE
100
AcDbEntity
  8
0
  6
Continuous
 62
    15
100
AcDbText
 10
123.2200088500977
 20
41.11999237537384
 30
0.0
 40
1.759999990463257
  1
[Cust. no.] - [proj. no.] - [prod. type] - [dwg no.]
  7
ARIAL
100
AcDbText
  0
TEXT
  5
EA
330
CE
100
AcDbEntity
  8
0
  6
Continuous
 62
    15
100
AcDbText
 10
92.4996194582877
 20
279.270003080368
 30
0.0
 40
1.059999942779541
  1
DATE
  7
ARIAL
100
AcDbText
  0
TEXT
  5
EB
330
CE
100
AcDbEntity
  8
0
  6
Continuous
 62
    15
100
AcDbText
 10
100.17646535095
 20
279.270003080368
 30
0.0
 40
1.059999942779541
  1
ISSUE
  7
ARIAL
100
AcDbText
  0
TEXT
  5
EC
330
CE
100
AcDbEntity
  8
0
  6
Continuous
 62
    15
100
AcDbText
 10
137.4140388762459
 20
279.270003080368
 30
0.0
 40
1.059999942779541
  1
CHANGE
  7
ARIAL
100
AcDbText
  0
TEXT
  5
ED
330
CE
100
AcDbEntity
  8
0
  6
Continuous
 62
    15
100
AcDbText
 10
181.6347683620016
 20
279.270003080368
 30
0.0
 40
1.059999942779541
  1
SIGNED
  7
ARIAL
100
AcDbText
  0
TEXT
  5
EE
330
CE
100
AcDbEntity
  8
0
  6
Continuous
 62
    15
100
AcDbText
 10
2.815216064453125
 20
278.770003080368
 30
0.0
 40
1.059999942779541
  1
THIS DRAWING  IS  THE PROPERTY OF  EXITEX  LTD
  7
ARIAL
100
AcDbText
  0
TEXT
  5
EF
330
CE
100
AcDbEntity
  8
0
  6
Continuous
 62
    15
100
AcDbText
 10
2.815216064453125
 20
276.9680029153824
 30
0.0
 40
1.059999942779541
  1
AND  MUST NOT BE REPRODUCED IN WHOLE OR IN
  7
ARIAL
100
AcDbText
  0
TEXT
  5
F0
330
CE
100
AcDbEntity
  8
0
  6
Continuous
 62
    15
100
AcDbText
 10
2.815216064453125
 20
275.1660027503967
 30
0.0
 40
1.059999942779541
  1
PART WITHOUT CONSENT
  7
ARIAL
100
AcDbText
  0
TEXT
  5
F1
330
CE
100
AcDbEntity
  8
0
  6
Continuous
 62
    15
100
AcDbText
 10
2.815216064453125
 20
273.3640025854111
 30
0.0
 40
1.059999942779541
  1
C  COPYRIGHT EXITEX.
  7
ARIAL
100
AcDbText
  0
TEXT
  5
F2
330
CE
100
AcDbEntity
  8
0
  6
Continuous
 62
    15
100
AcDbText
 10
92.01488829728115
 20
276.270003080368
 30
0.0
 40
1.059999942779541
  1
18/10/17
  7
ARIAL
100
AcDbText
  0
TEXT
  5
F3
330
CE
100
AcDbEntity
  8
0
  6
Continuous
 62
    15
100
AcDbText
 10
93.30750472663192
 20
274.270003080368
 30
0.0
 40
1.059999942779541
  1
XX
  7
ARIAL
100
AcDbText
  0
TEXT
  5
F4
330
CE
100
AcDbEntity
  8
0
  6
Continuous
 62
    15
100
AcDbText
 10
93.30750472663192
 20
272.270003080368
 30
0.0
 40
1.059999942779541
  1
XX
  7
ARIAL
100
AcDbText
  0
TEXT
  5
F5
330
CE
100
AcDbEntity
  8
0
  6
Continuous
 62
    15
100
AcDbText
 10
93.30750472663192
 20
270.270003080368
 30
0.0
 40
1.059999942779541
  1
XX
  7
ARIAL
100
AcDbText
  0
TEXT
  5
F6
330
CE
100
AcDbEntity
  8
0
  6
Continuous
 62
    15
100
AcDbText
 10
101.9538129413073
 20
276.270003080368
 30
0.0
 40
1.059999942779541
  1
1
  7
ARIAL
100
AcDbText
  0
TEXT
  5
F7
330
CE
100
AcDbEntity
  8
0
  6
Continuous
 62
    15
100
AcDbText
 10
101.3075047266319
 20
274.270003080368
 30
0.0
 40
1.059999942779541
  1
XX
  7
ARIAL
100
AcDbText
  0
TEXT
  5
F8
330
CE
100
AcDbEntity
  8
0
  6
Continuous
 62
    15
100
AcDbText
 10
101.3075047266319
 20
272.270003080368
 30
0.0
 40
1.059999942779541
  1
XX
  7
ARIAL
100
AcDbText
  0
TEXT
  5
F9
330
CE
100
AcDbEntity
  8
0
  6
Continuous
 62
    15
100
AcDbText
 10
101.3075047266319
 20
270.270003080368
 30
0.0
 40
1.059999942779541
  1
XX
  7
ARIAL
100
AcDbText
  0
TEXT
  5
FA
330
CE
100
AcDbEntity
  8
0
  6
Continuous
 62
    15
100
AcDbText
 10
131.9204190515051
 20
276.270003080368
 30
0.0
 40
1.059999942779541
  1
Original drawing - new template
  7
ARIAL
100
AcDbText
  0
TEXT
  5
FB
330
CE
100
AcDbEntity
  8
0
  6
Continuous
 62
    15
100
AcDbText
 10
139.3529635202721
 20
274.270003080368
 30
0.0
 40
1.059999942779541
  1
XX
  7
ARIAL
100
AcDbText
  0
TEXT
  5
FC
330
CE
100
AcDbEntity
  8
0
  6
Continuous
 62
    15
100
AcDbText
 10
139.3529635202721
 20
272.270003080368
 30
0.0
 40
1.059999942779541
  1
XX
  7
ARIAL
100
AcDbText
  0
TEXT
  5
FD
330
CE
100
AcDbEntity
  8
0
  6
Continuous
 62
    15
100
AcDbText
 10
139.3529635202721
 20
270.270003080368
 30
0.0
 40
1.059999942779541
  1
XX
  7
ARIAL
100
AcDbText
  0
TEXT
  5
FE
330
CE
100
AcDbEntity
  8
0
  6
Continuous
 62
    15
100
AcDbText
 10
182.7658077376835
 20
276.270003080368
 30
0.0
 40
1.059999942779541
  1
SBG
  7
ARIAL
100
AcDbText
  0
TEXT
  5
FF
330
CE
100
AcDbEntity
  8
0
  6
Continuous
 62
    15
100
AcDbText
 10
183.25053889869
 20
274.270003080368
 30
0.0
 40
1.059999942779541
  1
XX
  7
ARIAL
100
AcDbText
  0
TEXT
  5
100
330
CE
100
AcDbEntity
  8
0
  6
Continuous
 62
    15
100
AcDbText
 10
183.25053889869
 20
272.270003080368
 30
0.0
 40
1.059999942779541
  1
XX
  7
ARIAL
100
AcDbText
  0
TEXT
  5
101
330
CE
100
AcDbEntity
  8
0
  6
Continuous
 62
    15
100
AcDbText
 10
183.25053889869
 20
270.270003080368
 30
0.0
 40
1.059999942779541
  1
XX
  7
ARIAL
100
AcDbText
  0
TEXT
  5
102
330
CE
100
AcDbEntity
  8
0
  6
Continuous
 62
    15
100
AcDbText
 10
79.28633308410645
 20
275.7720630168915
 30
0.0
 40
1.059999942779541
  1
First angle
  7
ARIAL
100
AcDbText
  0
TEXT
  5
103
330
CE
100
AcDbEntity
  8
0
  6
Continuous
 62
    15
100
AcDbText
 10
79.28633308410645
 20
273.9700628519058
 30
0.0
 40
1.059999942779541
  1
projection
  7
ARIAL
100
AcDbText
  0
LINE
  5
104
330
CE
100
AcDbEntity
  8
0
  6
Continuous
 62
     9
100
AcDbLine
 10
0.0000006103515631
 20
17.99999389648438
 30
0.0
 11
194.2200006103516
 21
17.99999389648438
 31
0.0
  0
LINE
  5
105
330
CE
100
AcDbEntity
  8
0
  6
Continuous
 62
     9
100
AcDbLine
 10
112.1999913452354
 20
17.99999389648437
 30
0.0
 11
112.1999913452354
 21
-0.0000061035156307
 31
0.0
  0
LINE
  5
106
330
CE
100
AcDbEntity
  8
0
  6
Continuous
 62
     9
100
AcDbLine
 10
154.2200006103516
 20
17.99999389648437
 30
0.0
 11
154.2200006103516
 21
37.99999389648437
 31
0.0
  0
LINE
  5
107
330
CE
100
AcDbEntity
  8
0
  6
Continuous
 62
     9
100
AcDbLine
 10
112.1999913452354
 20
8.999993896484312
 30
0.0
 11
194.2200006103515
 21
8.99999389648437
 31
0.0
  0
LINE
  5
108
330
CE
100
AcDbEntity
  8
0
  6
Continuous
 62
     9
100
AcDbLine
 10
122.2200006103516
 20
37.99999389648438
 30
0.0
 11
194.2200006103516
 21
37.99999389648437
 31
0.0
  0
LINE
  5
109
330
CE
100
AcDbEntity
  8
0
  6
Continuous
 62
     9
100
AcDbLine
 10
90.22000061035158
 20
27.99999389648437
 30
0.0
 11
194.2200006103516
 21
27.99999389648437
 31
0.0
  0
LINE
  5
10A
330
CE
100
AcDbEntity
  8
0
  6
Continuous
 62
     9
100
AcDbLine
 10
194.2200006103516
 20
-0.0000061035156307
 30
0.0
 11
194.2200006103516
 21
281.2999938964844
 31
0.0
  0
LINE
  5
10B
330
CE
100
AcDbEntity
  8
0
  6
Continuous
 62
     9
100
AcDbLine
 10
0.0000006103515631
 20
-0.0000061035156307
 30
0.0
 11
0.0000006103515631
 21
281.2999938964844
 31
0.0
  0
LINE
  5
10C
330
CE
100
AcDbEntity
  8
0
  6
Continuous
 62
     9
100
AcDbLine
 10
0.0000006103515631
 20
281.2999938964844
 30
0.0
 11
194.2200006103516
 21
281.2999938964844
 31
0.0
  0
LINE
  5
10D
330
CE
100
AcDbEntity
  8
0
  6
Continuous
 62
     9
100
AcDbLine
 10
194.2200006103516
 20
-0.0000061035156307
 30
0.0
 11
0.0000006103515631
 21
-0.0000061035156307
 31
0.0
  0
LINE
  5
10E
330
CE
100
AcDbEntity
  8
0
  6
Continuous
 62
     9
100
AcDbLine
 10
90.22000061035158
 20
37.99999389648438
 30
0.0
 11
90.22000061035158
 21
27.99999389648437
 31
0.0
  0
LINE
  5
10F
330
CE
100
AcDbEntity
  8
0
  6
Continuous
 62
     9
100
AcDbLine
 10
122.2200006103516
 20
37.99999389648437
 30
0.0
 11
122.2200006103516
 21
27.99999389648437
 31
0.0
  0
LINE
  5
110
330
CE
100
AcDbEntity
  8
0
  6
Continuous
 62
     9
100
AcDbLine
 10
122.2200006103516
 20
27.99999389648437
 30
0.0
 11
122.2200006103516
 21
17.99999389648438
 31
0.0
  0
LINE
  5
111
330
CE
100
AcDbEntity
  8
0
  6
Continuous
 62
     9
100
AcDbLine
 10
90.22000061035158
 20
27.99999389648437
 30
0.0
 11
90.22000061035158
 21
17.99999389648438
 31
0.0
  0
LINE
  5
112
330
CE
100
AcDbEntity
  8
0
  6
Continuous
 62
     9
100
AcDbLine
 10
122.2200006103516
 20
47.99999389648436
 30
0.0
 11
194.2200006103516
 21
47.99999389648436
 31
0.0
  0
LINE
  5
113
330
CE
100
AcDbEntity
  8
0
  6
Continuous
 62
     2
100
AcDbLine
 10
90.27696715421
 20
281.2999938964844
 30
0.0
 11
90.27696715421
 21
269.2999938964844
 31
0.0
  0
LINE
  5
114
330
CE
100
AcDbEntity
  8
0
  6
Continuous
 62
     2
100
AcDbLine
 10
194.2200006103516
 20
278.2999938964844
 30
0.0
 11
90.27696715421
 21
278.2999938964844
 31
0.0
  0
LINE
  5
115
330
CE
100
AcDbEntity
  8
0
  6
Continuous
 62
     2
100
AcDbLine
 10
98.27696715421
 20
281.2999938964844
 30
0.0
 11
98.27696715421
 21
269.2999938964844
 31
0.0
  0
LINE
  5
116
330
CE
100
AcDbEntity
  8
0
  6
Continuous
 62
     2
100
AcDbLine
 10
106.27696715421
 20
281.2999938964844
 30
0.0
 11
106.27696715421
 21
269.2999938964844
 31
0.0
  0
LINE
  5
117
330
CE
100
AcDbEntity
  8
0
  6
Continuous
 62
     2
100
AcDbLine
 10
174.2200006103516
 20
281.2999938964844
 30
0.0
 11
174.2200006103516
 21
269.2999938964844
 31
0.0
  0
CIRCLE
  5
118
330
CE
100
AcDbEntity
  8
0
  6
Continuous
 62
     1
100
AcDbCircle
 10
3.560661341893677
 20
273.8689679114367
 30
0.0
 40
1.0
  0
ARC
  5
119
330
CE
100
AcDbEntity
  8
0
  6
Continuous
 62
     1
100
AcDbCircle
 10
3.560661341893677
 20
273.8689679114367
 30
0.0
 40
1.0
100
AcDbArc
 50
0.0
 51
0.0
  0
LINE
  5
11A
330
CE
100
AcDbEntity
  8
0
  6
Continuous
 62
     1
100
AcDbLine
 10
58.52696715421
 20
277.040374953251
 30
0.0
 11
58.52696715421
 21
273.5596128397178
 31
0.0
  0
LINE
  5
11B
330
CE
100
AcDbEntity
  8
0
  6
Continuous
 62
     1
100
AcDbLine
 10
66.02696715421
 20
279.0499938964844
 30
0.0
 11
66.02696715421
 21
271.5499938964844
 31
0.0
  0
LINE
  5
11C
330
CE
100
AcDbEntity
  8
0
  6
Continuous
 62
     1
100
AcDbLine
 10
66.02696715421001
 20
271.5499938964844
 30
0.0
 11
58.52696715421
 21
273.5596128397178
 31
0.0
  0
LINE
  5
11D
330
CE
100
AcDbEntity
  8
0
  6
Continuous
 62
     1
100
AcDbLine
 10
66.02696715421
 20
279.0499938964844
 30
0.0
 11
58.52696715421
 21
277.040374953251
 31
0.0
  0
ARC
  5
11E
330
CE
100
AcDbEntity
  8
0
  6
Continuous
 62
     1
100
AcDbCircle
 10
72.27696715421
 20
275.2999938964844
 30
0.0
 40
3.75
100
AcDbArc
 50
180.0
 51
0.0
  0
ARC
  5
11F
330
CE
100
AcDbEntity
  8
0
  6
Continuous
 62
     1
100
AcDbCircle
 10
72.27696715421
 20
275.2999938964844
 30
0.0
 40
3.75
100
AcDbArc
 50
180.0
 51
0.0
  0
ARC
  5
120
330
CE
100
AcDbEntity
  8
0
  6
Continuous
 62
     1
100
AcDbCircle
 10
72.27696715421
 20
275.2999938964844
 30
0.0
 40
3.75
100
AcDbArc
 50
0.0
 51
180.0
  0
ARC
  5
121
330
CE
100
AcDbEntity
  8
0
  6
Continuous
 62
     1
100
AcDbCircle
 10
72.27696715421
 20
275.2999938964844
 30
0.0
 40
3.75
100
AcDbArc
 50
0.0
 51
180.0
  0
ARC
  5
122
330
CE
100
AcDbEntity
  8
0
  6
Continuous
 62
     1
100
AcDbCircle
 10
72.27696715421
 20
275.2999938964844
 30
0.0
 40
1.740381057
100
AcDbArc
 50
180.0
 51
0.0
  0
ARC
  5
123
330
CE
100
AcDbEntity
  8
0
  6
Continuous
 62
     1
100
AcDbCircle
 10
72.27696715421
 20
275.2999938964844
 30
0.0
 40
1.740381057
100
AcDbArc
 50
180.0
 51
0.0
  0
ARC
  5
124
330
CE
100
AcDbEntity
  8
0
  6
Continuous
 62
     1
100
AcDbCircle
 10
72.27696715421
 20
275.2999938964844
 30
0.0
 40
1.740381057
100
AcDbArc
 50
0.0
 51
180.0
  0
ARC
  5
125
330
CE
100
AcDbEntity
  8
0
  6
Continuous
 62
     1
100
AcDbCircle
 10
72.27696715421
 20
275.2999938964844
 30
0.0
 40
1.740381057
100
AcDbArc
 50
0.0
 51
180.0
  0
LINE
  5
126
330
CE
100
AcDbEntity
  8
0
  6
Continuous
 62
     1
100
AcDbLine
 10
72.27696715421
 20
275.7999938964844
 30
0.0
 11
72.27696715421
 21
274.7999938964844
 31
0.0
  0
LINE
  5
127
330
CE
100
AcDbEntity
  8
0
  6
Continuous
 62
     1
100
AcDbLine
 10
71.77696715421
 20
275.2999938964844
 30
0.0
 11
72.77696715421
 21
275.2999938964844
 31
0.0
  0
LINE
  5
128
330
CE
100
AcDbEntity
  8
0
  6
DOT
 62
     1
100
AcDbLine
 10
71.27696715421
 20
275.2999938964844
 30
0.0
 11
55.02000987546776
 21
275.2999938964844
 31
0.0
  0
LINE
  5
129
330
CE
100
AcDbEntity
  8
0
  6
DOT
 62
     1
100
AcDbLine
 10
73.27696715421
 20
275.2999938964844
 30
0.0
 11
79.28633747875388
 21
275.2999938964844
 31
0.0
  0
LINE
  5
12A
330
CE
100
AcDbEntity
  8
0
  6
DOT
 62
     1
100
AcDbLine
 10
72.27696715421
 20
274.2999938964844
 30
0.0
 11
72.27696715421
 21
270.2999938964844
 31
0.0
  0
LINE
  5
12B
330
CE
100
AcDbEntity
  8
0
  6
DOT
 62
     1
100
AcDbLine
 10
72.27696715421
 20
276.2999938964844
 30
0.0
 11
72.27696715421
 21
280.2999938964844
 31
0.0
  0
ENDBLK
  5
D0
330
CE
100
AcDbEntity
  8
0
100
AcDbBlockEnd
  0
BLOCK
  5
12D
330
12C
100
AcDbEntity
  8
0
100
AcDbBlockBegin
  2
GEN_BLOCK00010
 70
     0
 10
0.0
 20
0.0
 30
0.0
  3
GEN_BLOCK00010
  1
GEN_BLOCK00010
  0
LINE
  5
130
330
12C
100
AcDbEntity
  8
1
  6
Continuous
 62
     4
100
AcDbLine
 10
0.000001666470034
 20
0.3327760161255853
 30
0.0
 11
0.3417884147689563
 21
0.3655181889947556
 31
0.0
  0
LINE
  5
131
330
12C
100
AcDbEntity
  8
1
  6
Continuous
 62
     4
100
AcDbLine
 10
0.3417884147689492
 20
0.3655181889947485
 30
0.0
 11
0.3768040518445801
 21
-0.0000006415208347
 31
0.0
  0
ENDBLK
  5
12E
330
12C
100
AcDbEntity
  8
0
100
AcDbBlockEnd
  0
BLOCK
  5
133
330
132
100
AcDbEntity
  8
0
100
AcDbBlockBegin
  2
GEN_BLOCK00011
 70
     0
 10
0.0
 20
0.0
 30
0.0
  3
GEN_BLOCK00011
  1
GEN_BLOCK00011
  0
LINE
  5
136
330
132
100
AcDbEntity
  8
1
  6
Continuous
 62
     4
100
AcDbLine
 10
0.0000016239488048
 20
0.3424724884454449
 30
0.0
 11
0.3425248583514033
 21
0.366306604567697
 31
0.0
  0
LINE
  5
137
330
132
100
AcDbEntity
  8
1
  6
Continuous
 62
     4
100
AcDbLine
 10
0.3425248583513962
 20
0.3663066045676899
 30
0.0
 11
0.3680139046492741
 21
0.0000001497786428
 31
0.0
  0
ENDBLK
  5
134
330
132
100
AcDbEntity
  8
0
100
AcDbBlockEnd
  0
BLOCK
  5
139
330
138
100
AcDbEntity
  8
0
100
AcDbBlockBegin
  2
GEN_BLOCK00012
 70
     0
 10
0.0
 20
0.0
 30
0.0
  3
GEN_BLOCK00012
  1
GEN_BLOCK00012
  0
LINE
  5
13C
330
138
100
AcDbEntity
  8
1
  6
Continuous
 62
     4
100
AcDbLine
 10
0.0000013790161688
 20
0.2971104878581485
 30
0.0
 11
0.3373910010439189
 21
0.3608166425444139
 31
0.0
  0
LINE
  5
13D
330
138
100
AcDbEntity
  8
1
  6
Continuous
 62
     4
100
AcDbLine
 10
0.3373910010439189
 20
0.3608166425444068
 30
0.0
 11
0.4055206148264148
 21
0.0000002542980582
 31
0.0
  0
ENDBLK
  5
13A
330
138
100
AcDbEntity
  8
0
100
AcDbBlockEnd
  0
BLOCK
  5
13F
330
13E
100
AcDbEntity
  8
0
100
AcDbBlockBegin
  2
GEN_BLOCK00013
 70
     0
 10
0.0
 20
0.0
 30
0.0
  3
GEN_BLOCK00013
  1
GEN_BLOCK00013
  0
LINE
  5
142
330
13E
100
AcDbEntity
  8
1
  6
Continuous
 62
     4
100
AcDbLine
 10
-0.0000005198605777
 20
0.0689921357532057
 30
0.0
 11
0.2667072287970882
 21
0.2852262866242015
 31
0.0
  0
LINE
  5
143
330
13E
100
AcDbEntity
  8
1
  6
Continuous
 62
     4
100
AcDbLine
 10
0.2667072287970917
 20
0.2852262866241944
 30
0.0
 11
0.4979556734406856
 21
-0.0000004076932427
 31
0.0
  0
ENDBLK
  5
140
330
13E
100
AcDbEntity
  8
0
100
AcDbBlockEnd
  0
BLOCK
  5
145
330
144
100
AcDbEntity
  8
0
100
AcDbBlockBegin
  2
GEN_BLOCK00014
 70
     0
 10
0.0
 20
0.0
 30
0.0
  3
GEN_BLOCK00014
  1
GEN_BLOCK00014
  0
ARC
  5
148
330
144
100
AcDbEntity
  8
0
  6
Continuous
 62
     4
100
AcDbCircle
 10
4.268740720589935
 20
17.652235555585
 30
0.0
 40
8.177165026246895
100
AcDbArc
 50
241.1805006519802
 51
262.9790730692351
  0
ARC
  5
149
330
144
100
AcDbEntity
  8
0
  6
Continuous
 62
     4
100
AcDbCircle
 10
4.268740720589935
 20
17.652235555585
 30
0.0
 40
8.177165026246895
100
AcDbArc
 50
241.1805006519802
 51
262.9790730692351
  0
ARC
  5
14A
330
144
100
AcDbEntity
  8
0
  6
Continuous
 62
     4
100
AcDbCircle
 10
5.374445665704589
 20
18.75562002729274
 30
0.0
 40
9.318469936955477
100
AcDbArc
 50
278.3692550133071
 51
297.4711712654776
  0
ARC
  5
14B
330
144
100
AcDbEntity
  8
0
  6
Continuous
 62
     4
100
AcDbCircle
 10
5.374445665704589
 20
18.75562002729274
 30
0.0
 40
9.318469936955477
100
AcDbArc
 50
278.3692550133071
 51
297.4711712654776
  0
ARC
  5
14C
330
144
100
AcDbEntity
  8
0
  6
Continuous
 62
     4
100
AcDbCircle
 10
6.49999988814794
 20
10.25000083620079
 30
0.0
 40
0.75
100
AcDbArc
 50
270.0
 51
287.9202131393852
  0
ARC
  5
14D
330
144
100
AcDbEntity
  8
0
  6
Continuous
 62
     4
100
AcDbCircle
 10
6.49999988814794
 20
10.25000083620079
 30
0.0
 40
0.75
100
AcDbArc
 50
270.0
 51
287.9202131393852
  0
ARC
  5
14E
330
144
100
AcDbEntity
  8
0
  6
Continuous
 62
     4
100
AcDbCircle
 10
6.49999988814794
 20
10.25000083620079
 30
0.0
 40
0.75
100
AcDbArc
 50
180.0
 51
270.0
  0
ARC
  5
14F
330
144
100
AcDbEntity
  8
0
  6
Continuous
 62
     4
100
AcDbCircle
 10
6.49999988814794
 20
10.25000083620079
 30
0.0
 40
0.75
100
AcDbArc
 50
180.0
 51
270.0
  0
LINE
  5
150
330
144
100
AcDbEntity
  8
0
  6
Continuous
 62
     4
100
AcDbLine
 10
5.74999988814794
 20
10.25000083620079
 30
0.0
 11
5.74999988814794
 21
11.30000083620079
 31
0.0
  0
ARC
  5
151
330
144
100
AcDbEntity
  8
0
  6
Continuous
 62
     4
100
AcDbCircle
 10
6.14999988814794
 20
11.30000083620079
 30
0.0
 40
0.4
100
AcDbArc
 50
90.0
 51
180.0
  0
ARC
  5
152
330
144
100
AcDbEntity
  8
0
  6
Continuous
 62
     4
100
AcDbCircle
 10
6.14999988814794
 20
11.30000083620079
 30
0.0
 40
0.4
100
AcDbArc
 50
90.0
 51
180.0
  0
LINE
  5
153
330
144
100
AcDbEntity
  8
0
  6
Continuous
 62
     4
100
AcDbLine
 10
6.14999988814794
 20
11.70000083620079
 30
0.0
 11
6.949999888147939
 21
11.70000083620079
 31
0.0
  0
ARC
  5
154
330
144
100
AcDbEntity
  8
0
  6
Continuous
 62
     4
100
AcDbCircle
 10
6.949999888147939
 20
12.45000083620079
 30
0.0
 40
0.75
100
AcDbArc
 50
270.0
 51
0.0
  0
ARC
  5
155
330
144
100
AcDbEntity
  8
0
  6
Continuous
 62
     4
100
AcDbCircle
 10
6.949999888147939
 20
12.45000083620079
 30
0.0
 40
0.75
100
AcDbArc
 50
270.0
 51
0.0
  0
LINE
  5
156
330
144
100
AcDbEntity
  8
0
  6
Continuous
 62
     4
100
AcDbLine
 10
7.699999888147939
 20
12.45000083620079
 30
0.0
 11
7.699999888147939
 21
12.85000083620079
 31
0.0
  0
ARC
  5
157
330
144
100
AcDbEntity
  8
0
  6
Continuous
 62
     4
100
AcDbCircle
 10
6.949999888147939
 20
12.85000083620079
 30
0.0
 40
0.75
100
AcDbArc
 50
0.0
 51
90.0
  0
ARC
  5
158
330
144
100
AcDbEntity
  8
0
  6
Continuous
 62
     4
100
AcDbCircle
 10
6.949999888147939
 20
12.85000083620079
 30
0.0
 40
0.75
100
AcDbArc
 50
0.0
 51
90.0
  0
LINE
  5
159
330
144
100
AcDbEntity
  8
0
  6
Continuous
 62
     4
100
AcDbLine
 10
6.949999888147939
 20
13.60000083620079
 30
0.0
 11
3.049999888147941
 21
13.60000083620079
 31
0.0
  0
ARC
  5
15A
330
144
100
AcDbEntity
  8
0
  6
Continuous
 62
     4
100
AcDbCircle
 10
3.049999888147941
 20
12.85000083620079
 30
0.0
 40
0.75
100
AcDbArc
 50
90.0
 51
180.0
  0
ARC
  5
15B
330
144
100
AcDbEntity
  8
0
  6
Continuous
 62
     4
100
AcDbCircle
 10
3.049999888147941
 20
12.85000083620079
 30
0.0
 40
0.75
100
AcDbArc
 50
90.0
 51
180.0
  0
ARC
  5
15C
330
144
100
AcDbEntity
  8
0
  6
Continuous
 62
     4
100
AcDbCircle
 10
3.049999888147941
 20
12.85000083620079
 30
0.0
 40
0.75
100
AcDbArc
 50
90.0
 51
180.0
  0
ARC
  5
15D
330
144
100
AcDbEntity
  8
0
  6
Continuous
 62
     4
100
AcDbCircle
 10
3.049999888147941
 20
12.85000083620079
 30
0.0
 40
0.75
100
AcDbArc
 50
90.0
 51
180.0
  0
LINE
  5
15E
330
144
100
AcDbEntity
  8
0
  6
Continuous
 62
     4
100
AcDbLine
 10
2.299999888147941
 20
12.85000083620079
 30
0.0
 11
2.299999888147941
 21
12.45000083620079
 31
0.0
  0
ARC
  5
15F
330
144
100
AcDbEntity
  8
0
  6
Continuous
 62
     4
100
AcDbCircle
 10
3.049999888147941
 20
12.45000083620079
 30
0.0
 40
0.75
100
AcDbArc
 50
180.0
 51
270.0
  0
ARC
  5
160
330
144
100
AcDbEntity
  8
0
  6
Continuous
 62
     4
100
AcDbCircle
 10
3.049999888147941
 20
12.45000083620079
 30
0.0
 40
0.75
100
AcDbArc
 50
180.0
 51
270.0
  0
LINE
  5
161
330
144
100
AcDbEntity
  8
0
  6
Continuous
 62
     4
100
AcDbLine
 10
3.049999888147941
 20
11.70000083620079
 30
0.0
 11
3.84999988814794
 21
11.70000083620079
 31
0.0
  0
ARC
  5
162
330
144
100
AcDbEntity
  8
0
  6
Continuous
 62
     4
100
AcDbCircle
 10
3.84999988814794
 20
11.30000083620079
 30
0.0
 40
0.4
100
AcDbArc
 50
0.0
 51
90.0
  0
ARC
  5
163
330
144
100
AcDbEntity
  8
0
  6
Continuous
 62
     4
100
AcDbCircle
 10
3.84999988814794
 20
11.30000083620079
 30
0.0
 40
0.4
100
AcDbArc
 50
0.0
 51
90.0
  0
LINE
  5
164
330
144
100
AcDbEntity
  8
0
  6
Continuous
 62
     4
100
AcDbLine
 10
4.24999988814794
 20
11.30000083620079
 30
0.0
 11
4.24999988814794
 21
10.25000083620079
 31
0.0
  0
ARC
  5
165
330
144
100
AcDbEntity
  8
0
  6
Continuous
 62
     4
100
AcDbCircle
 10
3.49999988814794
 20
10.25000083620079
 30
0.0
 40
0.75
100
AcDbArc
 50
270.0
 51
0.0
  0
ARC
  5
166
330
144
100
AcDbEntity
  8
0
  6
Continuous
 62
     4
100
AcDbCircle
 10
3.49999988814794
 20
10.25000083620079
 30
0.0
 40
0.75
100
AcDbArc
 50
270.0
 51
0.0
  0
LINE
  5
167
330
144
100
AcDbEntity
  8
0
  6
Continuous
 62
     4
100
AcDbLine
 10
3.49999988814794
 20
9.500000836200789
 30
0.0
 11
3.269230657378708
 21
9.536386400997731
 31
0.0
  0
ARC
  5
168
330
144
100
AcDbEntity
  8
0
  6
Continuous
 62
     4
100
AcDbCircle
 10
0.2499998881479399
 20
10.25000083620079
 30
0.0
 40
0.25
100
AcDbArc
 50
61.50206065209971
 51
90.0
  0
ARC
  5
169
330
144
100
AcDbEntity
  8
0
  6
Continuous
 62
     4
100
AcDbCircle
 10
0.2499998881479399
 20
10.25000083620079
 30
0.0
 40
0.25
100
AcDbArc
 50
61.50206065209971
 51
90.0
  0
ARC
  5
16A
330
144
100
AcDbEntity
  8
0
  6
Continuous
 62
     4
100
AcDbCircle
 10
0.2499998881479399
 20
10.25000083620079
 30
0.0
 40
0.25
100
AcDbArc
 50
90.0
 51
180.0
  0
ARC
  5
16B
330
144
100
AcDbEntity
  8
0
  6
Continuous
 62
     4
100
AcDbCircle
 10
0.2499998881479399
 20
10.25000083620079
 30
0.0
 40
0.25
100
AcDbArc
 50
90.0
 51
180.0
  0
ARC
  5
16C
330
144
100
AcDbEntity
  8
0
  6
Continuous
 62
     4
100
AcDbCircle
 10
0.2499998881479399
 20
10.25000083620079
 30
0.0
 40
0.25
100
AcDbArc
 50
180.0
 51
234.9431983389067
  0
ARC
  5
16D
330
144
100
AcDbEntity
  8
0
  6
Continuous
 62
     4
100
AcDbCircle
 10
0.2499998881479399
 20
10.25000083620079
 30
0.0
 40
0.25
100
AcDbArc
 50
180.0
 51
234.9431983389067
  0
ARC
  5
16E
330
144
100
AcDbEntity
  8
0
  6
Continuous
 62
     4
100
AcDbCircle
 10
4.999416050656795
 20
17.01857843345664
 30
0.0
 40
8.51862846715127
100
AcDbArc
 50
234.9431983389067
 51
262.0367868247083
  0
ARC
  5
16F
330
144
100
AcDbEntity
  8
0
  6
Continuous
 62
     4
100
AcDbCircle
 10
4.999416050656795
 20
17.01857843345664
 30
0.0
 40
8.51862846715127
100
AcDbArc
 50
234.9431983389067
 51
262.0367868247083
  0
ARC
  5
170
330
144
100
AcDbEntity
  8
0
  6
Continuous
 62
     4
100
AcDbCircle
 10
3.74999988814794
 20
8.086914608537292
 30
0.0
 40
0.5
100
AcDbArc
 50
0.0
 51
82.03678682470829
  0
ARC
  5
171
330
144
100
AcDbEntity
  8
0
  6
Continuous
 62
     4
100
AcDbCircle
 10
3.74999988814794
 20
8.086914608537292
 30
0.0
 40
0.5
100
AcDbArc
 50
0.0
 51
82.03678682470829
  0
LINE
  5
172
330
144
100
AcDbEntity
  8
0
  6
Continuous
 62
     4
100
AcDbLine
 10
4.24999988814794
 20
8.086914608537292
 30
0.0
 11
4.24999988814794
 21
7.617010688871183
 31
0.0
  0
ARC
  5
173
330
144
100
AcDbEntity
  8
0
  6
Continuous
 62
     4
100
AcDbCircle
 10
4.74999988814794
 20
7.617010688871183
 30
0.0
 40
0.5
100
AcDbArc
 50
180.0
 51
247.8937286613891
  0
ARC
  5
174
330
144
100
AcDbEntity
  8
0
  6
Continuous
 62
     4
100
AcDbCircle
 10
4.74999988814794
 20
7.617010688871183
 30
0.0
 40
0.5
100
AcDbArc
 50
180.0
 51
247.8937286613891
  0
LINE
  5
175
330
144
100
AcDbEntity
  8
0
  6
Continuous
 62
     4
100
AcDbLine
 10
4.561837050874553
 20
7.153766966119079
 30
0.0
 11
6.811407408537885
 21
6.240024328379004
 31
0.0
  0
ARC
  5
176
330
144
100
AcDbEntity
  8
0
  6
Continuous
 62
     4
100
AcDbCircle
 10
6.499999888147938
 20
0.5000008362007904
 30
0.0
 40
0.5
100
AcDbArc
 50
189.2093958559823
 51
270.0
  0
ARC
  5
177
330
144
100
AcDbEntity
  8
0
  6
Continuous
 62
     4
100
AcDbCircle
 10
6.499999888147938
 20
0.5000008362007904
 30
0.0
 40
0.5
100
AcDbArc
 50
189.2093958559823
 51
270.0
  0
ARC
  5
178
330
144
100
AcDbEntity
  8
0
  6
Continuous
 62
     4
100
AcDbCircle
 10
6.499999888147938
 20
0.5000008362007904
 30
0.0
 40
0.5
100
AcDbArc
 50
270.0
 51
9.209395855982311
  0
ARC
  5
179
330
144
100
AcDbEntity
  8
0
  6
Continuous
 62
     4
100
AcDbCircle
 10
6.499999888147938
 20
0.5000008362007904
 30
0.0
 40
0.5
100
AcDbArc
 50
270.0
 51
9.209395855982311
  0
ARC
  5
17A
330
144
100
AcDbEntity
  8
0
  6
Continuous
 62
     4
100
AcDbCircle
 10
15.87754520263723
 20
2.020409950452574
 30
0.0
 40
9.0
100
AcDbArc
 50
151.8659597279665
 51
189.2093958559823
  0
ARC
  5
17B
330
144
100
AcDbEntity
  8
0
  6
Continuous
 62
     4
100
AcDbCircle
 10
15.87754520263723
 20
2.020409950452574
 30
0.0
 40
9.0
100
AcDbArc
 50
151.8659597279665
 51
189.2093958559823
  0
ARC
  5
17C
330
144
100
AcDbEntity
  8
0
  6
Continuous
 62
     4
100
AcDbCircle
 10
7.49999988814794
 20
6.500000836200789
 30
0.0
 40
0.5
100
AcDbArc
 50
331.8659597279665
 51
67.8937286613891
  0
ARC
  5
17D
330
144
100
AcDbEntity
  8
0
  6
Continuous
 62
     4
100
AcDbCircle
 10
7.49999988814794
 20
6.500000836200789
 30
0.0
 40
0.5
100
AcDbArc
 50
331.8659597279665
 51
67.8937286613891
  0
ARC
  5
17E
330
144
100
AcDbEntity
  8
0
  6
Continuous
 62
     4
100
AcDbCircle
 10
7.49999988814794
 20
6.500000836200789
 30
0.0
 40
0.5
100
AcDbArc
 50
331.8659597279665
 51
67.8937286613891
  0
ARC
  5
17F
330
144
100
AcDbEntity
  8
0
  6
Continuous
 62
     4
100
AcDbCircle
 10
7.49999988814794
 20
6.500000836200789
 30
0.0
 40
0.5
100
AcDbArc
 50
331.8659597279665
 51
67.8937286613891
  0
LINE
  5
180
330
144
100
AcDbEntity
  8
0
  6
Continuous
 62
     4
100
AcDbLine
 10
7.688162725421327
 20
6.963244558952894
 30
0.0
 11
6.061837050874553
 21
7.623834305178192
 31
0.0
  0
ARC
  5
181
330
144
100
AcDbEntity
  8
0
  6
Continuous
 62
     4
100
AcDbCircle
 10
6.24999988814794
 20
8.087078027930296
 30
0.0
 40
0.5
100
AcDbArc
 50
97.97070376848887
 51
247.8937286613891
  0
ARC
  5
182
330
144
100
AcDbEntity
  8
0
  6
Continuous
 62
     4
100
AcDbCircle
 10
6.24999988814794
 20
8.087078027930296
 30
0.0
 40
0.5
100
AcDbArc
 50
97.97070376848887
 51
247.8937286613891
  0
ARC
  5
183
330
144
100
AcDbEntity
  8
0
  6
Continuous
 62
     4
100
AcDbCircle
 10
9.74999988814794
 20
10.25000083620079
 30
0.0
 40
0.25
100
AcDbArc
 50
90.0
 51
117.2226944583566
  0
ARC
  5
184
330
144
100
AcDbEntity
  8
0
  6
Continuous
 62
     4
100
AcDbCircle
 10
9.74999988814794
 20
10.25000083620079
 30
0.0
 40
0.25
100
AcDbArc
 50
90.0
 51
117.2226944583566
  0
ARC
  5
185
330
144
100
AcDbEntity
  8
0
  6
Continuous
 62
     4
100
AcDbCircle
 10
9.74999988814794
 20
10.25000083620079
 30
0.0
 40
0.25
100
AcDbArc
 50
305.0634243967847
 51
90.0
  0
ARC
  5
186
330
144
100
AcDbEntity
  8
0
  6
Continuous
 62
     4
100
AcDbCircle
 10
9.74999988814794
 20
10.25000083620079
 30
0.0
 40
0.25
100
AcDbArc
 50
305.0634243967847
 51
90.0
  0
ARC
  5
187
330
144
100
AcDbEntity
  8
0
  6
Continuous
 62
     4
100
AcDbCircle
 10
4.999416050656795
 20
17.01857843345664
 30
0.0
 40
8.51862846715127
100
AcDbArc
 50
277.9707037684889
 51
305.0634243967846
  0
ARC
  5
188
330
144
100
AcDbEntity
  8
0
  6
Continuous
 62
     4
100
AcDbCircle
 10
4.999416050656795
 20
17.01857843345664
 30
0.0
 40
8.51862846715127
100
AcDbArc
 50
277.9707037684889
 51
305.0634243967846
  0
ARC
  5
189
330
144
100
AcDbEntity
  8
0
  6
Continuous
 62
     4
100
AcDbCircle
 10
15.87754520263723
 20
2.020409950452574
 30
0.0
 40
10.0
100
AcDbArc
 50
155.0415166757974
 51
189.2093958559823
  0
ARC
  5
18A
330
144
100
AcDbEntity
  8
0
  6
Continuous
 62
     4
100
AcDbCircle
 10
15.87754520263723
 20
2.020409950452574
 30
0.0
 40
10.0
100
AcDbArc
 50
155.0415166757974
 51
189.2093958559823
  0
ENDBLK
  5
146
330
144
100
AcDbEntity
  8
0
100
AcDbBlockEnd
  0
BLOCK
  5
18C
330
18B
100
AcDbEntity
  8
0
100
AcDbBlockBegin
  2
GEN_BLOCK00015
 70
     0
 10
0.0
 20
0.0
 30
0.0
  3
GEN_BLOCK00015
  1
GEN_BLOCK00015
  0
LINE
  5
18F
330
18B
100
AcDbEntity
  8
1
  6
Continuous
 62
     4
100
AcDbLine
 10
-0.0000007559463029
 20
0.1580940273375475
 30
0.0
 11
0.3014784181017518
 21
0.3224124341343781
 31
0.0
  0
LINE
  5
190
330
18B
100
AcDbEntity
  8
1
  6
Continuous
 62
     4
100
AcDbLine
 10
0.3014784181017518
 20
0.322412434134371
 30
0.0
 11
0.4772063308529155
 21
-0.0000000516372651
 31
0.0
  0
ENDBLK
  5
18D
330
18B
100
AcDbEntity
  8
0
100
AcDbBlockEnd
  0
BLOCK
  5
192
330
191
100
AcDbEntity
  8
0
100
AcDbBlockBegin
  2
GEN_BLOCK00016
 70
     0
 10
0.0
 20
0.0
 30
0.0
  3
GEN_BLOCK00016
  1
GEN_BLOCK00016
  0
LINE
  5
195
330
191
100
AcDbEntity
  8
1
  6
Continuous
 62
     4
100
AcDbLine
 10
0.0000015155833069
 20
0.2864538953867211
 30
0.0
 11
0.3356184924170194
 21
0.3589209641693074
 31
0.0
  0
LINE
  5
196
330
191
100
AcDbEntity
  8
1
  6
Continuous
 62
     4
100
AcDbLine
 10
0.3356184924170194
 20
0.3589209641693003
 30
0.0
 11
0.4131173374253621
 21
0.0000003053550302
 31
0.0
  0
ENDBLK
  5
193
330
191
100
AcDbEntity
  8
0
100
AcDbBlockEnd
  0
BLOCK
  5
198
330
197
100
AcDbEntity
  8
0
100
AcDbBlockBegin
  2
GEN_BLOCK00017
 70
     0
 10
0.0
 20
0.0
 30
0.0
  3
GEN_BLOCK00017
  1
GEN_BLOCK00017
  0
LINE
  5
19B
330
197
100
AcDbEntity
  8
1
  6
Continuous
 62
     4
100
AcDbLine
 10
-0.0000002975939353
 20
0.0233961480728411
 30
0.0
 11
0.2459255053441254
 21
0.263001512466488
 31
0.0
  0
LINE
  5
19C
330
197
100
AcDbEntity
  8
1
  6
Continuous
 62
     4
100
AcDbLine
 10
0.2459255053441325
 20
0.263001512466488
 30
0.0
 11
0.5021679518823206
 21
-0.0000002344734753
 31
0.0
  0
ENDBLK
  5
199
330
197
100
AcDbEntity
  8
0
100
AcDbBlockEnd
  0
BLOCK
  5
19E
330
19D
100
AcDbEntity
  8
0
100
AcDbBlockBegin
  2
GEN_BLOCK00018
 70
     0
 10
0.0
 20
0.0
 30
0.0
  3
GEN_BLOCK00018
  1
GEN_BLOCK00018
  0
LINE
  5
1A1
330
19D
100
AcDbEntity
  8
1
  6
Continuous
 62
     4
100
AcDbLine
 10
0.0000003498736731
 20
0.3127157569130858
 30
0.0
 11
0.3396198808490993
 21
0.3632014516886599
 31
0.0
  0
LINE
  5
1A2
330
19D
100
AcDbEntity
  8
1
  6
Continuous
 62
     4
100
AcDbLine
 10
0.3396198808490993
 20
0.3632014516886528
 30
0.0
 11
0.3936110674705589
 21
0.0000003199881817
 31
0.0
  0
ENDBLK
  5
19F
330
19D
100
AcDbEntity
  8
0
100
AcDbBlockEnd
  0
BLOCK
  5
1A4
330
1A3
100
AcDbEntity
  8
0
100
AcDbBlockBegin
  2
GEN_BLOCK00019
 70
     0
 10
0.0
 20
0.0
 30
0.0
  3
GEN_BLOCK00019
  1
GEN_BLOCK00019
  0
LINE
  5
1A7
330
1A3
100
AcDbEntity
  8
1
  6
Continuous
 62
     4
100
AcDbLine
 10
0.0000011377201758
 20
0.2186984541875745
 30
0.0
 11
0.3202585261316671
 21
0.3424944006672206
 31
0.0
  0
LINE
  5
1A8
330
1A3
100
AcDbEntity
  8
1
  6
Continuous
 62
     4
100
AcDbLine
 10
0.3202585261316671
 20
0.3424944006672135
 30
0.0
 11
0.4526502873834914
 21
-0.0000001713393445
 31
0.0
  0
ENDBLK
  5
1A5
330
1A3
100
AcDbEntity
  8
0
100
AcDbBlockEnd
  0
BLOCK
  5
1AA
330
1A9
100
AcDbEntity
  8
0
100
AcDbBlockBegin
  2
GEN_BLOCK00020
 70
     0
 10
0.0
 20
0.0
 30
0.0
  3
GEN_BLOCK00020
  1
GEN_BLOCK00020
  0
LINE
  5
1AD
330
1A9
100
AcDbEntity
  8
1
  6
Continuous
 62
     4
100
AcDbLine
 10
-0.0000000181564133
 20
0.0494994657885997
 30
0.0
 11
0.2580624891266581
 21
0.2759811947022541
 31
0.0
  0
LINE
  5
1AE
330
1A9
100
AcDbEntity
  8
1
  6
Continuous
 62
     4
100
AcDbLine
 10
0.2580624891266652
 20
0.275981194702247
 30
0.0
 11
0.5002700559726563
 21
0.0000000271130673
 31
0.0
  0
ENDBLK
  5
1AB
330
1A9
100
AcDbEntity
  8
0
100
AcDbBlockEnd
  0
BLOCK
  5
1B0
330
1AF
100
AcDbEntity
  8
0
100
AcDbBlockBegin
  2
GEN_BLOCK00021
 70
     0
 10
0.0
 20
0.0
 30
0.0
  3
GEN_BLOCK00021
  1
GEN_BLOCK00021
  0
LINE
  5
1B3
330
1AF
100
AcDbEntity
  8
1
  6
Continuous
 62
     4
100
AcDbLine
 10
0.000000185414379
 20
0.2245717344603193
 30
0.0
 11
0.3218418288368028
 21
0.3441885717203803
 31
0.0
  0
LINE
  5
1B4
330
1AF
100
AcDbEntity
  8
1
  6
Continuous
 62
     4
100
AcDbLine
 10
0.3218418288368028
 20
0.3441885717203732
 30
0.0
 11
0.4497643029610785
 21
-0.0000002585969909
 31
0.0
  0
ENDBLK
  5
1B1
330
1AF
100
AcDbEntity
  8
0
100
AcDbBlockEnd
  0
BLOCK
  5
1B6
330
1B5
100
AcDbEntity
  8
0
100
AcDbBlockBegin
  2
GEN_BLOCK00022
 70
     0
 10
0.0
 20
0.0
 30
0.0
  3
GEN_BLOCK00022
  1
GEN_BLOCK00022
  0
LINE
  5
1B9
330
1B5
100
AcDbEntity
  8
1
  6
Continuous
 62
     4
100
AcDbLine
 10
-0.0000002779980264
 20
0.0429836100462566
 30
0.0
 11
0.2550923735824284
 21
0.2728052154418208
 31
0.0
  0
LINE
  5
1BA
330
1B5
100
AcDbEntity
  8
1
  6
Continuous
 62
     4
100
AcDbLine
 10
0.2550923735824355
 20
0.2728052154418137
 30
0.0
 11
0.5008717224001131
 21
0.0000001165230046
 31
0.0
  0
ENDBLK
  5
1B7
330
1B5
100
AcDbEntity
  8
0
100
AcDbBlockEnd
  0
BLOCK
  5
1BC
330
1BB
100
AcDbEntity
  8
0
100
AcDbBlockBegin
  2
GEN_BLOCK00023
 70
     0
 10
0.0
 20
0.0
 30
0.0
  3
GEN_BLOCK00023
  1
GEN_BLOCK00023
  0
LINE
  5
1BF
330
1BB
100
AcDbEntity
  8
1
  6
Continuous
 62
     4
100
AcDbLine
 10
0.0000015331349132
 20
0.1518688493326081
 30
0.0
 11
0.2993163204861631
 21
0.3200975308046381
 31
0.0
  0
LINE
  5
1C0
330
1BB
100
AcDbEntity
  8
1
  6
Continuous
 62
     4
100
AcDbLine
 10
0.2993163204861702
 20
0.3200975308046381
 30
0.0
 11
0.4792260192000342
 21
-0.0000002833241268
 31
0.0
  0
ENDBLK
  5
1BD
330
1BB
100
AcDbEntity
  8
0
100
AcDbBlockEnd
  0
BLOCK
  5
1C2
330
1C1
100
AcDbEntity
  8
0
100
AcDbBlockBegin
  2
GEN_BLOCK00024
 70
     0
 10
0.0
 20
0.0
 30
0.0
  3
GEN_BLOCK00024
  1
GEN_BLOCK00024
  0
LINE
  5
1C5
330
1C1
100
AcDbEntity
  8
1
  6
Continuous
 62
     4
100
AcDbLine
 10
0.0000001985249867
 20
-0.0000000661767459
 30
0.0
 11
0.3428046512070395
 21
0.0193735865067879
 31
0.0
  0
ENDBLK
  5
1C3
330
1C1
100
AcDbEntity
  8
0
100
AcDbBlockEnd
  0
BLOCK
  5
1C7
330
1C6
100
AcDbEntity
  8
0
100
AcDbBlockBegin
  2
_RASTER_[X__IMAGES_LOGO_JPG]
 70
     2
 10
0.0
 20
0.0
 30
0.0
  3
_RASTER_[X__IMAGES_LOGO_JPG]
  1
_RASTER_[X__IMAGES_LOGO_JPG]
  0
ATTDEF
  5
1C9
330
1C6
100
AcDbEntity
  8
1
100
AcDbText
 10
0.0
 20
0.0
 30
0.0
 40
1.0
  1

100
AcDbAttributeDefinition
  3
Enter PAT_NAME
  2
PAT_NAME
 70
     0
280
     0
  0
ATTDEF
  5
1CA
330
1C6
100
AcDbEntity
  8
1
100
AcDbText
 10
0.0
 20
0.0
 30
0.0
 40
1.0
  1

100
AcDbAttributeDefinition
  3
Enter Symbol_Description
  2
Symbol_Description
 70
     0
280
     0
  0
ENDBLK
  5
1C8
330
1C6
100
AcDbEntity
  8
0
100
AcDbBlockEnd
  0
BLOCK
  5
1D0
330
1CF
100
AcDbEntity
  8
0
100
AcDbBlockBegin
  2
GEN_BLOCK00025
 70
     2
 10
0.0
 20
0.0
 30
0.0
  3
GEN_BLOCK00025
  1
GEN_BLOCK00025
  0
ATTDEF
  5
1D2
330
1CF
100
AcDbEntity
  8
1
100
AcDbText
 10
0.0
 20
0.0
 30
0.0
 40
1.0
  1

100
AcDbAttributeDefinition
  3
Enter Symbol_Description
  2
Symbol_Description
 70
     0
280
     0
  0
LINE
  5
1D6
330
1CF
100
AcDbEntity
  8
1
  6
Continuous
 62
     9
100
AcDbLine
 10
-0.0000001335143915
 20
0.0000015258789148
 30
0.0
 11
31.9999998664856
 21
0.0000015258789148
 31
0.0
  0
LINE
  5
1D7
330
1CF
100
AcDbEntity
  8
1
  6
Continuous
 62
     9
100
AcDbLine
 10
31.9999998664856
 20
10.00000152587889
 30
0.0
 11
31.9999998664856
 21
0.0000015258789006
 31
0.0
  0
ENDBLK
  5
1D1
330
1CF
100
AcDbEntity
  8
0
100
AcDbBlockEnd
  0
BLOCK
  5
1D9
330
1D8
100
AcDbEntity
  8
0
100
AcDbBlockBegin
  2
GEN_BLOCK00026
 70
     0
 10
0.0
 20
0.0
 30
0.0
  3
GEN_BLOCK00026
  1
GEN_BLOCK00026
  0
LINE
  5
1DC
330
1D8
100
AcDbEntity
  8
1
  6
Continuous
 62
     4
100
AcDbLine
 10
-0.0000001329053632
 20
0.0819315344785068
 30
0.0
 11
0.2722459747990769
 21
0.2911498129264629
 31
0.0
  0
LINE
  5
1DD
330
1D8
100
AcDbEntity
  8
1
  6
Continuous
 62
     4
100
AcDbLine
 10
0.2722459747990804
 20
0.2911498129264558
 30
0.0
 11
0.4959913974680674
 21
0.000000201667909
 31
0.0
  0
ENDBLK
  5
1DA
330
1D8
100
AcDbEntity
  8
0
100
AcDbBlockEnd
  0
BLOCK
  5
1DF
330
1DE
100
AcDbEntity
  8
0
100
AcDbBlockBegin
  2
GEN_BLOCK00027
 70
     0
 10
0.0
 20
0.0
 30
0.0
  3
GEN_BLOCK00027
  1
GEN_BLOCK00027
  0
LINE
  5
1E2
330
1DE
100
AcDbEntity
  8
1
  6
Continuous
 62
    10
100
AcDbLine
 10
34.19251251220704
 20
8.500001520858822
 30
0.0
 11
34.19251288375386
 21
0.0000015034040217
 31
0.0
  0
LINE
  5
1E3
330
1DE
100
AcDbEntity
  8
1
  6
Continuous
 62
    10
100
AcDbLine
 10
34.19251251220704
 20
8.500001520858822
 30
0.0
 11
34.19251214066023
 21
17.00000153831362
 31
0.0
  0
LINE
  5
1E4
330
1DE
100
AcDbEntity
  8
1
  6
Continuous
 62
    10
100
AcDbLine
 10
34.44251284004247
 20
1.000001514331871
 30
0.0
 11
34.19251288375386
 21
0.0000015034040217
 31
0.0
  0
LINE
  5
1E5
330
1DE
100
AcDbEntity
  8
1
  6
Continuous
 62
    10
100
AcDbLine
 10
34.19251288375386
 20
0.0000015034040217
 30
0.0
 11
33.94251284004247
 21
1.000001492476173
 31
0.0
  0
LINE
  5
1E6
330
1DE
100
AcDbEntity
  8
1
  6
Continuous
 62
    10
100
AcDbLine
 10
33.94251218437162
 20
16.00000152738578
 30
0.0
 11
34.19251214066023
 21
17.00000153831362
 31
0.0
  0
LINE
  5
1E7
330
1DE
100
AcDbEntity
  8
1
  6
Continuous
 62
    10
100
AcDbLine
 10
34.19251214066023
 20
17.00000153831362
 30
0.0
 11
34.44251218437162
 21
16.00000154924147
 31
0.0
  0
LINE
  5
1E8
330
1DE
100
AcDbEntity
  8
1
  6
Continuous
 62
    10
100
AcDbLine
 10
0.7986392974853516
 20
0.0000000437113883
 30
0.0
 11
34.69251288375386
 21
0.0000015252597159
 31
0.0
  0
LINE
  5
1E9
330
1DE
100
AcDbEntity
  8
1
  6
Continuous
 62
    10
100
AcDbLine
 10
-0.0000000000000036
 20
17.00000004371139
 30
0.0
 11
34.69251214066023
 21
17.00000156016932
 31
0.0
  0
TEXT
  5
1EA
330
1DE
100
AcDbEntity
  8
1
  6
Continuous
 62
     1
100
AcDbText
 10
33.0924999710179
 20
6.292473954780792
 30
0.0
 40
1.0
  1
17
 50
89.71352388012032
100
AcDbText
  0
TEXT
  5
1EB
330
1DE
100
AcDbEntity
  8
1
  6
Continuous
 62
     1
100
AcDbText
 10
32.30825975246889
 20
9.446434525176402
 30
0.0
 40
0.6
  1
+2
 50
89.71352388012032
100
AcDbText
  0
TEXT
  5
1EC
330
1DE
100
AcDbEntity
  8
1
  6
Continuous
 62
     1
100
AcDbText
 10
33.50824475279101
 20
9.440434608351357
 30
0.0
 40
0.6
  1
-2
 50
89.71352388012032
100
AcDbText
  0
ENDBLK
  5
1E0
330
1DE
100
AcDbEntity
  8
0
100
AcDbBlockEnd
  0
BLOCK
  5
1EE
330
1ED
100
AcDbEntity
  8
0
100
AcDbBlockBegin
  2
GEN_BLOCK00028
 70
     0
 10
0.0
 20
0.0
 30
0.0
  3
GEN_BLOCK00028
  1
GEN_BLOCK00028
  0
LINE
  5
1F1
330
1ED
100
AcDbEntity
  8
1
  6
Continuous
 62
     4
100
AcDbLine
 10
-0.0000003564400828
 20
0.1704627822252931
 30
0.0
 11
0.3056539888970562
 21
0.3268777826998956
 31
0.0
  0
LINE
  5
1F2
330
1ED
100
AcDbEntity
  8
1
  6
Continuous
 62
     4
100
AcDbLine
 10
0.3056539888970562
 20
0.3268777826998885
 30
0.0
 11
0.4729297195482189
 21
0.0000002211627859
 31
0.0
  0
ENDBLK
  5
1EF
330
1ED
100
AcDbEntity
  8
0
100
AcDbBlockEnd
  0
BLOCK
  5
1F5
330
1F4
100
AcDbEntity
  8
0
100
AcDbBlockBegin
  2
LOOSE
 70
     2
 10
0.0
 20
0.0
 30
0.0
  3
LOOSE
  1
LOOSE
  0
ATTDEF
  5
1F7
330
1F4
100
AcDbEntity
  8
DIMENSION
100
AcDbText
 10
0.0
 20
0.0
 30
0.0
 40
1.0
  1

100
AcDbAttributeDefinition
  3
Enter PAT_NAME
  2
PAT_NAME
 70
     0
280
     0
  0
LINE
  5
1FB
330
1F4
100
AcDbEntity
  8
DIMENSION
  6
Continuous
 62
     1
100
AcDbLine
 10
9.750237489855914
 20
1.889132146460149
 30
0.0
 11
12.08078721288393
 21
4.219681869488159
 31
0.0
  0
LINE
  5
1FC
330
1F4
100
AcDbEntity
  8
DIMENSION
  6
Continuous
 62
     1
100
AcDbLine
 10
35.67914600843585
 20
5.367400362367217
 30
0.0
 11
38.57047650439227
 21
8.258730858323645
 31
0.0
  0
ARC
  5
1FD
330
1F4
100
AcDbEntity
  8
DIMENSION
  6
Continuous
 62
     1
100
AcDbCircle
 10
2.988613276699347
 20
0.0000000000000071
 30
0.0
 40
3.0
100
AcDbArc
 50
90.00000000000068
 51
174.7840914295459
  0
ARC
  5
1FE
330
1F4
100
AcDbEntity
  8
DIMENSION
  6
Continuous
 62
     1
100
AcDbCircle
 10
2.988613276699347
 20
0.0000000000000071
 30
0.0
 40
3.0
100
AcDbArc
 50
90.00000000000068
 51
174.7840914295459
  0
LINE
  5
1FF
330
1F4
100
AcDbEntity
  8
DIMENSION
  6
Continuous
 62
     1
100
AcDbLine
 10
13.69067487855083
 20
0.0000000000000071
 30
0.0
 11
12.97987625023089
 21
0.0000000000000071
 31
0.0
  0
LINE
  5
200
330
1F4
100
AcDbEntity
  8
DIMENSION
  6
Continuous
 62
     1
100
AcDbLine
 10
43.98861327669935
 20
8.762443348173754
 30
0.0
 11
43.98861327669935
 21
12.00000000000001
 31
0.0
  0
ARC
  5
201
330
1F4
100
AcDbEntity
  8
DIMENSION
  6
Continuous
 62
     1
100
AcDbCircle
 10
2.988613276699347
 20
0.0000000000000071
 30
0.0
 40
1.0
100
AcDbArc
 50
85.30216901475181
 51
168.4630409671843
  0
ARC
  5
202
330
1F4
100
AcDbEntity
  8
DIMENSION
  6
Continuous
 62
     1
100
AcDbCircle
 10
2.988613276699347
 20
0.0000000000000071
 30
0.0
 40
1.0
100
AcDbArc
 50
85.30216901475181
 51
168.4630409671843
  0
ARC
  5
203
330
1F4
100
AcDbEntity
  8
DIMENSION
  6
Continuous
 62
     1
100
AcDbCircle
 10
13.69067487855083
 20
0.2500000000000071
 30
0.0
 40
0.25
100
AcDbArc
 50
270.0
 51
9.999999999999837
  0
ARC
  5
204
330
1F4
100
AcDbEntity
  8
DIMENSION
  6
Continuous
 62
     1
100
AcDbCircle
 10
13.69067487855083
 20
0.2500000000000071
 30
0.0
 40
0.25
100
AcDbArc
 50
270.0
 51
9.999999999999837
  0
ARC
  5
205
330
1F4
100
AcDbEntity
  8
DIMENSION
  6
Continuous
 62
     1
100
AcDbCircle
 10
12.97987625023089
 20
0.2500000000000071
 30
0.0
 40
0.25
100
AcDbArc
 50
190.0
 51
270.0
  0
ARC
  5
206
330
1F4
100
AcDbEntity
  8
DIMENSION
  6
Continuous
 62
     1
100
AcDbCircle
 10
12.97987625023089
 20
0.2500000000000071
 30
0.0
 40
0.25
100
AcDbArc
 50
190.0
 51
270.0
  0
LINE
  5
207
330
1F4
100
AcDbEntity
  8
DIMENSION
  6
Continuous
 62
     1
100
AcDbLine
 10
1.763868405307825
 20
0.0000000000000071
 30
0.0
 11
0.2500004891735799
 21
0.0000000000000071
 31
0.0
  0
ARC
  5
208
330
1F4
100
AcDbEntity
  8
DIMENSION
  6
Continuous
 62
     1
100
AcDbCircle
 10
0.2500004891735799
 20
0.2500000000000071
 30
0.0
 40
0.25
100
AcDbArc
 50
174.7840914295457
 51
270.0
  0
ARC
  5
209
330
1F4
100
AcDbEntity
  8
DIMENSION
  6
Continuous
 62
     1
100
AcDbCircle
 10
0.2500004891735799
 20
0.2500000000000071
 30
0.0
 40
0.25
100
AcDbArc
 50
174.7840914295457
 51
270.0
  0
ARC
  5
20A
330
1F4
100
AcDbEntity
  8
DIMENSION
  6
Continuous
 62
     1
100
AcDbCircle
 10
1.763868405307825
 20
0.2500000000000071
 30
0.0
 40
0.25
100
AcDbArc
 50
270.0
 51
348.4630409671851
  0
ARC
  5
20B
330
1F4
100
AcDbEntity
  8
DIMENSION
  6
Continuous
 62
     1
100
AcDbCircle
 10
1.763868405307825
 20
0.2500000000000071
 30
0.0
 40
0.25
100
AcDbArc
 50
270.0
 51
348.4630409671851
  0
LINE
  5
20C
330
1F4
100
AcDbEntity
  8
DIMENSION
  6
Continuous
 62
     1
100
AcDbLine
 10
46.98861327669946
 20
2.93301270189216
 30
0.0
 11
46.98861327669935
 21
3.35000000000003
 31
0.0
  0
LINE
  5
20D
330
1F4
100
AcDbEntity
  8
DIMENSION
  6
Continuous
 62
     1
100
AcDbLine
 10
45.78861327669942
 20
13.25000000000001
 30
0.0
 11
45.78861327669942
 21
9.750000000000007
 31
0.0
  0
LINE
  5
20E
330
1F4
100
AcDbEntity
  8
DIMENSION
  6
Continuous
 62
     1
100
AcDbLine
 10
46.98861327669935
 20
11.00000000000001
 30
0.0
 11
46.98861327669935
 21
9.750000000000007
 31
0.0
  0
LINE
  5
20F
330
1F4
100
AcDbEntity
  8
DIMENSION
  6
Continuous
 62
     1
100
AcDbLine
 10
46.03861327669942
 20
9.500000000000007
 30
0.0
 11
46.73861327669935
 21
9.500000000000007
 31
0.0
  0
LINE
  5
210
330
1F4
100
AcDbEntity
  8
DIMENSION
  6
Continuous
 62
     1
100
AcDbLine
 10
47.98861327669935
 20
11.00000000000001
 30
0.0
 11
47.98861327669946
 21
3.221687836487042
 31
0.0
  0
LINE
  5
211
330
1F4
100
AcDbEntity
  8
DIMENSION
  6
Continuous
 62
     1
100
AcDbLine
 10
45.78861327669942
 20
3.35000000000003
 30
0.0
 11
45.7886132766993
 21
1.599999999999916
 31
0.0
  0
LINE
  5
212
330
1F4
100
AcDbEntity
  8
DIMENSION
  6
Continuous
 62
     1
100
AcDbLine
 10
45.78861327669942
 20
1.599999999999916
 30
0.0
 11
45.7886132766993
 21
0.2500000000000071
 31
0.0
  0
ARC
  5
213
330
1F4
100
AcDbEntity
  8
DIMENSION
  6
Continuous
 62
     1
100
AcDbCircle
 10
46.73861327669935
 20
3.35000000000003
 30
0.0
 40
0.25
100
AcDbArc
 50
0.0000000000004071
 51
90.0
  0
ARC
  5
214
330
1F4
100
AcDbEntity
  8
DIMENSION
  6
Continuous
 62
     1
100
AcDbCircle
 10
46.73861327669935
 20
3.35000000000003
 30
0.0
 40
0.25
100
AcDbArc
 50
0.0000000000004071
 51
90.0
  0
ARC
  5
215
330
1F4
100
AcDbEntity
  8
DIMENSION
  6
Continuous
 62
     1
100
AcDbCircle
 10
46.73861327669935
 20
9.750000000000007
 30
0.0
 40
0.25
100
AcDbArc
 50
270.0000000000003
 51
359.9999999999996
  0
ARC
  5
216
330
1F4
100
AcDbEntity
  8
DIMENSION
  6
Continuous
 62
     1
100
AcDbCircle
 10
46.73861327669935
 20
9.750000000000007
 30
0.0
 40
0.25
100
AcDbArc
 50
270.0000000000003
 51
359.9999999999996
  0
ARC
  5
217
330
1F4
100
AcDbEntity
  8
DIMENSION
  6
Continuous
 62
     1
100
AcDbCircle
 10
46.03861327669942
 20
9.750000000000007
 30
0.0
 40
0.25
100
AcDbArc
 50
179.9999999999998
 51
270.0
  0
ARC
  5
218
330
1F4
100
AcDbEntity
  8
DIMENSION
  6
Continuous
 62
     1
100
AcDbCircle
 10
46.03861327669942
 20
9.750000000000007
 30
0.0
 40
0.25
100
AcDbArc
 50
179.9999999999998
 51
270.0
  0
ARC
  5
219
330
1F4
100
AcDbEntity
  8
DIMENSION
  6
Continuous
 62
     1
100
AcDbCircle
 10
45.53861327669942
 20
13.25000000000001
 30
0.0
 40
0.25
100
AcDbArc
 50
359.9999999999998
 51
90.0
  0
ARC
  5
21A
330
1F4
100
AcDbEntity
  8
DIMENSION
  6
Continuous
 62
     1
100
AcDbCircle
 10
45.53861327669942
 20
13.25000000000001
 30
0.0
 40
0.25
100
AcDbArc
 50
359.9999999999998
 51
90.0
  0
LINE
  5
21B
330
1F4
100
AcDbEntity
  8
DIMENSION
  6
Continuous
 62
     1
100
AcDbLine
 10
46.03861327669942
 20
3.60000000000003
 30
0.0
 11
46.73861327669935
 21
3.60000000000003
 31
0.0
  0
ARC
  5
21C
330
1F4
100
AcDbEntity
  8
DIMENSION
  6
Continuous
 62
     1
100
AcDbCircle
 10
46.03861327669942
 20
3.35000000000003
 30
0.0
 40
0.25
100
AcDbArc
 50
90.00000000000044
 51
179.9999999999996
  0
ARC
  5
21D
330
1F4
100
AcDbEntity
  8
DIMENSION
  6
Continuous
 62
     1
100
AcDbCircle
 10
46.03861327669942
 20
3.35000000000003
 30
0.0
 40
0.25
100
AcDbArc
 50
90.00000000000044
 51
179.9999999999996
  0
ARC
  5
21E
330
1F4
100
AcDbEntity
  8
DIMENSION
  6
Continuous
 62
     1
100
AcDbCircle
 10
47.48861327669935
 20
11.00000000000001
 30
0.0
 40
0.5
100
AcDbArc
 50
90.0000000000004
 51
179.9999999999991
  0
ARC
  5
21F
330
1F4
100
AcDbEntity
  8
DIMENSION
  6
Continuous
 62
     1
100
AcDbCircle
 10
47.48861327669935
 20
11.00000000000001
 30
0.0
 40
0.5
100
AcDbArc
 50
90.0000000000004
 51
179.9999999999991
  0
ARC
  5
220
330
1F4
100
AcDbEntity
  8
DIMENSION
  6
Continuous
 62
     1
100
AcDbCircle
 10
47.48861327669935
 20
11.00000000000001
 30
0.0
 40
0.5
100
AcDbArc
 50
0.0000000000004326
 51
90.00000000000082
  0
ARC
  5
221
330
1F4
100
AcDbEntity
  8
DIMENSION
  6
Continuous
 62
     1
100
AcDbCircle
 10
47.48861327669935
 20
11.00000000000001
 30
0.0
 40
0.5
100
AcDbArc
 50
0.0000000000004326
 51
90.00000000000082
  0
LINE
  5
222
330
1F4
100
AcDbEntity
  8
DIMENSION
  6
Continuous
 62
     1
100
AcDbLine
 10
44.03861327669942
 20
0.0000000000000071
 30
0.0
 11
45.5386132766993
 21
0.0000000000000071
 31
0.0
  0
LINE
  5
223
330
1F4
100
AcDbEntity
  8
DIMENSION
  6
Continuous
 62
     1
100
AcDbLine
 10
43.78861327669942
 20
0.2500000000000071
 30
0.0
 11
43.78861327669942
 21
1.605475873496296
 31
0.0
  0
LINE
  5
224
330
1F4
100
AcDbEntity
  8
DIMENSION
  6
Continuous
 62
     1
100
AcDbLine
 10
37.7886132766993
 20
0.0000000000000071
 30
0.0
 11
36.88861327669932
 21
0.8999999999999844
 31
0.0
  0
LINE
  5
225
330
1F4
100
AcDbEntity
  8
DIMENSION
  6
Continuous
 62
     1
100
AcDbLine
 10
35.78861327669942
 20
0.0000000000000071
 30
0.0
 11
35.78861327669942
 21
1.214213562373068
 31
0.0
  0
LINE
  5
226
330
1F4
100
AcDbEntity
  8
DIMENSION
  6
Continuous
 62
     1
100
AcDbLine
 10
36.88861327669932
 20
0.8999999999999844
 30
0.0
 11
39.23861327669935
 21
3.250000000000007
 31
0.0
  0
LINE
  5
227
330
1F4
100
AcDbEntity
  8
DIMENSION
  6
Continuous
 62
     1
100
AcDbLine
 10
35.78861327669942
 20
1.214213562373068
 30
0.0
 11
39.97476572465806
 21
5.40036601033183
 31
0.0
  0
LINE
  5
228
330
1F4
100
AcDbEntity
  8
DIMENSION
  6
Continuous
 62
     1
100
AcDbLine
 10
41.78861327669942
 20
3.949999999999939
 30
0.0
 11
39.93861327669939
 21
3.949999999999939
 31
0.0
  0
LINE
  5
229
330
1F4
100
AcDbEntity
  8
DIMENSION
  6
Continuous
 62
     1
100
AcDbLine
 10
41.78861327669942
 20
3.250000000000007
 30
0.0
 11
39.23861327669935
 21
3.250000000000007
 31
0.0
  0
ARC
  5
22A
330
1F4
100
AcDbEntity
  8
DIMENSION
  6
Continuous
 62
     1
100
AcDbCircle
 10
41.78861327669942
 20
3.60000000000003
 30
0.0
 40
0.35
100
AcDbArc
 50
270.0
 51
90.0
  0
ARC
  5
22B
330
1F4
100
AcDbEntity
  8
DIMENSION
  6
Continuous
 62
     1
100
AcDbCircle
 10
41.78861327669942
 20
3.60000000000003
 30
0.0
 40
0.35
100
AcDbArc
 50
270.0
 51
90.0
  0
ARC
  5
22C
330
1F4
100
AcDbEntity
  8
DIMENSION
  6
Continuous
 62
     1
100
AcDbCircle
 10
45.5386132766993
 20
0.2500000000000071
 30
0.0
 40
0.25
100
AcDbArc
 50
270.0
 51
0.0
  0
ARC
  5
22D
330
1F4
100
AcDbEntity
  8
DIMENSION
  6
Continuous
 62
     1
100
AcDbCircle
 10
45.5386132766993
 20
0.2500000000000071
 30
0.0
 40
0.25
100
AcDbArc
 50
270.0
 51
0.0
  0
ARC
  5
22E
330
1F4
100
AcDbEntity
  8
DIMENSION
  6
Continuous
 62
     1
100
AcDbCircle
 10
44.03861327669942
 20
0.2500000000000071
 30
0.0
 40
0.25
100
AcDbArc
 50
180.0
 51
270.0
  0
ARC
  5
22F
330
1F4
100
AcDbEntity
  8
DIMENSION
  6
Continuous
 62
     1
100
AcDbCircle
 10
44.03861327669942
 20
0.2500000000000071
 30
0.0
 40
0.25
100
AcDbArc
 50
180.0
 51
270.0
  0
ARC
  5
230
330
1F4
100
AcDbEntity
  8
DIMENSION
  6
Continuous
 62
     1
100
AcDbCircle
 10
41.69216666729259
 20
5.35000000000003
 30
0.0
 40
0.25
100
AcDbArc
 50
90.0
 51
135.0
  0
ARC
  5
231
330
1F4
100
AcDbEntity
  8
DIMENSION
  6
Continuous
 62
     1
100
AcDbCircle
 10
41.69216666729259
 20
5.35000000000003
 30
0.0
 40
0.25
100
AcDbArc
 50
90.0
 51
135.0
  0
LINE
  5
232
330
1F4
100
AcDbEntity
  8
DIMENSION
  6
Continuous
 62
     1
100
AcDbLine
 10
37.7886132766993
 20
0.0000000000000071
 30
0.0
 11
35.78861327669942
 21
0.0000000000000071
 31
0.0
  0
LINE
  5
233
330
1F4
100
AcDbEntity
  8
DIMENSION
  6
Continuous
 62
     1
100
AcDbLine
 10
39.93861327669939
 20
3.949999999999939
 30
0.0
 11
41.51538997199604
 21
5.526776695296583
 31
0.0
  0
LINE
  5
234
330
1F4
100
AcDbEntity
  8
DIMENSION
  6
Continuous
 62
     1
100
AcDbLine
 10
41.69216666729259
 20
5.60000000000003
 30
0.0
 11
43.78313740320304
 21
5.60000000000003
 31
0.0
  0
ARC
  5
235
330
1F4
100
AcDbEntity
  8
DIMENSION
  6
Continuous
 62
     1
100
AcDbCircle
 10
41.78861327669942
 20
3.60000000000003
 30
0.0
 40
2.824557751437439
100
AcDbArc
 50
315.078543584672
 51
45.07854358467217
  0
ARC
  5
236
330
1F4
100
AcDbEntity
  8
DIMENSION
  6
Continuous
 62
     1
100
AcDbCircle
 10
41.78861327669942
 20
3.60000000000003
 30
0.0
 40
2.824557751437439
100
AcDbArc
 50
315.078543584672
 51
45.07854358467217
  0
LINE
  5
237
330
1F4
100
AcDbEntity
  8
DIMENSION
  6
Continuous
 62
     1
100
AcDbLine
 10
45.78861327669942
 20
13.50000000000001
 30
0.0
 11
45.48861327669935
 21
13.50000000000001
 31
0.0
  0
LINE
  5
238
330
1F4
100
AcDbEntity
  8
DIMENSION
  6
Continuous
 62
     1
100
AcDbLine
 10
47.86361327669946
 20
2.827053201605175
 30
0.0
 11
47.36361327669946
 21
2.538378067010406
 31
0.0
  0
ARC
  5
239
330
1F4
100
AcDbEntity
  8
DIMENSION
  6
Continuous
 62
     1
100
AcDbCircle
 10
47.23861327669946
 20
2.754884417956539
 30
0.0
 40
0.25
100
AcDbArc
 50
180.0000000000007
 51
300.0
  0
ARC
  5
23A
330
1F4
100
AcDbEntity
  8
DIMENSION
  6
Continuous
 62
     1
100
AcDbCircle
 10
47.23861327669946
 20
2.754884417956539
 30
0.0
 40
0.25
100
AcDbArc
 50
180.0000000000007
 51
300.0
  0
ARC
  5
23B
330
1F4
100
AcDbEntity
  8
DIMENSION
  6
Continuous
 62
     1
100
AcDbCircle
 10
47.73861327669946
 20
3.043559552551308
 30
0.0
 40
0.25
100
AcDbArc
 50
300.0000000000001
 51
0.000000000000458
  0
ARC
  5
23C
330
1F4
100
AcDbEntity
  8
DIMENSION
  6
Continuous
 62
     1
100
AcDbCircle
 10
47.73861327669946
 20
3.043559552551308
 30
0.0
 40
0.25
100
AcDbArc
 50
300.0000000000001
 51
0.000000000000458
  0
LINE
  5
23D
330
1F4
100
AcDbEntity
  8
DIMENSION
  6
Continuous
 62
     1
100
AcDbLine
 10
46.98861327669946
 20
2.93301270189216
 30
0.0
 11
46.98861327669946
 21
2.754884417956539
 31
0.0
  0
LINE
  5
23E
330
1F4
100
AcDbEntity
  8
DIMENSION
  6
Continuous
 62
     1
100
AcDbLine
 10
47.98861327669946
 20
3.221687836487042
 30
0.0
 11
47.98861327669946
 21
3.043559552551308
 31
0.0
  0
ARC
  5
23F
330
1F4
100
AcDbEntity
  8
DIMENSION
  6
Continuous
 62
     1
100
AcDbCircle
 10
45.48861327669935
 20
12.00000000000001
 30
0.0
 40
1.5
100
AcDbArc
 50
90.0
 51
180.0
  0
ARC
  5
240
330
1F4
100
AcDbEntity
  8
DIMENSION
  6
Continuous
 62
     1
100
AcDbCircle
 10
45.48861327669935
 20
12.00000000000001
 30
0.0
 40
1.5
100
AcDbArc
 50
90.0
 51
180.0
  0
LINE
  5
241
330
1F4
100
AcDbEntity
  8
DIMENSION
  6
Continuous
 62
     1
100
AcDbLine
 10
2.988613276699347
 20
3.000000000000007
 30
0.0
 11
5.004439477943869
 21
3.270415709922993
 31
0.0
  0
LINE
  5
242
330
1F4
100
AcDbEntity
  8
DIMENSION
  6
Continuous
 62
     1
100
AcDbLine
 10
3.25452406321282
 20
1.017755955081277
 30
0.0
 11
12.0895764071577
 21
2.202945903659163
 31
0.0
  0
LINE
  5
243
330
1F4
100
AcDbEntity
  8
DIMENSION
  6
Continuous
 62
     1
100
AcDbLine
 10
13.87510997712744
 20
2.442468699630815
 30
0.0
 11
39.72274707232513
 21
5.90983465142552
 31
0.0
  0
ARC
  5
244
330
1F4
100
AcDbEntity
  8
DIMENSION
  6
Continuous
 62
     1
100
AcDbCircle
 10
13.91499659510445
 20
2.145132092892943
 30
0.0
 40
0.3
100
AcDbArc
 50
97.64040676102735
 51
190.0000000000012
  0
ARC
  5
245
330
1F4
100
AcDbEntity
  8
DIMENSION
  6
Continuous
 62
     1
100
AcDbCircle
 10
13.91499659510445
 20
2.145132092892943
 30
0.0
 40
0.3
100
AcDbArc
 50
97.64040676102735
 51
190.0000000000012
  0
ARC
  5
246
330
1F4
100
AcDbEntity
  8
DIMENSION
  6
Continuous
 62
     1
100
AcDbCircle
 10
12.1294630251347
 20
1.905609296921405
 30
0.0
 40
0.3
100
AcDbArc
 50
9.999999999998986
 51
97.64040676102852
  0
ARC
  5
247
330
1F4
100
AcDbEntity
  8
DIMENSION
  6
Continuous
 62
     1
100
AcDbCircle
 10
12.1294630251347
 20
1.905609296921405
 30
0.0
 40
0.3
100
AcDbArc
 50
9.999999999998986
 51
97.64040676102852
  0
LINE
  5
248
330
1F4
100
AcDbEntity
  8
DIMENSION
  6
Continuous
 62
     1
100
AcDbLine
 10
12.42490535103835
 20
1.957703750221533
 30
0.0
 11
12.73367431197781
 21
0.2065879555832524
 31
0.0
  0
LINE
  5
249
330
1F4
100
AcDbEntity
  8
DIMENSION
  6
Continuous
 62
     1
100
AcDbLine
 10
13.6195542692008
 20
2.093037639592929
 30
0.0
 11
13.93687681680391
 21
0.2934120444167618
 31
0.0
  0
ARC
  5
24A
330
1F4
100
AcDbEntity
  8
DIMENSION
  6
Continuous
 62
     1
100
AcDbCircle
 10
39.76263369030213
 20
5.612498044687761
 30
0.0
 40
0.3
100
AcDbArc
 50
315.0
 51
97.64040676102675
  0
ARC
  5
24B
330
1F4
100
AcDbEntity
  8
DIMENSION
  6
Continuous
 62
     1
100
AcDbCircle
 10
39.76263369030213
 20
5.612498044687761
 30
0.0
 40
0.3
100
AcDbArc
 50
315.0
 51
97.64040676102675
  0
ARC
  5
24C
330
1F4
100
AcDbEntity
  8
DIMENSION
  6
Continuous
 62
     1
100
AcDbCircle
 10
43.68861327669939
 20
8.762443348173754
 30
0.0
 40
0.3
100
AcDbArc
 50
277.6404067610267
 51
0.0
  0
ARC
  5
24D
330
1F4
100
AcDbEntity
  8
DIMENSION
  6
Continuous
 62
     1
100
AcDbCircle
 10
43.68861327669939
 20
8.762443348173754
 30
0.0
 40
0.3
100
AcDbArc
 50
277.6404067610267
 51
0.0
  0
LINE
  5
24E
330
1F4
100
AcDbEntity
  8
DIMENSION
  6
Continuous
 62
     1
100
AcDbLine
 10
21.98861327669935
 20
5.296541112294229
 30
0.0
 11
22.27993199207791
 21
5.587859827672681
 31
0.0
  0
LINE
  5
24F
330
1F4
100
AcDbEntity
  8
DIMENSION
  6
Continuous
 62
     1
100
AcDbLine
 10
21.98861327669935
 20
5.296541112294229
 30
0.0
 11
21.76620866603404
 21
5.518945722959536
 31
0.0
  0
LINE
  5
250
330
1F4
100
AcDbEntity
  8
DIMENSION
  6
Continuous
 62
     1
100
AcDbLine
 10
22.27993199207791
 20
5.587859827672681
 30
0.0
 11
27.00443947794387
 21
6.221635222118159
 31
0.0
  0
ARC
  5
251
330
1F4
100
AcDbEntity
  8
DIMENSION
  6
Continuous
 62
     1
100
AcDbCircle
 10
5.50000048917358
 20
3.336893406551447
 30
0.0
 40
0.5
100
AcDbArc
 50
7.640406761027128
 51
187.6404067610271
  0
ARC
  5
252
330
1F4
100
AcDbEntity
  8
DIMENSION
  6
Continuous
 62
     1
100
AcDbCircle
 10
5.50000048917358
 20
3.336893406551447
 30
0.0
 40
0.5
100
AcDbArc
 50
7.640406761027128
 51
187.6404067610271
  0
ARC
  5
253
330
1F4
100
AcDbEntity
  8
DIMENSION
  6
Continuous
 62
     1
100
AcDbCircle
 10
11.00000048917358
 20
4.074698284600125
 30
0.0
 40
0.5
100
AcDbArc
 50
7.640406761027128
 51
187.6404067610263
  0
ARC
  5
254
330
1F4
100
AcDbEntity
  8
DIMENSION
  6
Continuous
 62
     1
100
AcDbCircle
 10
11.00000048917358
 20
4.074698284600125
 30
0.0
 40
0.5
100
AcDbArc
 50
7.640406761027128
 51
187.6404067610263
  0
ARC
  5
255
330
1F4
100
AcDbEntity
  8
DIMENSION
  6
Continuous
 62
     1
100
AcDbCircle
 10
16.50000048917358
 20
4.812503162648916
 30
0.0
 40
0.5
100
AcDbArc
 50
7.640406761026322
 51
187.6404067610271
  0
ARC
  5
256
330
1F4
100
AcDbEntity
  8
DIMENSION
  6
Continuous
 62
     1
100
AcDbCircle
 10
16.50000048917358
 20
4.812503162648916
 30
0.0
 40
0.5
100
AcDbArc
 50
7.640406761026322
 51
187.6404067610271
  0
ARC
  5
257
330
1F4
100
AcDbEntity
  8
DIMENSION
  6
Continuous
 62
     1
100
AcDbCircle
 10
27.50000048917358
 20
6.288112918746499
 30
0.0
 40
0.5
100
AcDbArc
 50
7.640406761025514
 51
187.6404067610279
  0
ARC
  5
258
330
1F4
100
AcDbEntity
  8
DIMENSION
  6
Continuous
 62
     1
100
AcDbCircle
 10
27.50000048917358
 20
6.288112918746499
 30
0.0
 40
0.5
100
AcDbArc
 50
7.640406761025514
 51
187.6404067610279
  0
ARC
  5
259
330
1F4
100
AcDbEntity
  8
DIMENSION
  6
Continuous
 62
     1
100
AcDbCircle
 10
33.00000048917358
 20
7.025917796795291
 30
0.0
 40
0.5
100
AcDbArc
 50
7.640406761027128
 51
187.6404067610271
  0
ARC
  5
25A
330
1F4
100
AcDbEntity
  8
DIMENSION
  6
Continuous
 62
     1
100
AcDbCircle
 10
33.00000048917358
 20
7.025917796795291
 30
0.0
 40
0.5
100
AcDbArc
 50
7.640406761027128
 51
187.6404067610271
  0
ARC
  5
25B
330
1F4
100
AcDbEntity
  8
DIMENSION
  6
Continuous
 62
     1
100
AcDbCircle
 10
38.50000048917358
 20
7.763722674844082
 30
0.0
 40
0.5
100
AcDbArc
 50
7.640406761027128
 51
187.6404067610271
  0
ARC
  5
25C
330
1F4
100
AcDbEntity
  8
DIMENSION
  6
Continuous
 62
     1
100
AcDbCircle
 10
38.50000048917358
 20
7.763722674844082
 30
0.0
 40
0.5
100
AcDbArc
 50
7.640406761027128
 51
187.6404067610271
  0
LINE
  5
25D
330
1F4
100
AcDbEntity
  8
DIMENSION
  6
Continuous
 62
     1
100
AcDbLine
 10
5.995561500403291
 20
3.403371103179786
 30
0.0
 11
10.50443947794387
 21
4.008220587971785
 31
0.0
  0
LINE
  5
25E
330
1F4
100
AcDbEntity
  8
DIMENSION
  6
Continuous
 62
     1
100
AcDbLine
 10
11.49556150040329
 20
4.141175981228578
 30
0.0
 11
16.00443947794387
 21
4.746025466020576
 31
0.0
  0
LINE
  5
25F
330
1F4
100
AcDbEntity
  8
DIMENSION
  6
Continuous
 62
     1
100
AcDbLine
 10
16.99556150040329
 20
4.87898085927737
 30
0.0
 11
21.76620866603404
 21
5.518945722959536
 31
0.0
  0
LINE
  5
260
330
1F4
100
AcDbEntity
  8
DIMENSION
  6
Continuous
 62
     1
100
AcDbLine
 10
27.99556150040329
 20
6.354590615374839
 30
0.0
 11
32.50443947794387
 21
6.959440100166951
 31
0.0
  0
LINE
  5
261
330
1F4
100
AcDbEntity
  8
DIMENSION
  6
Continuous
 62
     1
100
AcDbLine
 10
33.49556150040329
 20
7.092395493423631
 30
0.0
 11
38.00443947794387
 21
7.697244978215743
 31
0.0
  0
LINE
  5
262
330
1F4
100
AcDbEntity
  8
DIMENSION
  6
Continuous
 62
     1
100
AcDbLine
 10
38.99556150040329
 20
7.830200371472422
 30
0.0
 11
43.7284998946764
 21
8.465106741435882
 31
0.0
  0
LINE
  5
263
330
1F4
100
AcDbEntity
  8
DIMENSION
  6
Continuous
 62
     1
100
AcDbLine
 10
2.988613276699347
 20
1.000000000000007
 30
0.0
 11
3.25452406321282
 21
1.017755955081277
 31
0.0
  0
ENDBLK
  5
1F6
330
1F4
100
AcDbEntity
  8
0
100
AcDbBlockEnd
  0
BLOCK
  5
265
330
264
100
AcDbEntity
  8
0
100
AcDbBlockBegin
  2
GEN_BLOCK00029
 70
     0
 10
0.0
 20
0.0
 30
0.0
  3
GEN_BLOCK00029
  1
GEN_BLOCK00029
  0
LINE
  5
268
330
264
100
AcDbEntity
  8
1
  6
Continuous
 62
     4
100
AcDbLine
 10
-0.0000016217139347
 20
0.1642926644012235
 30
0.0
 11
0.3035908576858901
 21
0.3246729551130514
 31
0.0
  0
LINE
  5
269
330
264
100
AcDbEntity
  8
1
  6
Continuous
 62
     4
100
AcDbLine
 10
0.3035908576858972
 20
0.3246729551130443
 30
0.0
 11
0.475107209886545
 21
0.0000004258945836
 31
0.0
  0
ENDBLK
  5
266
330
264
100
AcDbEntity
  8
0
100
AcDbBlockEnd
  0
BLOCK
  5
26B
330
26A
100
AcDbEntity
  8
0
100
AcDbBlockBegin
  2
GEN_BLOCK00030
 70
     0
 10
0.0
 20
0.0
 30
0.0
  3
GEN_BLOCK00030
  1
GEN_BLOCK00030
  0
LINE
  5
26E
330
26A
100
AcDbEntity
  8
1
  6
Continuous
 62
     4
100
AcDbLine
 10
-0.0000003604377206
 20
0.1076337860527161
 30
0.0
 11
0.2827653217967594
 21
0.3023997998934647
 31
0.0
  0
LINE
  5
26F
330
26A
100
AcDbEntity
  8
1
  6
Continuous
 62
     4
100
AcDbLine
 10
0.2827653217967629
 20
0.3023997998934576
 30
0.0
 11
0.4910549818189409
 21
0.0000001837740271
 31
0.0
  0
ENDBLK
  5
26C
330
26A
100
AcDbEntity
  8
0
100
AcDbBlockEnd
  0
BLOCK
  5
271
330
270
100
AcDbEntity
  8
0
100
AcDbBlockBegin
  2
GEN_BLOCK00031
 70
     0
 10
0.0
 20
0.0
 30
0.0
  3
GEN_BLOCK00031
  1
GEN_BLOCK00031
  0
LINE
  5
274
330
270
100
AcDbEntity
  8
1
  6
Continuous
 62
     4
100
AcDbLine
 10
0.0000005494455309
 20
0.270106942993209
 30
0.0
 11
0.3325325028338355
 21
0.3556214515440672
 31
0.0
  0
LINE
  5
275
330
270
100
AcDbEntity
  8
1
  6
Continuous
 62
     4
100
AcDbLine
 10
0.3325325028338355
 20
0.3556214515440601
 30
0.0
 11
0.4239847411467963
 21
0.0000000258553712
 31
0.0
  0
ENDBLK
  5
272
330
270
100
AcDbEntity
  8
0
100
AcDbBlockEnd
  0
BLOCK
  5
277
330
276
100
AcDbEntity
  8
0
100
AcDbBlockBegin
  2
GEN_BLOCK00032
 70
     0
 10
0.0
 20
0.0
 30
0.0
  3
GEN_BLOCK00032
  1
GEN_BLOCK00032
  0
LINE
  5
27A
330
276
100
AcDbEntity
  8
1
  6
Continuous
 62
     4
100
AcDbLine
 10
-0.0000016299544257
 20
0.206841647702511
 30
0.0
 11
0.3169247369220827
 21
0.3389321817138438
 31
0.0
  0
LINE
  5
27B
330
276
100
AcDbEntity
  8
1
  6
Continuous
 62
     4
100
AcDbLine
 10
0.3169247369220827
 20
0.3389321817138367
 30
0.0
 11
0.4581870232872376
 21
-0.0000000781143044
 31
0.0
  0
ENDBLK
  5
278
330
276
100
AcDbEntity
  8
0
100
AcDbBlockEnd
  0
BLOCK
  5
27D
330
27C
100
AcDbEntity
  8
0
100
AcDbBlockBegin
  2
GEN_BLOCK00033
 70
     0
 10
0.0
 20
0.0
 30
0.0
  3
GEN_BLOCK00033
  1
GEN_BLOCK00033
  0
LINE
  5
280
330
27C
100
AcDbEntity
  8
1
  6
Continuous
 62
     4
100
AcDbLine
 10
-0.0000008167664021
 20
0.0883804152545125
 30
0.0
 11
0.2749455107976964
 21
0.2940372852004458
 31
0.0
  0
LINE
  5
281
330
27C
100
AcDbEntity
  8
1
  6
Continuous
 62
     4
100
AcDbLine
 10
0.2749455107976999
 20
0.2940372852004387
 30
0.0
 11
0.4948822373217148
 21
-0.0000000366266164
 31
0.0
  0
ENDBLK
  5
27E
330
27C
100
AcDbEntity
  8
0
100
AcDbBlockEnd
  0
BLOCK
  5
283
330
282
100
AcDbEntity
  8
0
100
AcDbBlockBegin
  2
GEN_BLOCK00034
 70
     0
 10
0.0
 20
0.0
 30
0.0
  3
GEN_BLOCK00034
  1
GEN_BLOCK00034
  0
LINE
  5
286
330
282
100
AcDbEntity
  8
1
  6
Continuous
 62
     4
100
AcDbLine
 10
-0.0000004897440107
 20
0.2362033079282284
 30
0.0
 11
0.3248458100855416
 21
0.3474018361738516
 31
0.0
  0
LINE
  5
287
330
282
100
AcDbEntity
  8
1
  6
Continuous
 62
     4
100
AcDbLine
 10
0.3248458100855416
 20
0.3474018361738445
 30
0.0
 11
0.4437654469693797
 21
-0.0000002799174652
 31
0.0
  0
ENDBLK
  5
284
330
282
100
AcDbEntity
  8
0
100
AcDbBlockEnd
  0
BLOCK
  5
289
330
288
100
AcDbEntity
  8
0
100
AcDbBlockBegin
  2
GEN_BLOCK00035
 70
     0
 10
0.0
 20
0.0
 30
0.0
  3
GEN_BLOCK00035
  1
GEN_BLOCK00035
  0
LINE
  5
28C
330
288
100
AcDbEntity
  8
1
  6
Continuous
 62
     4
100
AcDbLine
 10
0.0000010828646921
 20
0.322855845900115
 30
0.0
 11
0.3408197113183604
 21
0.3644838856798671
 31
0.0
  0
LINE
  5
28D
330
288
100
AcDbEntity
  8
1
  6
Continuous
 62
     4
100
AcDbLine
 10
0.3408197113183533
 20
0.36448388567986
 30
0.0
 11
0.385338208576357
 21
0.0000003967490372
 31
0.0
  0
ENDBLK
  5
28A
330
288
100
AcDbEntity
  8
0
100
AcDbBlockEnd
  0
BLOCK
  5
28F
330
28E
100
AcDbEntity
  8
0
100
AcDbBlockBegin
  2
GEN_BLOCK00036
 70
     0
 10
0.0
 20
0.0
 30
0.0
  3
GEN_BLOCK00036
  1
GEN_BLOCK00036
  0
LINE
  5
292
330
28E
100
AcDbEntity
  8
0
  6
DOT
 62
     1
100
AcDbLine
 10
0.0000013986538434
 20
0.0000000000000071
 30
0.0
 11
117.6053349751845
 21
0.0000000000000071
 31
0.0
  0
LINE
  5
293
330
28E
100
AcDbEntity
  8
0
  6
DOT
 62
     1
100
AcDbLine
 10
31.49647949512396
 20
117.0230466134018
 30
0.0
 11
31.49647949512396
 21
18.0
 31
0.0
  0
LINE
  5
294
330
28E
100
AcDbEntity
  8
0
  6
DOT
 62
     1
100
AcDbLine
 10
31.49647949512396
 20
18.0
 30
0.0
 11
74.78122916720233
 21
18.0
 31
0.0
  0
LINE
  5
295
330
28E
100
AcDbEntity
  8
0
  6
DOT
 62
     1
100
AcDbLine
 10
74.78122916720233
 20
18.0
 30
0.0
 11
74.78122916720233
 21
110.8492301003722
 31
0.0
  0
LINE
  5
296
330
28E
100
AcDbEntity
  8
0
  6
DOT
 62
     1
100
AcDbLine
 10
74.78122916720233
 20
110.8492301003722
 30
0.0
 11
48.87896712515689
 21
106.2760326833132
 31
0.0
  0
LINE
  5
297
330
28E
100
AcDbEntity
  8
0
  6
DOT
 62
     1
100
AcDbLine
 10
48.87896712515689
 20
106.2760326833132
 30
0.0
 11
48.87896712515689
 21
110.8492301003722
 31
0.0
  0
LINE
  5
298
330
28E
100
AcDbEntity
  8
0
  6
DOT
 62
     1
100
AcDbLine
 10
48.87896712515689
 20
110.8492301003722
 30
0.0
 11
31.49647949512396
 21
117.0230466134018
 31
0.0
  0
ENDBLK
  5
290
330
28E
100
AcDbEntity
  8
0
100
AcDbBlockEnd
  0
BLOCK
  5
29A
330
299
100
AcDbEntity
  8
0
100
AcDbBlockBegin
  2
GEN_BLOCK00037
 70
     0
 10
0.0
 20
0.0
 30
0.0
  3
GEN_BLOCK00037
  1
GEN_BLOCK00037
  0
LINE
  5
29D
330
299
100
AcDbEntity
  8
1
  6
Continuous
 62
     4
100
AcDbLine
 10
-0.0000011362668815
 20
0.2810520479207668
 30
0.0
 11
0.3346441422040911
 21
0.3578815265993498
 31
0.0
  0
LINE
  5
29E
330
299
100
AcDbEntity
  8
1
  6
Continuous
 62
     4
100
AcDbLine
 10
0.3346441422040911
 20
0.3578815265993427
 30
0.0
 11
0.4168083025628704
 21
0.000000036362934
 31
0.0
  0
ENDBLK
  5
29B
330
299
100
AcDbEntity
  8
0
100
AcDbBlockEnd
  0
BLOCK
  5
2A0
330
29F
100
AcDbEntity
  8
0
100
AcDbBlockBegin
  2
GEN_BLOCK00038
 70
     0
 10
0.0
 20
0.0
 30
0.0
  3
GEN_BLOCK00038
  1
GEN_BLOCK00038
  0
LINE
  5
2A3
330
29F
100
AcDbEntity
  8
1
  6
Continuous
 62
     4
100
AcDbLine
 10
0.0000002818236808
 20
0.2533481096718262
 30
0.0
 11
0.328940183884626
 21
0.3517796697990434
 31
0.0
  0
LINE
  5
2A4
330
29F
100
AcDbEntity
  8
1
  6
Continuous
 62
     4
100
AcDbLine
 10
0.328940183884626
 20
0.3517796697990363
 30
0.0
 11
0.4342063737606594
 21
-0.0000002892240545
 31
0.0
  0
ENDBLK
  5
2A1
330
29F
100
AcDbEntity
  8
0
100
AcDbBlockEnd
  0
BLOCK
  5
2A6
330
2A5
100
AcDbEntity
  8
0
100
AcDbBlockBegin
  2
GEN_BLOCK00039
 70
     0
 10
0.0
 20
0.0
 30
0.0
  3
GEN_BLOCK00039
  1
GEN_BLOCK00039
  0
LINE
  5
2A9
330
2A5
100
AcDbEntity
  8
1
  6
Continuous
 62
     4
100
AcDbLine
 10
0.0000003541631628
 20
0.2304076136362454
 30
0.0
 11
0.3233717211215392
 21
0.3458250743101488
 31
0.0
  0
LINE
  5
2AA
330
2A5
100
AcDbEntity
  8
1
  6
Continuous
 62
     4
100
AcDbLine
 10
0.3233717211215392
 20
0.3458250743101416
 30
0.0
 11
0.4468032334800256
 21
0.0000003035689389
 31
0.0
  0
ENDBLK
  5
2A7
330
2A5
100
AcDbEntity
  8
0
100
AcDbBlockEnd
  0
BLOCK
  5
2AC
330
2AB
100
AcDbEntity
  8
0
100
AcDbBlockBegin
  2
GEN_BLOCK00040
 70
     0
 10
0.0
 20
0.0
 30
0.0
  3
GEN_BLOCK00040
  1
GEN_BLOCK00040
  0
LINE
  5
2AF
330
2AB
100
AcDbEntity
  8
1
  6
Continuous
 62
     4
100
AcDbLine
 10
0.0000017986751715
 20
0.1827158999620835
 30
0.0
 11
0.3096241690033139
 21
0.3311214894434897
 31
0.0
  0
LINE
  5
2B0
330
2AB
100
AcDbEntity
  8
1
  6
Continuous
 62
     4
100
AcDbLine
 10
0.3096241690033139
 20
0.3311214894434826
 30
0.0
 11
0.4683343524121639
 21
0.0000003817145213
 31
0.0
  0
ENDBLK
  5
2AD
330
2AB
100
AcDbEntity
  8
0
100
AcDbBlockEnd
  0
BLOCK
  5
2B2
330
2B1
100
AcDbEntity
  8
0
100
AcDbBlockBegin
  2
GEN_BLOCK00041
 70
     0
 10
0.0
 20
0.0
 30
0.0
  3
GEN_BLOCK00041
  1
GEN_BLOCK00041
  0
LINE
  5
2B5
330
2B1
100
AcDbEntity
  8
1
  6
Continuous
 62
     4
100
AcDbLine
 10
0.0000004532130866
 20
0.0168578604604406
 30
0.0
 11
0.2427866052038254
 21
0.259644012451183
 31
0.0
  0
LINE
  5
2B6
330
2B1
100
AcDbEntity
  8
1
  6
Continuous
 62
     4
100
AcDbLine
 10
0.2427866052038326
 20
0.2596440124511759
 30
0.0
 11
0.5024306984366191
 21
-0.0000000807816107
 31
0.0
  0
ENDBLK
  5
2B3
330
2B1
100
AcDbEntity
  8
0
100
AcDbBlockEnd
  0
BLOCK
  5
2B8
330
2B7
100
AcDbEntity
  8
0
100
AcDbBlockBegin
  2
GEN_BLOCK00042
 70
     0
 10
0.0
 20
0.0
 30
0.0
  3
GEN_BLOCK00042
  1
GEN_BLOCK00042
  0
LINE
  5
2BB
330
2B7
100
AcDbEntity
  8
1
  6
Continuous
 62
     4
100
AcDbLine
 10
0.0000004061258103
 20
0.1140158885904157
 30
0.0
 11
0.2852772995191302
 21
0.305084790541521
 31
0.0
  0
LINE
  5
2BC
330
2B7
100
AcDbEntity
  8
1
  6
Continuous
 62
     4
100
AcDbLine
 10
0.2852772995191337
 20
0.305084790541521
 30
0.0
 11
0.4896131373966206
 21
-0.0000004035604562
 31
0.0
  0
ENDBLK
  5
2B9
330
2B7
100
AcDbEntity
  8
0
100
AcDbBlockEnd
  0
BLOCK
  5
2BE
330
2BD
100
AcDbEntity
  8
0
100
AcDbBlockBegin
  2
GEN_BLOCK00043
 70
     0
 10
0.0
 20
0.0
 30
0.0
  3
GEN_BLOCK00043
  1
GEN_BLOCK00043
  0
LINE
  5
2C1
330
2BD
100
AcDbEntity
  8
1
  6
Continuous
 62
     4
100
AcDbLine
 10
0.0000003887771527
 20
0.1012327174362113
 30
0.0
 11
0.2802069492419825
 21
0.2996628428441639
 31
0.0
  0
LINE
  5
2C2
330
2BD
100
AcDbEntity
  8
1
  6
Continuous
 62
     4
100
AcDbLine
 10
0.2802069492419861
 20
0.2996628428441568
 30
0.0
 11
0.4924151396975098
 21
0.0000000420080681
 31
0.0
  0
ENDBLK
  5
2BF
330
2BD
100
AcDbEntity
  8
0
100
AcDbBlockEnd
  0
BLOCK
  5
2C4
330
2C3
100
AcDbEntity
  8
0
100
AcDbBlockBegin
  2
GEN_BLOCK00044
 70
     0
 10
0.0
 20
0.0
 30
0.0
  3
GEN_BLOCK00044
  1
GEN_BLOCK00044
  0
LINE
  5
2C7
330
2C3
100
AcDbEntity
  8
1
  6
Continuous
 62
     4
100
AcDbLine
 10
0.0000009342026033
 20
0.2918062650605577
 30
0.0
 11
0.3365327438903662
 21
0.3598986454361963
 31
0.0
  0
LINE
  5
2C8
330
2C3
100
AcDbEntity
  8
1
  6
Continuous
 62
     4
100
AcDbLine
 10
0.3365327438903662
 20
0.3598986454361892
 30
0.0
 11
0.4093531424746146
 21
-0.0000003679708058
 31
0.0
  0
ENDBLK
  5
2C5
330
2C3
100
AcDbEntity
  8
0
100
AcDbBlockEnd
  0
BLOCK
  5
2CA
330
2C9
100
AcDbEntity
  8
0
100
AcDbBlockBegin
  2
GEN_BLOCK00045
 70
     0
 10
0.0
 20
0.0
 30
0.0
  3
GEN_BLOCK00045
  1
GEN_BLOCK00045
  0
LINE
  5
2CD
330
2C9
100
AcDbEntity
  8
1
  6
Continuous
 62
     4
100
AcDbLine
 10
0.0000001365682891
 20
0.3023640597259387
 30
0.0
 11
0.338190405077917
 21
0.3616731946237763
 31
0.0
  0
LINE
  5
2CE
330
2C9
100
AcDbEntity
  8
1
  6
Continuous
 62
     4
100
AcDbLine
 10
0.338190405077917
 20
0.3616731946237692
 30
0.0
 11
0.4016176904675817
 21
0.0000005667275005
 31
0.0
  0
ENDBLK
  5
2CB
330
2C9
100
AcDbEntity
  8
0
100
AcDbBlockEnd
  0
BLOCK
  5
2D0
330
2CF
100
AcDbEntity
  8
0
100
AcDbBlockBegin
  2
GEN_BLOCK00046
 70
     0
 10
0.0
 20
0.0
 30
0.0
  3
GEN_BLOCK00046
  1
GEN_BLOCK00046
  0
LINE
  5
2D3
330
2CF
100
AcDbEntity
  8
1
  6
Continuous
 62
     4
100
AcDbLine
 10
-0.0000017812898534
 20
0.2127877660783852
 30
0.0
 11
0.3186170890651709
 21
0.3407418463206042
 31
0.0
  0
LINE
  5
2D4
330
2CF
100
AcDbEntity
  8
1
  6
Continuous
 62
     4
100
AcDbLine
 10
0.3186170890651709
 20
0.3407418463205971
 30
0.0
 11
0.4554557055493405
 21
-0.0000004365560855
 31
0.0
  0
ENDBLK
  5
2D1
330
2CF
100
AcDbEntity
  8
0
100
AcDbBlockEnd
  0
BLOCK
  5
2D6
330
2D5
100
AcDbEntity
  8
0
100
AcDbBlockBegin
  2
GEN_BLOCK00047
 70
     0
 10
0.0
 20
0.0
 30
0.0
  3
GEN_BLOCK00047
  1
GEN_BLOCK00047
  0
LINE
  5
2D9
330
2D5
100
AcDbEntity
  8
1
  6
Continuous
 62
     4
100
AcDbLine
 10
-0.0000009277941899
 20
0.1203796914269333
 30
0.0
 11
0.2877388406582497
 21
0.3077191075888166
 31
0.0
  0
LINE
  5
2DA
330
2D5
100
AcDbEntity
  8
1
  6
Continuous
 62
     4
100
AcDbLine
 10
0.2877388406582497
 20
0.3077191075888095
 30
0.0
 11
0.4880862345984553
 21
0.0000000278379773
 31
0.0
  0
ENDBLK
  5
2D7
330
2D5
100
AcDbEntity
  8
0
100
AcDbBlockEnd
  0
BLOCK
  5
2DC
330
2DB
100
AcDbEntity
  8
0
100
AcDbBlockBegin
  2
GEN_BLOCK00048
 70
     0
 10
0.0
 20
0.0
 30
0.0
  3
GEN_BLOCK00048
  1
GEN_BLOCK00048
  0
LINE
  5
2DF
330
2DB
100
AcDbEntity
  8
1
  6
Continuous
 62
     4
100
AcDbLine
 10
-0.0000003146309808
 20
0.0754683986205222
 30
0.0
 11
0.2694994449948105
 21
0.2882126365180042
 31
0.0
  0
LINE
  5
2E0
330
2DB
100
AcDbEntity
  8
1
  6
Continuous
 62
     4
100
AcDbLine
 10
0.269499444994814
 20
0.2882126365179971
 30
0.0
 11
0.4970156533389414
 21
0.0000000669759288
 31
0.0
  0
ENDBLK
  5
2DD
330
2DB
100
AcDbEntity
  8
0
100
AcDbBlockEnd
  0
BLOCK
  5
2E3
330
2E2
100
AcDbEntity
  8
0
100
AcDbBlockBegin
  2
GEN_BLOCK00049
 70
     0
 10
0.0
 20
0.0
 30
0.0
  3
GEN_BLOCK00049
  1
GEN_BLOCK00049
  0
LINE
  5
2E6
330
2E2
100
AcDbEntity
  8
GEN_LAYER
  6
Continuous
 62
     3
100
AcDbLine
 10
5.031802721476495
 20
34.39521980083556
 30
0.0
 11
4.248528910434235
 21
35.17849361187777
 31
0.0
  0
LINE
  5
2E7
330
2E2
100
AcDbEntity
  8
GEN_LAYER
  6
Continuous
 62
     3
100
AcDbLine
 10
4.248528910434235
 20
35.17849361187777
 30
0.0
 11
2.550000773010478
 21
33.47996547445391
 31
0.0
  0
LINE
  5
2E8
330
2E2
100
AcDbEntity
  8
GEN_LAYER
  6
Continuous
 62
     3
100
AcDbLine
 10
2.550000773010478
 20
33.47996547445391
 30
0.0
 11
2.550000773010446
 21
30.2305751398949
 31
0.0
  0
ARC
  5
2E9
330
2E2
100
AcDbEntity
  8
GEN_LAYER
  6
Continuous
 62
     3
100
AcDbCircle
 10
1.950000773010451
 20
30.2305751398949
 30
0.0
 40
0.6
100
AcDbArc
 50
180.0
 51
0.0
  0
ARC
  5
2EA
330
2E2
100
AcDbEntity
  8
GEN_LAYER
  6
Continuous
 62
     3
100
AcDbCircle
 10
1.950000773010451
 20
30.2305751398949
 30
0.0
 40
0.6
100
AcDbArc
 50
180.0
 51
0.0
  0
LINE
  5
2EB
330
2E2
100
AcDbEntity
  8
GEN_LAYER
  6
Continuous
 62
     3
100
AcDbLine
 10
1.350000773010443
 20
30.2305751398949
 30
0.0
 11
1.350000773010429
 21
31.67641208386069
 31
0.0
  0
ARC
  5
2EC
330
2E2
100
AcDbEntity
  8
GEN_LAYER
  6
Continuous
 62
     3
100
AcDbCircle
 10
1.100000773010432
 20
31.67641208386069
 30
0.0
 40
0.25
100
AcDbArc
 50
0.0
 51
135.0000000000017
  0
ARC
  5
2ED
330
2E2
100
AcDbEntity
  8
GEN_LAYER
  6
Continuous
 62
     3
100
AcDbCircle
 10
1.100000773010432
 20
31.67641208386069
 30
0.0
 40
0.25
100
AcDbArc
 50
0.0
 51
135.0000000000017
  0
LINE
  5
2EE
330
2E2
100
AcDbEntity
  8
GEN_LAYER
  6
Continuous
 62
     3
100
AcDbLine
 10
0.9232240777137832
 20
31.85318877915733
 30
0.0
 11
0.0000007730104059
 21
30.92996547445369
 31
0.0
  0
LINE
  5
2EF
330
2E2
100
AcDbEntity
  8
GEN_LAYER
  6
Continuous
 62
     3
100
AcDbLine
 10
0.0000007730104059
 20
30.92996547445369
 30
0.0
 11
0.0000007730104059
 21
29.48718955741025
 31
0.0
  0
LINE
  5
2F0
330
2E2
100
AcDbEntity
  8
GEN_LAYER
  6
Continuous
 62
     3
100
AcDbLine
 10
0.9987682712917447
 20
28.48719031694079
 30
0.0
 11
5.163119436918699
 21
28.48205774307559
 31
0.0
  0
LINE
  5
2F1
330
2E2
100
AcDbEntity
  8
GEN_LAYER
  6
Continuous
 62
     3
100
AcDbLine
 10
5.031802721476488
 20
34.39521980083556
 30
0.0
 11
6.358313067511652
 21
33.0687094548006
 31
0.0
  0
LINE
  5
2F2
330
2E2
100
AcDbEntity
  8
GEN_LAYER
  6
Continuous
 62
     3
100
AcDbLine
 10
6.157975378877275
 20
33.26904714343495
 30
0.0
 11
6.164350520407062
 21
29.48374116245169
 31
0.0
  0
ARC
  5
2F3
330
2E2
100
AcDbEntity
  8
GEN_LAYER
  6
Continuous
 62
     3
100
AcDbCircle
 10
1.000000773010406
 20
29.48718955741025
 30
0.0
 40
1.0
100
AcDbArc
 50
180.0
 51
270.0
  0
ARC
  5
2F4
330
2E2
100
AcDbEntity
  8
GEN_LAYER
  6
Continuous
 62
     3
100
AcDbCircle
 10
1.000000773010406
 20
29.48718955741025
 30
0.0
 40
1.0
100
AcDbArc
 50
180.0
 51
270.0
  0
ARC
  5
2F5
330
2E2
100
AcDbEntity
  8
GEN_LAYER
  6
Continuous
 62
     3
100
AcDbCircle
 10
5.16435193863736
 20
29.48205698354505
 30
0.0
 40
1.0
100
AcDbArc
 50
270.0
 51
0.0
  0
ARC
  5
2F6
330
2E2
100
AcDbEntity
  8
GEN_LAYER
  6
Continuous
 62
     3
100
AcDbCircle
 10
5.16435193863736
 20
29.48205698354505
 30
0.0
 40
1.0
100
AcDbArc
 50
270.0
 51
0.0
  0
LINE
  5
2F7
330
2E2
100
AcDbEntity
  8
GEN_LAYER
  6
Continuous
 62
     3
100
AcDbLine
 10
5.126409952494015
 20
32.81544922472163
 30
0.0
 11
4.827698802112273
 21
33.21373075856395
 31
0.0
  0
LINE
  5
2F8
330
2E2
100
AcDbEntity
  8
GEN_LAYER
  6
Continuous
 62
     3
100
AcDbLine
 10
4.827698802112273
 20
33.21373075856395
 30
0.0
 11
4.585885013708001
 21
33.64046097339502
 31
0.0
  0
LINE
  5
2F9
330
2E2
100
AcDbEntity
  8
GEN_LAYER
  6
Continuous
 62
     3
100
AcDbLine
 10
4.585885013708001
 20
33.64046097339502
 30
0.0
 11
4.372519906292467
 21
33.8253773998218
 31
0.0
  0
LINE
  5
2FA
330
2E2
100
AcDbEntity
  8
GEN_LAYER
  6
Continuous
 62
     3
100
AcDbLine
 10
4.372519906292467
 20
33.8253773998218
 30
0.0
 11
4.201827820360037
 21
33.68313399487812
 31
0.0
  0
LINE
  5
2FB
330
2E2
100
AcDbEntity
  8
GEN_LAYER
  6
Continuous
 62
     3
100
AcDbLine
 10
4.201827820360037
 20
33.68313399487812
 30
0.0
 11
3.447937774158483
 21
33.12838471559774
 31
0.0
  0
LINE
  5
2FC
330
2E2
100
AcDbEntity
  8
GEN_LAYER
  6
Continuous
 62
     3
100
AcDbLine
 10
3.447937774158483
 20
33.12838471559774
 30
0.0
 11
3.405264752675379
 21
29.50117788953366
 31
0.0
  0
LINE
  5
2FD
330
2E2
100
AcDbEntity
  8
GEN_LAYER
  6
Continuous
 62
     3
100
AcDbLine
 10
3.405264752675379
 20
29.50117788953366
 30
0.0
 11
4.969942207055958
 21
29.33048580360124
 31
0.0
  0
LINE
  5
2FE
330
2E2
100
AcDbEntity
  8
GEN_LAYER
  6
Continuous
 62
     3
100
AcDbLine
 10
4.969942207055958
 20
29.33048580360124
 30
0.0
 11
5.240204676448968
 21
29.60074827299425
 31
0.0
  0
LINE
  5
2FF
330
2E2
100
AcDbEntity
  8
GEN_LAYER
  6
Continuous
 62
     3
100
AcDbLine
 10
5.240204676448968
 20
29.60074827299425
 30
0.0
 11
5.38244808139266
 21
29.88523508288163
 31
0.0
  0
LINE
  5
300
330
2E2
100
AcDbEntity
  8
GEN_LAYER
  6
Continuous
 62
     3
100
AcDbLine
 10
5.38244808139266
 20
29.88523508288163
 30
0.0
 11
5.396672421887025
 21
30.1270488712859
 31
0.0
  0
LINE
  5
301
330
2E2
100
AcDbEntity
  8
GEN_LAYER
  6
Continuous
 62
     3
100
AcDbLine
 10
5.396672421887025
 20
30.1270488712859
 30
0.0
 11
5.097961271505277
 21
30.48265738364512
 31
0.0
  0
LINE
  5
302
330
2E2
100
AcDbEntity
  8
GEN_LAYER
  6
Continuous
 62
     3
100
AcDbLine
 10
5.097961271505277
 20
30.48265738364512
 30
0.0
 11
4.671231056674209
 21
30.89516325798181
 31
0.0
  0
LINE
  5
303
330
2E2
100
AcDbEntity
  8
GEN_LAYER
  6
Continuous
 62
     3
100
AcDbLine
 10
4.671231056674209
 20
30.89516325798181
 30
0.0
 11
4.557436332719256
 21
31.4499125372622
 31
0.0
  0
LINE
  5
304
330
2E2
100
AcDbEntity
  8
GEN_LAYER
  6
Continuous
 62
     3
100
AcDbLine
 10
4.557436332719256
 20
31.4499125372622
 30
0.0
 11
4.71390407815732
 21
31.69172632566647
 31
0.0
  0
LINE
  5
305
330
2E2
100
AcDbEntity
  8
GEN_LAYER
  6
Continuous
 62
     3
100
AcDbLine
 10
4.71390407815732
 20
31.69172632566647
 30
0.0
 11
4.969942207055958
 21
31.96198879505949
 31
0.0
  0
LINE
  5
306
330
2E2
100
AcDbEntity
  8
GEN_LAYER
  6
Continuous
 62
     3
100
AcDbLine
 10
4.969942207055958
 20
31.96198879505949
 30
0.0
 11
5.140634292988381
 21
32.20380258346376
 31
0.0
  0
LINE
  5
307
330
2E2
100
AcDbEntity
  8
GEN_LAYER
  6
Continuous
 62
     3
100
AcDbLine
 10
5.140634292988381
 20
32.20380258346376
 30
0.0
 11
5.197531654965864
 21
32.5025137338455
 31
0.0
  0
LINE
  5
308
330
2E2
100
AcDbEntity
  8
GEN_LAYER
  6
Continuous
 62
     3
100
AcDbLine
 10
5.197531654965864
 20
32.5025137338455
 30
0.0
 11
5.169082973977119
 21
32.81544922472163
 31
0.0
  0
LINE
  5
309
330
2E2
100
AcDbEntity
  8
GEN_LAYER
  6
Continuous
 62
     3
100
AcDbLine
 10
5.126409952494015
 20
32.81544922472163
 30
0.0
 11
4.585885013708001
 21
33.64046097339502
 31
0.0
  0
LINE
  5
30A
330
2E2
100
AcDbEntity
  8
GEN_LAYER
  6
Continuous
 62
     1
100
AcDbLine
 10
40.68997927491775
 20
3.628370448899021
 30
0.0
 11
41.58115850151386
 21
5.377408161304582
 31
0.0
  0
LINE
  5
30B
330
2E2
100
AcDbEntity
  8
GEN_LAYER
  6
Continuous
 62
     1
100
AcDbLine
 10
41.58115850151386
 20
5.377408161304582
 30
0.0
 11
42.96490017522098
 21
5.44992698952499
 31
0.0
  0
LINE
  5
30C
330
2E2
100
AcDbEntity
  8
GEN_LAYER
  6
Continuous
 62
     1
100
AcDbLine
 10
42.96490017522098
 20
5.44992698952499
 30
0.0
 11
42.70278863798683
 21
4.935504132935095
 31
0.0
  0
ARC
  5
30D
330
2E2
100
AcDbEntity
  8
GEN_LAYER
  6
Continuous
 62
     1
100
AcDbCircle
 10
43.05919124766217
 20
4.753907933039272
 30
0.0
 40
0.4
100
AcDbArc
 50
152.9999999999994
 51
273.0000000000001
  0
ARC
  5
30E
330
2E2
100
AcDbEntity
  8
GEN_LAYER
  6
Continuous
 62
     1
100
AcDbCircle
 10
43.05919124766217
 20
4.753907933039272
 30
0.0
 40
0.4
100
AcDbArc
 50
152.9999999999994
 51
273.0000000000001
  0
LINE
  5
30F
330
2E2
100
AcDbEntity
  8
GEN_LAYER
  6
Continuous
 62
     1
100
AcDbLine
 10
43.08012563015934
 20
4.354456119137443
 30
0.0
 11
44.00262007929727
 21
4.402802004617707
 31
0.0
  0
LINE
  5
310
330
2E2
100
AcDbEntity
  8
GEN_LAYER
  6
Continuous
 62
     1
100
AcDbLine
 10
44.00262007929727
 20
4.402802004617707
 30
0.0
 11
45.11078967277054
 21
6.577707290649411
 31
0.0
  0
LINE
  5
311
330
2E2
100
AcDbEntity
  8
GEN_LAYER
  6
Continuous
 62
     1
100
AcDbLine
 10
45.11078967277054
 20
6.577707290649411
 30
0.0
 11
50.39442227985589
 21
6.577707290649414
 31
0.0
  0
LINE
  5
312
330
2E2
100
AcDbEntity
  8
GEN_LAYER
  6
Continuous
 62
     1
100
AcDbLine
 10
50.39442227985589
 20
6.577707290649414
 30
0.0
 11
50.39442227985589
 21
3.536135348367869
 31
0.0
  0
LINE
  5
313
330
2E2
100
AcDbEntity
  8
GEN_LAYER
  6
Continuous
 62
     1
100
AcDbLine
 10
40.68997927491775
 20
3.628370448899018
 30
0.0
 11
41.88487975013075
 21
1.788385071873192
 31
0.0
  0
LINE
  5
314
330
2E2
100
AcDbEntity
  8
GEN_LAYER
  6
Continuous
 62
     1
100
AcDbLine
 10
41.88487975013075
 20
1.788385071873192
 30
0.0
 11
43.26862142383779
 21
1.860903900093517
 31
0.0
  0
LINE
  5
315
330
2E2
100
AcDbEntity
  8
GEN_LAYER
  6
Continuous
 62
     1
100
AcDbLine
 10
43.26862142383779
 20
1.860903900093517
 30
0.0
 11
42.82839493296984
 21
2.538793249524154
 31
0.0
  0
ARC
  5
316
330
2E2
100
AcDbEntity
  8
GEN_LAYER
  6
Continuous
 62
     1
100
AcDbCircle
 10
43.16386316014803
 20
2.756648863530131
 30
0.0
 40
0.4
100
AcDbArc
 50
92.99999999999949
 51
212.9999999999942
  0
ARC
  5
317
330
2E2
100
AcDbEntity
  8
GEN_LAYER
  6
Continuous
 62
     1
100
AcDbCircle
 10
43.16386316014803
 20
2.756648863530131
 30
0.0
 40
0.4
100
AcDbArc
 50
92.99999999999949
 51
212.9999999999942
  0
LINE
  5
318
330
2E2
100
AcDbEntity
  8
GEN_LAYER
  6
Continuous
 62
     1
100
AcDbLine
 10
43.14292877765085
 20
3.156100677431962
 30
0.0
 11
44.06542322678895
 21
3.204446562912207
 31
0.0
  0
LINE
  5
319
330
2E2
100
AcDbEntity
  8
GEN_LAYER
  6
Continuous
 62
     1
100
AcDbLine
 10
44.06542322678895
 20
3.204446562912207
 30
0.0
 11
45.76343969156529
 21
0.5897305008228386
 31
0.0
  0
LINE
  5
31A
330
2E2
100
AcDbEntity
  8
GEN_LAYER
  6
Continuous
 62
     1
100
AcDbLine
 10
45.76343969156529
 20
0.5897305008228386
 30
0.0
 11
45.97134806068211
 21
0.8571853212820066
 31
0.0
  0
LINE
  5
31B
330
2E2
100
AcDbEntity
  8
GEN_LAYER
  6
Continuous
 62
     1
100
AcDbLine
 10
45.97134806068211
 20
0.8571853212820066
 30
0.0
 11
46.10849764887355
 21
1.011478607997372
 31
0.0
  0
LINE
  5
31C
330
2E2
100
AcDbEntity
  8
GEN_LAYER
  6
Continuous
 62
     1
100
AcDbLine
 10
46.10849764887355
 20
1.011478607997372
 30
0.0
 11
46.24564723706499
 21
1.165771894712735
 31
0.0
  0
LINE
  5
31D
330
2E2
100
AcDbEntity
  8
GEN_LAYER
  6
Continuous
 62
     1
100
AcDbLine
 10
46.24564723706499
 20
1.165771894712735
 30
0.0
 11
46.33136572968463
 21
1.234346688808452
 31
0.0
  0
LINE
  5
31E
330
2E2
100
AcDbEntity
  8
GEN_LAYER
  6
Continuous
 62
     1
100
AcDbLine
 10
46.33136572968463
 20
1.234346688808452
 30
0.0
 11
46.53709011197178
 21
1.354352578475957
 31
0.0
  0
LINE
  5
31F
330
2E2
100
AcDbEntity
  8
GEN_LAYER
  6
Continuous
 62
     1
100
AcDbLine
 10
46.53709011197178
 20
1.354352578475957
 30
0.0
 11
46.77710189130679
 21
1.440071071095606
 31
0.0
  0
LINE
  5
320
330
2E2
100
AcDbEntity
  8
GEN_LAYER
  6
Continuous
 62
     1
100
AcDbLine
 10
46.77710189130679
 20
1.440071071095606
 30
0.0
 11
46.98282627359394
 21
1.491502166667392
 31
0.0
  0
LINE
  5
321
330
2E2
100
AcDbEntity
  8
GEN_LAYER
  6
Continuous
 62
     1
100
AcDbLine
 10
46.98282627359394
 20
1.491502166667392
 30
0.0
 11
47.25712544997681
 21
1.508645865191323
 31
0.0
  0
LINE
  5
322
330
2E2
100
AcDbEntity
  8
GEN_LAYER
  6
Continuous
 62
     1
100
AcDbLine
 10
47.25712544997681
 20
1.508645865191323
 30
0.0
 11
47.44570613374004
 21
1.508645865191323
 31
0.0
  0
LINE
  5
323
330
2E2
100
AcDbEntity
  8
GEN_LAYER
  6
Continuous
 62
     1
100
AcDbLine
 10
47.44570613374004
 20
1.508645865191323
 30
0.0
 11
47.66857421455112
 21
1.508645865191323
 31
0.0
  0
LINE
  5
324
330
2E2
100
AcDbEntity
  8
GEN_LAYER
  6
Continuous
 62
     1
100
AcDbLine
 10
47.66857421455112
 20
1.508645865191323
 30
0.0
 11
47.82286750126649
 21
1.388639975523816
 31
0.0
  0
LINE
  5
325
330
2E2
100
AcDbEntity
  8
GEN_LAYER
  6
Continuous
 62
     1
100
AcDbLine
 10
47.82286750126649
 20
1.388639975523816
 30
0.0
 11
48.01144818502971
 21
1.200059291760594
 31
0.0
  0
LINE
  5
326
330
2E2
100
AcDbEntity
  8
GEN_LAYER
  6
Continuous
 62
     1
100
AcDbLine
 10
48.01144818502971
 20
1.200059291760594
 30
0.0
 11
48.14859777322114
 21
1.028622306521301
 31
0.0
  0
LINE
  5
327
330
2E2
100
AcDbEntity
  8
GEN_LAYER
  6
Continuous
 62
     1
100
AcDbLine
 10
48.14859777322114
 20
1.028622306521301
 30
0.0
 11
48.23431626584079
 21
0.8914727183298652
 31
0.0
  0
LINE
  5
328
330
2E2
100
AcDbEntity
  8
GEN_LAYER
  6
Continuous
 62
     1
100
AcDbLine
 10
48.23431626584079
 20
0.8914727183298652
 30
0.0
 11
48.42289694960401
 21
0.5828861448991365
 31
0.0
  0
LINE
  5
329
330
2E2
100
AcDbEntity
  8
GEN_LAYER
  6
Continuous
 62
     1
100
AcDbLine
 10
48.42289694960401
 20
0.5828861448991365
 30
0.0
 11
48.50861544222366
 21
0.428592858183773
 31
0.0
  0
LINE
  5
32A
330
2E2
100
AcDbEntity
  8
GEN_LAYER
  6
Continuous
 62
     1
100
AcDbLine
 10
48.50861544222366
 20
0.428592858183773
 30
0.0
 11
48.64576503041509
 21
0.1885810788487632
 31
0.0
  0
LINE
  5
32B
330
2E2
100
AcDbEntity
  8
GEN_LAYER
  6
Continuous
 62
     1
100
AcDbLine
 10
48.64576503041509
 20
0.1885810788487632
 30
0.0
 11
48.78291461860653
 21
0.0342877921333979
 31
0.0
  0
LINE
  5
32C
330
2E2
100
AcDbEntity
  8
GEN_LAYER
  6
Continuous
 62
     1
100
AcDbLine
 10
48.78291461860653
 20
0.0342877921333979
 30
0.0
 11
49.02292639794154
 21
0.0000003950855394
 31
0.0
  0
LINE
  5
32D
330
2E2
100
AcDbEntity
  8
GEN_LAYER
  6
Continuous
 62
     1
100
AcDbLine
 10
49.10864489056118
 20
0.0000003950855394
 30
0.0
 11
49.24579447875261
 21
0.0171440936094687
 31
0.0
  0
LINE
  5
32E
330
2E2
100
AcDbEntity
  8
GEN_LAYER
  6
Continuous
 62
     1
100
AcDbLine
 10
49.24579447875261
 20
0.0171440936094687
 30
0.0
 11
49.40008776546798
 21
0.1885810788487632
 31
0.0
  0
LINE
  5
32F
330
2E2
100
AcDbEntity
  8
GEN_LAYER
  6
Continuous
 62
     1
100
AcDbLine
 10
49.40008776546798
 20
0.1885810788487632
 30
0.0
 11
49.50294995661156
 21
0.3428743655641266
 31
0.0
  0
LINE
  5
330
330
2E2
100
AcDbEntity
  8
GEN_LAYER
  6
Continuous
 62
     1
100
AcDbLine
 10
49.50294995661156
 20
0.3428743655641266
 30
0.0
 11
49.52009365513549
 21
0.4800239537555608
 31
0.0
  0
LINE
  5
331
330
2E2
100
AcDbEntity
  8
GEN_LAYER
  6
Continuous
 62
     1
100
AcDbLine
 10
49.52009365513549
 20
0.4800239537555608
 30
0.0
 11
49.52009365513549
 21
2.142962710576708
 31
0.0
  0
LINE
  5
332
330
2E2
100
AcDbEntity
  8
GEN_LAYER
  6
Continuous
 62
     1
100
AcDbLine
 10
49.52009365513549
 20
2.142962710576708
 30
0.0
 11
49.70867433889871
 21
2.400118188435648
 31
0.0
  0
LINE
  5
333
330
2E2
100
AcDbEntity
  8
GEN_LAYER
  6
Continuous
 62
     1
100
AcDbLine
 10
49.70867433889871
 20
2.400118188435648
 30
0.0
 11
49.84582392709014
 21
2.674417364818517
 31
0.0
  0
LINE
  5
334
330
2E2
100
AcDbEntity
  8
GEN_LAYER
  6
Continuous
 62
     1
100
AcDbLine
 10
49.84582392709014
 20
2.674417364818517
 30
0.0
 11
49.98297351528159
 21
2.828710651533882
 31
0.0
  0
LINE
  5
335
330
2E2
100
AcDbEntity
  8
GEN_LAYER
  6
Continuous
 62
     1
100
AcDbLine
 10
49.98297351528159
 20
2.828710651533882
 30
0.0
 11
50.12012310347302
 21
2.931572842677458
 31
0.0
  0
LINE
  5
336
330
2E2
100
AcDbEntity
  8
GEN_LAYER
  6
Continuous
 62
     1
100
AcDbLine
 10
50.12012310347302
 20
2.931572842677458
 30
0.0
 11
50.27441639018838
 21
3.068722430868892
 31
0.0
  0
LINE
  5
337
330
2E2
100
AcDbEntity
  8
GEN_LAYER
  6
Continuous
 62
     1
100
AcDbLine
 10
50.27441639018838
 20
3.068722430868892
 30
0.0
 11
50.3429911842841
 21
3.15444092348854
 31
0.0
  0
LINE
  5
338
330
2E2
100
AcDbEntity
  8
GEN_LAYER
  6
Continuous
 62
     1
100
AcDbLine
 10
50.3429911842841
 20
3.15444092348854
 30
0.0
 11
50.42870967690374
 21
3.291590511679974
 31
0.0
  0
LINE
  5
339
330
2E2
100
AcDbEntity
  8
GEN_LAYER
  6
Continuous
 62
     1
100
AcDbLine
 10
50.42870967690374
 20
3.291590511679974
 30
0.0
 11
50.39442227985589
 21
3.536135348367869
 31
0.0
  0
LINE
  5
33A
330
2E2
100
AcDbEntity
  8
GEN_LAYER
  6
Continuous
 62
     1
100
AcDbLine
 10
45.72359046091043
 20
5.577707290649412
 30
0.0
 11
49.39442227985589
 21
5.577707290649411
 31
0.0
  0
LINE
  5
33B
330
2E2
100
AcDbEntity
  8
GEN_LAYER
  6
Continuous
 62
     1
100
AcDbLine
 10
44.89362660348562
 20
3.948811504878114
 30
0.0
 11
45.7323835226351
 21
5.594964645965809
 31
0.0
  0
LINE
  5
33C
330
2E2
100
AcDbEntity
  8
GEN_LAYER
  6
Continuous
 62
     1
100
AcDbLine
 10
46.03610477125203
 20
2.005941556534175
 30
0.0
 11
44.90409379473437
 21
3.749085597927236
 31
0.0
  0
LINE
  5
33D
330
2E2
100
AcDbEntity
  8
GEN_LAYER
  6
Continuous
 62
     1
100
AcDbLine
 10
46.92044798743876
 20
2.489554745150279
 30
0.0
 11
47.19474716382162
 21
2.50669844367421
 31
0.0
  0
LINE
  5
33E
330
2E2
100
AcDbEntity
  8
GEN_LAYER
  6
Continuous
 62
     1
100
AcDbLine
 10
46.53456626627047
 20
2.41021357124094
 30
0.0
 11
46.74029064855762
 21
2.461644666812726
 31
0.0
  0
LINE
  5
33F
330
2E2
100
AcDbEntity
  8
GEN_LAYER
  6
Continuous
 62
     1
100
AcDbLine
 10
46.20075371497362
 20
2.296094490070793
 30
0.0
 11
46.44076549430863
 21
2.381812982690441
 31
0.0
  0
LINE
  5
340
330
2E2
100
AcDbEntity
  8
GEN_LAYER
  6
Continuous
 62
     1
100
AcDbLine
 10
47.25712544997681
 20
2.508645865191323
 30
0.0
 11
47.44570613374004
 21
2.508645865191323
 31
0.0
  0
LINE
  5
341
330
2E2
100
AcDbEntity
  8
GEN_LAYER
  6
Continuous
 62
     1
100
AcDbLine
 10
47.44570613374004
 20
2.508645865191323
 30
0.0
 11
47.66857421455112
 21
2.508645865191323
 31
0.0
  0
LINE
  5
342
330
2E2
100
AcDbEntity
  8
GEN_LAYER
  6
Continuous
 62
     1
100
AcDbLine
 10
48.43680811478141
 20
2.177992192900135
 30
0.0
 11
48.28251482806606
 21
2.297998082567641
 31
0.0
  0
LINE
  5
343
330
2E2
100
AcDbEntity
  8
GEN_LAYER
  6
Continuous
 62
     1
100
AcDbLine
 10
49.39442227985589
 20
3.637297224964612
 30
0.0
 11
49.39442227985589
 21
5.577707290649412
 31
0.0
  0
LINE
  5
344
330
2E2
100
AcDbEntity
  8
GEN_LAYER
  6
Continuous
 62
     1
100
AcDbLine
 10
48.8142471478988
 20
2.847331783935607
 30
0.0
 11
48.95139673609023
 21
3.121630960318475
 31
0.0
  0
LINE
  5
345
330
2E2
100
AcDbEntity
  8
GEN_LAYER
  6
Continuous
 62
     1
100
AcDbLine
 10
49.09841460840649
 20
3.338781203648441
 30
0.0
 11
49.23556419659793
 21
3.493074490363806
 31
0.0
  0
LINE
  5
346
330
2E2
100
AcDbEntity
  8
GEN_LAYER
  6
Continuous
 62
     1
100
AcDbLine
 10
48.71368865927978
 20
2.734326374204219
 30
0.0
 11
48.902269343043
 21
2.99148185206316
 31
0.0
  0
LINE
  5
347
330
2E2
100
AcDbEntity
  8
GEN_LAYER
  6
Continuous
 62
     1
100
AcDbLine
 10
44.89362660348562
 20
3.948811504878114
 30
0.0
 11
44.90409379473437
 21
3.749085597927236
 31
0.0
  0
LINE
  5
348
330
2E2
100
AcDbEntity
  8
GEN_LAYER
  6
Continuous
 62
     1
100
AcDbLine
 10
46.03610477125203
 20
2.005941556534175
 30
0.0
 11
46.20075371497362
 21
2.296094490070793
 31
0.0
  0
LINE
  5
349
330
2E2
100
AcDbEntity
  8
GEN_LAYER
  6
Continuous
 62
     1
100
AcDbLine
 10
46.74029064855762
 20
2.461644666812726
 30
0.0
 11
46.92044798743876
 21
2.489554745150279
 31
0.0
  0
LINE
  5
34A
330
2E2
100
AcDbEntity
  8
GEN_LAYER
  6
Continuous
 62
     1
100
AcDbLine
 10
47.66857421455112
 20
2.508645865191323
 30
0.0
 11
48.28251482806606
 21
2.297998082567641
 31
0.0
  0
LINE
  5
34B
330
2E2
100
AcDbEntity
  8
GEN_LAYER
  6
Continuous
 62
     1
100
AcDbLine
 10
48.43680811478141
 20
2.177992192900135
 30
0.0
 11
48.52997428245303
 21
2.095746756710367
 31
0.0
  0
LINE
  5
34C
330
2E2
100
AcDbEntity
  8
GEN_LAYER
  6
Continuous
 62
     1
100
AcDbLine
 10
48.52009365513549
 20
2.104469198814282
 30
0.0
 11
48.71368865927978
 21
2.734326374204219
 31
0.0
  0
LINE
  5
34D
330
2E2
100
AcDbEntity
  8
GEN_LAYER
  6
Continuous
 62
     1
100
AcDbLine
 10
48.95139673609023
 20
3.121630960318475
 30
0.0
 11
49.09841460840649
 21
3.338781203648441
 31
0.0
  0
LINE
  5
34E
330
2E2
100
AcDbEntity
  8
GEN_LAYER
  6
Continuous
 62
     1
100
AcDbLine
 10
49.23556419659793
 20
3.493074490363806
 30
0.0
 11
49.38297351528158
 21
3.628710651533882
 31
0.0
  0
ENDBLK
  5
2E4
330
2E2
100
AcDbEntity
  8
0
100
AcDbBlockEnd
  0
BLOCK
  5
350
330
34F
100
AcDbEntity
  8
0
100
AcDbBlockBegin
  2
GEN_BLOCK00050
 70
     0
 10
0.0
 20
0.0
 30
0.0
  3
GEN_BLOCK00050
  1
GEN_BLOCK00050
  0
LINE
  5
353
330
34F
100
AcDbEntity
  8
1
  6
Continuous
 62
     4
100
AcDbLine
 10
0.0000008119260642
 20
0.3376528632056548
 30
0.0
 11
0.3421847923737005
 21
0.3659434044156598
 31
0.0
  0
LINE
  5
354
330
34F
100
AcDbEntity
  8
1
  6
Continuous
 62
     4
100
AcDbLine
 10
0.3421847923736934
 20
0.3659434044156527
 30
0.0
 11
0.3724396971914388
 21
-0.0000002402016008
 31
0.0
  0
ENDBLK
  5
351
330
34F
100
AcDbEntity
  8
0
100
AcDbBlockEnd
  0
BLOCK
  5
356
330
355
100
AcDbEntity
  8
0
100
AcDbBlockBegin
  2
GEN_BLOCK00051
 70
     0
 10
0.0
 20
0.0
 30
0.0
  3
GEN_BLOCK00051
  1
GEN_BLOCK00051
  0
LINE
  5
359
330
355
100
AcDbEntity
  8
1
  6
Continuous
 62
     4
100
AcDbLine
 10
-0.0000002304385873
 20
0.3178115553843099
 30
0.0
 11
0.3402476743526393
 21
0.3638723248321014
 31
0.0
  0
LINE
  5
35A
330
355
100
AcDbEntity
  8
1
  6
Continuous
 62
     4
100
AcDbLine
 10
0.3402476743526393
 20
0.3638723248320943
 30
0.0
 11
0.3895066894110499
 21
-0.0000008120394952
 31
0.0
  0
ENDBLK
  5
357
330
355
100
AcDbEntity
  8
0
100
AcDbBlockEnd
  0
BLOCK
  5
35C
330
35B
100
AcDbEntity
  8
0
100
AcDbBlockBegin
  2
GEN_BLOCK00052
 70
     0
 10
0.0
 20
0.0
 30
0.0
  3
GEN_BLOCK00052
  1
GEN_BLOCK00052
  0
LINE
  5
35F
330
35B
100
AcDbEntity
  8
GEN_LAYER
  6
Continuous
 62
     3
100
AcDbLine
 10
0.7832737267442411
 20
1.326510632821225
 30
0.0
 11
-0.0000000842979659
 21
2.109784443863482
 31
0.0
  0
LINE
  5
360
330
35B
100
AcDbEntity
  8
GEN_LAYER
  6
Continuous
 62
     3
100
AcDbLine
 10
-0.0000000842979659
 20
2.109784443863482
 30
0.0
 11
1.698528053125898
 21
3.808312581287247
 31
0.0
  0
LINE
  5
361
330
35B
100
AcDbEntity
  8
GEN_LAYER
  6
Continuous
 62
     3
100
AcDbLine
 10
1.698528053125898
 20
3.808312581287247
 30
0.0
 11
4.947918387684901
 21
3.808312581287275
 31
0.0
  0
ARC
  5
362
330
35B
100
AcDbEntity
  8
GEN_LAYER
  6
Continuous
 62
     3
100
AcDbCircle
 10
4.947918387684901
 20
4.408312581287269
 30
0.0
 40
0.6
100
AcDbArc
 50
270.0
 51
90.0
  0
ARC
  5
363
330
35B
100
AcDbEntity
  8
GEN_LAYER
  6
Continuous
 62
     3
100
AcDbCircle
 10
4.947918387684901
 20
4.408312581287269
 30
0.0
 40
0.6
100
AcDbArc
 50
270.0
 51
90.0
  0
LINE
  5
364
330
35B
100
AcDbEntity
  8
GEN_LAYER
  6
Continuous
 62
     3
100
AcDbLine
 10
4.947918387684901
 20
5.008312581287278
 30
0.0
 11
3.502081443719113
 21
5.008312581287292
 31
0.0
  0
ARC
  5
365
330
35B
100
AcDbEntity
  8
GEN_LAYER
  6
Continuous
 62
     3
100
AcDbCircle
 10
3.502081443719113
 20
5.258312581287292
 30
0.0
 40
0.25
100
AcDbArc
 50
134.9999999999989
 51
270.0
  0
ARC
  5
366
330
35B
100
AcDbEntity
  8
GEN_LAYER
  6
Continuous
 62
     3
100
AcDbCircle
 10
3.502081443719113
 20
5.258312581287292
 30
0.0
 40
0.25
100
AcDbArc
 50
134.9999999999989
 51
270.0
  0
LINE
  5
367
330
35B
100
AcDbEntity
  8
GEN_LAYER
  6
Continuous
 62
     3
100
AcDbLine
 10
3.325304748422475
 20
5.435089276583938
 30
0.0
 11
4.248528053126115
 21
6.358312581287315
 31
0.0
  0
LINE
  5
368
330
35B
100
AcDbEntity
  8
GEN_LAYER
  6
Continuous
 62
     3
100
AcDbLine
 10
4.248528053126115
 20
6.358312581287315
 30
0.0
 11
5.69130397016955
 21
6.358312581287315
 31
0.0
  0
LINE
  5
369
330
35B
100
AcDbEntity
  8
GEN_LAYER
  6
Continuous
 62
     3
100
AcDbLine
 10
6.691303210639017
 20
5.359545083005976
 30
0.0
 11
6.696435784504217
 21
1.195193917379022
 31
0.0
  0
LINE
  5
36A
330
35B
100
AcDbEntity
  8
GEN_LAYER
  6
Continuous
 62
     3
100
AcDbLine
 10
0.783273726744234
 20
1.326510632821233
 30
0.0
 11
2.109784072779199
 21
0.0000002867860687
 31
0.0
  0
LINE
  5
36B
330
35B
100
AcDbEntity
  8
GEN_LAYER
  6
Continuous
 62
     3
100
AcDbLine
 10
1.90944638414485
 20
0.200337975420446
 30
0.0
 11
5.694752365128107
 21
0.1939628338906587
 31
0.0
  0
ARC
  5
36C
330
35B
100
AcDbEntity
  8
GEN_LAYER
  6
Continuous
 62
     3
100
AcDbCircle
 10
5.69130397016955
 20
5.358312581287315
 30
0.0
 40
1.0
100
AcDbArc
 50
0.0
 51
90.0
  0
ARC
  5
36D
330
35B
100
AcDbEntity
  8
GEN_LAYER
  6
Continuous
 62
     3
100
AcDbCircle
 10
5.69130397016955
 20
5.358312581287315
 30
0.0
 40
1.0
100
AcDbArc
 50
0.0
 51
90.0
  0
ARC
  5
36E
330
35B
100
AcDbEntity
  8
GEN_LAYER
  6
Continuous
 62
     3
100
AcDbCircle
 10
5.69643654403475
 20
1.193961415660361
 30
0.0
 40
1.0
100
AcDbArc
 50
270.0
 51
0.0
  0
ARC
  5
36F
330
35B
100
AcDbEntity
  8
GEN_LAYER
  6
Continuous
 62
     3
100
AcDbCircle
 10
5.69643654403475
 20
1.193961415660361
 30
0.0
 40
1.0
100
AcDbArc
 50
270.0
 51
0.0
  0
LINE
  5
370
330
35B
100
AcDbEntity
  8
GEN_LAYER
  6
Continuous
 62
     3
100
AcDbLine
 10
2.363044302858178
 20
1.231903401803706
 30
0.0
 11
1.964762769015856
 21
1.530614552185448
 31
0.0
  0
LINE
  5
371
330
35B
100
AcDbEntity
  8
GEN_LAYER
  6
Continuous
 62
     3
100
AcDbLine
 10
1.964762769015856
 20
1.530614552185448
 30
0.0
 11
1.538032554184788
 21
1.77242834058972
 31
0.0
  0
LINE
  5
372
330
35B
100
AcDbEntity
  8
GEN_LAYER
  6
Continuous
 62
     3
100
AcDbLine
 10
1.538032554184788
 20
1.77242834058972
 30
0.0
 11
1.353116127757993
 21
1.985793448005253
 31
0.0
  0
LINE
  5
373
330
35B
100
AcDbEntity
  8
GEN_LAYER
  6
Continuous
 62
     3
100
AcDbLine
 10
1.353116127757993
 20
1.985793448005253
 30
0.0
 11
1.495359532701677
 21
2.156485533937683
 31
0.0
  0
LINE
  5
374
330
35B
100
AcDbEntity
  8
GEN_LAYER
  6
Continuous
 62
     3
100
AcDbLine
 10
1.495359532701677
 20
2.156485533937683
 30
0.0
 11
2.050108811982064
 21
2.910375580139238
 31
0.0
  0
LINE
  5
375
330
35B
100
AcDbEntity
  8
GEN_LAYER
  6
Continuous
 62
     3
100
AcDbLine
 10
2.050108811982064
 20
2.910375580139238
 30
0.0
 11
5.677315638046139
 21
2.953048601622342
 31
0.0
  0
LINE
  5
376
330
35B
100
AcDbEntity
  8
GEN_LAYER
  6
Continuous
 62
     3
100
AcDbLine
 10
5.677315638046139
 20
2.953048601622342
 30
0.0
 11
5.848007723978565
 21
1.388371147241763
 31
0.0
  0
LINE
  5
377
330
35B
100
AcDbEntity
  8
GEN_LAYER
  6
Continuous
 62
     3
100
AcDbLine
 10
5.848007723978565
 20
1.388371147241763
 30
0.0
 11
5.577745254585555
 21
1.118108677848753
 31
0.0
  0
LINE
  5
378
330
35B
100
AcDbEntity
  8
GEN_LAYER
  6
Continuous
 62
     3
100
AcDbLine
 10
5.577745254585555
 20
1.118108677848753
 30
0.0
 11
5.293258444698175
 21
0.975865272905061
 31
0.0
  0
LINE
  5
379
330
35B
100
AcDbEntity
  8
GEN_LAYER
  6
Continuous
 62
     3
100
AcDbLine
 10
5.293258444698175
 20
0.975865272905061
 30
0.0
 11
5.051444656293903
 21
0.9616409324106954
 31
0.0
  0
LINE
  5
37A
330
35B
100
AcDbEntity
  8
GEN_LAYER
  6
Continuous
 62
     3
100
AcDbLine
 10
5.051444656293903
 20
0.9616409324106954
 30
0.0
 11
4.695836143934685
 21
1.260352082792444
 31
0.0
  0
LINE
  5
37B
330
35B
100
AcDbEntity
  8
GEN_LAYER
  6
Continuous
 62
     3
100
AcDbLine
 10
4.695836143934685
 20
1.260352082792444
 30
0.0
 11
4.28333026959799
 21
1.687082297623512
 31
0.0
  0
LINE
  5
37C
330
35B
100
AcDbEntity
  8
GEN_LAYER
  6
Continuous
 62
     3
100
AcDbLine
 10
4.28333026959799
 20
1.687082297623512
 30
0.0
 11
3.728580990317603
 21
1.800877021578465
 31
0.0
  0
LINE
  5
37D
330
35B
100
AcDbEntity
  8
GEN_LAYER
  6
Continuous
 62
     3
100
AcDbLine
 10
3.728580990317603
 20
1.800877021578465
 30
0.0
 11
3.486767201913331
 21
1.644409276140401
 31
0.0
  0
LINE
  5
37E
330
35B
100
AcDbEntity
  8
GEN_LAYER
  6
Continuous
 62
     3
100
AcDbLine
 10
3.486767201913331
 20
1.644409276140401
 30
0.0
 11
3.216504732520313
 21
1.388371147241763
 31
0.0
  0
LINE
  5
37F
330
35B
100
AcDbEntity
  8
GEN_LAYER
  6
Continuous
 62
     3
100
AcDbLine
 10
3.216504732520313
 20
1.388371147241763
 30
0.0
 11
2.974690944116048
 21
1.217679061309333
 31
0.0
  0
LINE
  5
380
330
35B
100
AcDbEntity
  8
GEN_LAYER
  6
Continuous
 62
     3
100
AcDbLine
 10
2.974690944116048
 20
1.217679061309333
 30
0.0
 11
2.6759797937343
 21
1.160781699331856
 31
0.0
  0
LINE
  5
381
330
35B
100
AcDbEntity
  8
GEN_LAYER
  6
Continuous
 62
     3
100
AcDbLine
 10
2.6759797937343
 20
1.160781699331856
 30
0.0
 11
2.363044302858178
 21
1.189230380320602
 31
0.0
  0
LINE
  5
382
330
35B
100
AcDbEntity
  8
GEN_LAYER
  6
Continuous
 62
     3
100
AcDbLine
 10
2.363044302858178
 20
1.231903401803706
 30
0.0
 11
1.538032554184788
 21
1.77242834058972
 31
0.0
  0
ENDBLK
  5
35D
330
35B
100
AcDbEntity
  8
0
100
AcDbBlockEnd
  0
BLOCK
  5
384
330
383
100
AcDbEntity
  8
0
100
AcDbBlockBegin
  2
GEN_BLOCK00053
 70
     0
 10
0.0
 20
0.0
 30
0.0
  3
GEN_BLOCK00053
  1
GEN_BLOCK00053
  0
LINE
  5
387
330
383
100
AcDbEntity
  8
1
  6
Continuous
 62
     4
100
AcDbLine
 10
0.0000007852618076
 20
0.094815039933323
 30
0.0
 11
0.2776007469528494
 21
0.2968756557546044
 31
0.0
  0
LINE
  5
388
330
383
100
AcDbEntity
  8
1
  6
Continuous
 62
     4
100
AcDbLine
 10
0.2776007469528565
 20
0.2968756557545973
 30
0.0
 11
0.4936915121912939
 21
0.000000443788359
 31
0.0
  0
ENDBLK
  5
385
330
383
100
AcDbEntity
  8
0
100
AcDbBlockEnd
  0
BLOCK
  5
38A
330
389
100
AcDbEntity
  8
0
100
AcDbBlockBegin
  2
GEN_BLOCK00054
 70
     0
 10
0.0
 20
0.0
 30
0.0
  3
GEN_BLOCK00054
  1
GEN_BLOCK00054
  0
LINE
  5
38D
330
389
100
AcDbEntity
  8
1
  6
Continuous
 62
     4
100
AcDbLine
 10
0.0000013804763555
 20
0.2008602525318466
 30
0.0
 11
0.3151815452228846
 21
0.337064859455765
 31
0.0
  0
LINE
  5
38E
330
389
100
AcDbEntity
  8
1
  6
Continuous
 62
     4
100
AcDbLine
 10
0.3151815452228846
 20
0.3370648594557579
 30
0.0
 11
0.4608435665898938
 21
0.0000000499122521
 31
0.0
  0
ENDBLK
  5
38B
330
389
100
AcDbEntity
  8
0
100
AcDbBlockEnd
  0
BLOCK
  5
390
330
38F
100
AcDbEntity
  8
0
100
AcDbBlockBegin
  2
GEN_BLOCK00055
 70
     0
 10
0.0
 20
0.0
 30
0.0
  3
GEN_BLOCK00055
  1
GEN_BLOCK00055
  0
LINE
  5
393
330
38F
100
AcDbEntity
  8
1
  6
Continuous
 62
     4
100
AcDbLine
 10
0.000000095031524
 20
0.0364600788204328
 30
0.0
 11
0.252079669098805
 21
0.2695826207055987
 31
0.0
  0
LINE
  5
394
330
38F
100
AcDbEntity
  8
1
  6
Continuous
 62
     4
100
AcDbLine
 10
0.2520796690988121
 20
0.2695826207055987
 30
0.0
 11
0.5013891560839028
 21
-0.0000001866107766
 31
0.0
  0
ENDBLK
  5
391
330
38F
100
AcDbEntity
  8
0
100
AcDbBlockEnd
  0
BLOCK
  5
396
330
395
100
AcDbEntity
  8
0
100
AcDbBlockBegin
  2
GEN_BLOCK00056
 70
     0
 10
0.0
 20
0.0
 30
0.0
  3
GEN_BLOCK00056
  1
GEN_BLOCK00056
  0
LINE
  5
399
330
395
100
AcDbEntity
  8
1
  6
Continuous
 62
     4
100
AcDbLine
 10
0.0000002576644107
 20
0.0625050032392735
 30
0.0
 11
0.263870805530896
 21
0.282192429291797
 31
0.0
  0
LINE
  5
39A
330
395
100
AcDbEntity
  8
1
  6
Continuous
 62
     4
100
AcDbLine
 10
0.2638708055308996
 20
0.2821924292917899
 30
0.0
 11
0.4988123047240975
 21
-0.0000000622068086
 31
0.0
  0
ENDBLK
  5
397
330
395
100
AcDbEntity
  8
0
100
AcDbBlockEnd
  0
BLOCK
  5
39C
330
39B
100
AcDbEntity
  8
0
100
AcDbBlockBegin
  2
GEN_BLOCK00057
 70
     0
 10
0.0
 20
0.0
 30
0.0
  3
GEN_BLOCK00057
  1
GEN_BLOCK00057
  0
LINE
  5
39F
330
39B
100
AcDbEntity
  8
1
  6
Continuous
 62
     4
100
AcDbLine
 10
-0.0000001487183425
 20
0.2419599121044271
 30
0.0
 11
0.3262660434112519
 21
0.3489206669175715
 31
0.0
  0
LINE
  5
3A0
330
39B
100
AcDbEntity
  8
1
  6
Continuous
 62
     4
100
AcDbLine
 10
0.3262660434112519
 20
0.3489206669175644
 30
0.0
 11
0.4406536555845406
 21
0.0000000678085428
 31
0.0
  0
ENDBLK
  5
39D
330
39B
100
AcDbEntity
  8
0
100
AcDbBlockEnd
  0
BLOCK
  5
3A2
330
3A1
100
AcDbEntity
  8
0
100
AcDbBlockBegin
  2
GEN_BLOCK00058
 70
     0
 10
0.0
 20
0.0
 30
0.0
  3
GEN_BLOCK00058
  1
GEN_BLOCK00058
  0
TEXT
  5
3A5
330
3A1
100
AcDbEntity
  8
0
  6
Continuous
 62
     4
100
AcDbText
 10
1.37375020980835
 20
6.09375
 30
0.0
 40
2.5
  1
44MM
100
AcDbText
  0
TEXT
  5
3A6
330
3A1
100
AcDbEntity
  8
0
  6
Continuous
 62
     4
100
AcDbText
 10
1.37375020980835
 20
1.09375
 30
0.0
 40
2.5
  1
DOOR
100
AcDbText
  0
ENDBLK
  5
3A3
330
3A1
100
AcDbEntity
  8
0
100
AcDbBlockEnd
  0
BLOCK
  5
3A8
330
3A7
100
AcDbEntity
  8
0
100
AcDbBlockBegin
  2
GEN_BLOCK00059
 70
     0
 10
0.0
 20
0.0
 30
0.0
  3
GEN_BLOCK00059
  1
GEN_BLOCK00059
  0
LINE
  5
3AB
330
3A7
100
AcDbEntity
  8
1
  6
Continuous
 62
     4
100
AcDbLine
 10
0.0000002899346825
 20
0.2476747632832712
 30
0.0
 11
0.3276310932127018
 21
0.3503796216899673
 31
0.0
  0
LINE
  5
3AC
330
3A7
100
AcDbEntity
  8
1
  6
Continuous
 62
     4
100
AcDbLine
 10
0.3276310932127018
 20
0.3503796216899602
 30
0.0
 11
0.4374672993264426
 21
-0.0000003408190921
 31
0.0
  0
ENDBLK
  5
3A9
330
3A7
100
AcDbEntity
  8
0
100
AcDbBlockEnd
  0
BLOCK
  5
3AE
330
3AD
100
AcDbEntity
  8
0
100
AcDbBlockBegin
  2
GEN_BLOCK00060
 70
     0
 10
0.0
 20
0.0
 30
0.0
  3
GEN_BLOCK00060
  1
GEN_BLOCK00060
  0
LINE
  5
3B1
330
3AD
100
AcDbEntity
  8
1
  6
Continuous
 62
     4
100
AcDbLine
 10
-0.000001638750291
 20
0.1887965131537399
 30
0.0
 11
0.3115262183063336
 21
0.3331593389595966
 31
0.0
  0
LINE
  5
3B2
330
3AD
100
AcDbEntity
  8
1
  6
Continuous
 62
     4
100
AcDbLine
 10
0.3115262183063336
 20
0.3331593389595895
 30
0.0
 11
0.465912927332127
 21
0.0000004363657808
 31
0.0
  0
ENDBLK
  5
3AF
330
3AD
100
AcDbEntity
  8
0
100
AcDbBlockEnd
  0
BLOCK
  5
3B4
330
3B3
100
AcDbEntity
  8
0
100
AcDbBlockBegin
  2
GEN_BLOCK00061
 70
     0
 10
0.0
 20
0.0
 30
0.0
  3
GEN_BLOCK00061
  1
GEN_BLOCK00061
  0
LINE
  5
3B7
330
3B3
100
AcDbEntity
  8
1
  6
Continuous
 62
     4
100
AcDbLine
 10
0.0000010751219719
 20
0.1456182868468261
 30
0.0
 11
0.2971007611558463
 21
0.317728739044
 31
0.0
  0
LINE
  5
3B8
330
3B3
100
AcDbEntity
  8
1
  6
Continuous
 62
     4
100
AcDbLine
 10
0.2971007611558463
 20
0.3177287390439929
 30
0.0
 11
0.4811617627006299
 21
-0.0000001674339316
 31
0.0
  0
ENDBLK
  5
3B5
330
3B3
100
AcDbEntity
  8
0
100
AcDbBlockEnd
  0
BLOCK
  5
3BA
330
3B9
100
AcDbEntity
  8
0
100
AcDbBlockBegin
  2
GEN_BLOCK00062
 70
     0
 10
0.0
 20
0.0
 30
0.0
  3
GEN_BLOCK00062
  1
GEN_BLOCK00062
  0
LINE
  5
3BD
330
3B9
100
AcDbEntity
  8
1
  6
Continuous
 62
     4
100
AcDbLine
 10
0.0000002990230143
 20
0.1766044370224549
 30
0.0
 11
0.3076647215292212
 21
0.3290276449694858
 31
0.0
  0
LINE
  5
3BE
330
3B9
100
AcDbEntity
  8
1
  6
Continuous
 62
     4
100
AcDbLine
 10
0.3076647215292212
 20
0.3290276449694787
 30
0.0
 11
0.4706714881447738
 21
0.0000004358531669
 31
0.0
  0
ENDBLK
  5
3BB
330
3B9
100
AcDbEntity
  8
0
100
AcDbBlockEnd
  0
BLOCK
  5
3C0
330
3BF
100
AcDbEntity
  8
0
100
AcDbBlockBegin
  2
LOOSE00063
 70
     2
 10
0.0
 20
0.0
 30
0.0
  3
LOOSE00063
  1
LOOSE00063
  0
ATTDEF
  5
3C2
330
3BF
100
AcDbEntity
  8
DIMENSION
100
AcDbText
 10
0.0
 20
0.0
 30
0.0
 40
1.0
  1

100
AcDbAttributeDefinition
  3
Enter PAT_NAME
  2
PAT_NAME
 70
     0
280
     0
  0
LINE
  5
3C6
330
3BF
100
AcDbEntity
  8
DIMENSION
  6
Continuous
 62
     1
100
AcDbLine
 10
12.69999999999993
 20
30.33186008391942
 30
0.0
 11
12.69999999999993
 21
27.90023992835154
 31
0.0
  0
LINE
  5
3C7
330
3BF
100
AcDbEntity
  8
DIMENSION
  6
Continuous
 62
     1
100
AcDbLine
 10
13.69644660940662
 20
31.53541347451267
 30
0.0
 11
12.84644660940671
 21
30.68541347451276
 31
0.0
  0
LINE
  5
3C8
330
3BF
100
AcDbEntity
  8
DIMENSION
  6
Continuous
 62
     1
100
AcDbLine
 10
18.5
 20
36.33896686510593
 30
0.0
 11
18.5
 21
34.21886585242828
 31
0.0
  0
LINE
  5
3C9
330
3BF
100
AcDbEntity
  8
DIMENSION
  6
Continuous
 62
     1
100
AcDbLine
 10
16.91039405042466
 20
27.73602313995366
 30
0.0
 11
18.75
 21
27.73602313995366
 31
0.0
  0
LINE
  5
3CA
330
3BF
100
AcDbEntity
  8
DIMENSION
  6
Continuous
 62
     1
100
AcDbLine
 10
17.19852813742375
 20
35.03749500252979
 30
0.0
 11
18.15857864376267
 21
34.07744449619099
 31
0.0
  0
LINE
  5
3CB
330
3BF
100
AcDbEntity
  8
DIMENSION
  6
Continuous
 62
     1
100
AcDbLine
 10
18.5
 20
27.73602313995366
 30
0.0
 11
18.5
 21
17.81396863142197
 31
0.0
  0
LINE
  5
3CC
330
3BF
100
AcDbEntity
  8
DIMENSION
  6
Continuous
 62
     1
100
AcDbLine
 10
17.29999999999995
 20
25.49164864794113
 30
0.0
 11
17.29999999999995
 21
22.48602313995366
 31
0.0
  0
ARC
  5
3CD
330
3BF
100
AcDbEntity
  8
DIMENSION
  6
Continuous
 62
     1
100
AcDbCircle
 10
12.09999999999991
 20
25.83602313995368
 30
0.0
 40
0.600000000000001
100
AcDbArc
 50
180.0
 51
0.0
  0
ARC
  5
3CE
330
3BF
100
AcDbEntity
  8
DIMENSION
  6
Continuous
 62
     1
100
AcDbCircle
 10
12.09999999999991
 20
25.83602313995368
 30
0.0
 40
0.600000000000001
100
AcDbArc
 50
180.0
 51
0.0
  0
LINE
  5
3CF
330
3BF
100
AcDbEntity
  8
DIMENSION
  6
Continuous
 62
     1
100
AcDbLine
 10
15.25
 20
29.73602313995366
 30
0.0
 11
15.25
 21
33.08896686510593
 31
0.0
  0
LINE
  5
3D0
330
3BF
100
AcDbEntity
  8
DIMENSION
  6
Continuous
 62
     1
100
AcDbLine
 10
14.54999999999995
 20
29.8526421778505
 30
0.0
 11
14.54999999999995
 21
31.18186008391945
 31
0.0
  0
ARC
  5
3D1
330
3BF
100
AcDbEntity
  8
DIMENSION
  6
Continuous
 62
     1
100
AcDbCircle
 10
14.87999999999988
 20
29.73602313995366
 30
0.0
 40
4.158445537778243
100
AcDbArc
 50
238.3832855332871
 51
294.3402587305528
  0
ARC
  5
3D2
330
3BF
100
AcDbEntity
  8
DIMENSION
  6
Continuous
 62
     1
100
AcDbCircle
 10
14.87999999999988
 20
29.73602313995366
 30
0.0
 40
4.158445537778243
100
AcDbArc
 50
238.3832855332871
 51
294.3402587305528
  0
LINE
  5
3D3
330
3BF
100
AcDbEntity
  8
DIMENSION
  6
Continuous
 62
     1
100
AcDbLine
 10
12.69999999999993
 20
26.19479887556884
 30
0.0
 11
12.69999999999993
 21
25.83602313995368
 31
0.0
  0
ARC
  5
3D4
330
3BF
100
AcDbEntity
  8
DIMENSION
  6
Continuous
 62
     1
100
AcDbCircle
 10
16.79999999999995
 20
25.49164864794113
 30
0.0
 40
0.5
100
AcDbArc
 50
359.9999999999992
 51
114.3402587305532
  0
ARC
  5
3D5
330
3BF
100
AcDbEntity
  8
DIMENSION
  6
Continuous
 62
     1
100
AcDbCircle
 10
16.79999999999995
 20
25.49164864794113
 30
0.0
 40
0.5
100
AcDbArc
 50
359.9999999999992
 51
114.3402587305532
  0
ARC
  5
3D6
330
3BF
100
AcDbEntity
  8
DIMENSION
  6
Continuous
 62
     1
100
AcDbCircle
 10
13.19999999999993
 20
30.33186008391942
 30
0.0
 40
0.5
100
AcDbArc
 50
135.0
 51
180.0
  0
ARC
  5
3D7
330
3BF
100
AcDbEntity
  8
DIMENSION
  6
Continuous
 62
     1
100
AcDbCircle
 10
13.19999999999993
 20
30.33186008391942
 30
0.0
 40
0.5
100
AcDbArc
 50
135.0
 51
180.0
  0
ARC
  5
3D8
330
3BF
100
AcDbEntity
  8
DIMENSION
  6
Continuous
 62
     1
100
AcDbCircle
 10
14.04999999999995
 20
31.18186008391945
 30
0.0
 40
0.5
100
AcDbArc
 50
0.0
 51
135.0
  0
ARC
  5
3D9
330
3BF
100
AcDbEntity
  8
DIMENSION
  6
Continuous
 62
     1
100
AcDbCircle
 10
14.04999999999995
 20
31.18186008391945
 30
0.0
 40
0.5
100
AcDbArc
 50
0.0
 51
135.0
  0
LINE
  5
3DA
330
3BF
100
AcDbEntity
  8
DIMENSION
  6
Continuous
 62
     1
100
AcDbLine
 10
15.25
 20
33.08896686510593
 30
0.0
 11
17.19852813742375
 21
35.03749500252979
 31
0.0
  0
LINE
  5
3DB
330
3BF
100
AcDbEntity
  8
DIMENSION
  6
Continuous
 62
     1
100
AcDbLine
 10
11.5
 20
31.03602313995373
 30
0.0
 11
18.50969932479973
 21
38.04572246475345
 31
0.0
  0
LINE
  5
3DC
330
3BF
100
AcDbEntity
  8
DIMENSION
  6
Continuous
 62
     1
100
AcDbLine
 10
53.8911557850065
 20
6.209632416525096
 30
0.0
 11
57.58113358155867
 21
6.403015958446076
 31
0.0
  0
LINE
  5
3DD
330
3BF
100
AcDbEntity
  8
DIMENSION
  6
Continuous
 62
     1
100
AcDbLine
 10
39.54999999999995
 20
4.836023139953681
 30
0.0
 11
44.25
 21
4.836023139953681
 31
0.0
  0
LINE
  5
3DE
330
3BF
100
AcDbEntity
  8
DIMENSION
  6
Continuous
 62
     1
100
AcDbLine
 10
57.76980207764495
 20
6.112491951547213
 30
0.0
 11
56.77377823615507
 21
4.157685096505816
 31
0.0
  0
LINE
  5
3DF
330
3BF
100
AcDbEntity
  8
DIMENSION
  6
Continuous
 62
     1
100
AcDbLine
 10
54.62454998203884
 20
1.040931778541449
 30
0.0
 11
56.46953888031487
 21
1.137623549501882
 31
0.0
  0
LINE
  5
3E0
330
3BF
100
AcDbEntity
  8
DIMENSION
  6
Continuous
 62
     1
100
AcDbLine
 10
54.21563871371279
 20
0.0181293010466561
 30
0.0
 11
57.90561651026485
 21
0.2115128429677497
 31
0.0
  0
LINE
  5
3E1
330
3BF
100
AcDbEntity
  8
DIMENSION
  6
Continuous
 62
     1
100
AcDbLine
 10
56.86798295739243
 20
2.360151933947577
 30
0.0
 11
58.06288343260542
 21
0.5201665569217084
 31
0.0
  0
LINE
  5
3E2
330
3BF
100
AcDbEntity
  8
DIMENSION
  6
Continuous
 62
     1
100
AcDbLine
 10
55.84064389336072
 20
2.106036905831388
 30
0.0
 11
56.46953888031487
 21
1.137623549501882
 31
0.0
  0
LINE
  5
3E3
330
3BF
100
AcDbEntity
  8
DIMENSION
  6
Continuous
 62
     1
100
AcDbLine
 10
56.14488324920092
 20
5.126098452835208
 30
0.0
 11
55.72550478962626
 21
4.303021882291432
 31
0.0
  0
LINE
  5
3E4
330
3BF
100
AcDbEntity
  8
DIMENSION
  6
Continuous
 62
     1
100
AcDbLine
 10
53.303870509435
 20
3.07459982683315
 30
0.0
 11
54.62454998203884
 21
1.040931778541449
 31
0.0
  0
LINE
  5
3E5
330
3BF
100
AcDbEntity
  8
DIMENSION
  6
Continuous
 62
     1
100
AcDbLine
 10
54.29989435092477
 20
5.029406681874661
 30
0.0
 11
53.303870509435
 21
3.07459982683315
 31
0.0
  0
LINE
  5
3E6
330
3BF
100
AcDbEntity
  8
DIMENSION
  6
Continuous
 62
     1
100
AcDbLine
 10
55.91417328571254
 20
4.012497875392569
 30
0.0
 11
56.606044122566
 21
4.04875728950276
 31
0.0
  0
LINE
  5
3E7
330
3BF
100
AcDbEntity
  8
DIMENSION
  6
Continuous
 62
     1
100
AcDbLine
 10
55.99791081570118
 20
2.414690619785233
 30
0.0
 11
56.68978165255476
 21
2.450950033895424
 31
0.0
  0
ARC
  5
3E8
330
3BF
100
AcDbEntity
  8
DIMENSION
  6
Continuous
 62
     1
100
AcDbCircle
 10
56.70024884380325
 20
2.251224126944521
 30
0.0
 40
0.2
100
AcDbArc
 50
32.99999999999996
 51
93.00000000000001
  0
ARC
  5
3E9
330
3BF
100
AcDbEntity
  8
DIMENSION
  6
Continuous
 62
     1
100
AcDbCircle
 10
56.70024884380325
 20
2.251224126944521
 30
0.0
 40
0.2
100
AcDbArc
 50
32.99999999999996
 51
93.00000000000001
  0
ARC
  5
3EA
330
3BF
100
AcDbEntity
  8
DIMENSION
  6
Continuous
 62
     1
100
AcDbCircle
 10
56.00837800694978
 20
2.21496471283433
 30
0.0
 40
0.2
100
AcDbArc
 50
93.00000000000027
 51
213.0
  0
ARC
  5
3EB
330
3BF
100
AcDbEntity
  8
DIMENSION
  6
Continuous
 62
     1
100
AcDbCircle
 10
56.00837800694978
 20
2.21496471283433
 30
0.0
 40
0.2
100
AcDbArc
 50
93.00000000000027
 51
213.0
  0
ARC
  5
3EC
330
3BF
100
AcDbEntity
  8
DIMENSION
  6
Continuous
 62
     1
100
AcDbCircle
 10
57.89514931901635
 20
0.4112387499186525
 30
0.0
 40
0.2
100
AcDbArc
 50
273.0000000000001
 51
32.99999999999989
  0
ARC
  5
3ED
330
3BF
100
AcDbEntity
  8
DIMENSION
  6
Continuous
 62
     1
100
AcDbCircle
 10
57.89514931901635
 20
0.4112387499186525
 30
0.0
 40
0.2
100
AcDbArc
 50
273.0000000000001
 51
32.99999999999989
  0
ARC
  5
3EE
330
3BF
100
AcDbEntity
  8
DIMENSION
  6
Continuous
 62
     1
100
AcDbCircle
 10
55.90370609446393
 20
4.212223782343472
 30
0.0
 40
0.2
100
AcDbArc
 50
152.9999999999999
 51
273.0000000000001
  0
ARC
  5
3EF
330
3BF
100
AcDbEntity
  8
DIMENSION
  6
Continuous
 62
     1
100
AcDbCircle
 10
55.90370609446393
 20
4.212223782343472
 30
0.0
 40
0.2
100
AcDbArc
 50
152.9999999999999
 51
273.0000000000001
  0
ARC
  5
3F0
330
3BF
100
AcDbEntity
  8
DIMENSION
  6
Continuous
 62
     1
100
AcDbCircle
 10
56.5955769313174
 20
4.248483196453662
 30
0.0
 40
0.2
100
AcDbArc
 50
273.0000000000001
 51
332.9999999999999
  0
ARC
  5
3F1
330
3BF
100
AcDbEntity
  8
DIMENSION
  6
Continuous
 62
     1
100
AcDbCircle
 10
56.5955769313174
 20
4.248483196453662
 30
0.0
 40
0.2
100
AcDbArc
 50
273.0000000000001
 51
332.9999999999999
  0
ARC
  5
3F2
330
3BF
100
AcDbEntity
  8
DIMENSION
  6
Continuous
 62
     1
100
AcDbCircle
 10
57.59160077280717
 20
6.203290051495173
 30
0.0
 40
0.2
100
AcDbArc
 50
333.0000000000001
 51
93.00000000000001
  0
ARC
  5
3F3
330
3BF
100
AcDbEntity
  8
DIMENSION
  6
Continuous
 62
     1
100
AcDbCircle
 10
57.59160077280717
 20
6.203290051495173
 30
0.0
 40
0.2
100
AcDbArc
 50
333.0000000000001
 51
93.00000000000001
  0
LINE
  5
3F4
330
3BF
100
AcDbEntity
  8
DIMENSION
  6
Continuous
 62
     1
100
AcDbLine
 10
54.29989435092477
 20
5.029406681874661
 30
0.0
 11
56.14488324920092
 21
5.126098452835208
 31
0.0
  0
LINE
  5
3F5
330
3BF
100
AcDbEntity
  8
DIMENSION
  6
Continuous
 62
     1
100
AcDbLine
 10
52.36052802900372
 20
4.527219861327353
 30
0.0
 11
51.41718554857243
 21
5.979839895821442
 31
0.0
  0
LINE
  5
3F6
330
3BF
100
AcDbEntity
  8
DIMENSION
  6
Continuous
 62
     1
100
AcDbLine
 10
51.30273687740032
 20
6.036023139953613
 30
0.0
 11
33.12358363277644
 21
6.036023139953613
 31
0.0
  0
LINE
  5
3F7
330
3BF
100
AcDbEntity
  8
DIMENSION
  6
Continuous
 62
     1
100
AcDbLine
 10
13.05884572681191
 20
6.036023139953613
 30
0.0
 11
33.12358363277644
 21
6.036023139953613
 31
0.0
  0
LINE
  5
3F8
330
3BF
100
AcDbEntity
  8
DIMENSION
  6
Continuous
 62
     1
100
AcDbLine
 10
53.23068652189875
 20
5.574195281562083
 30
0.0
 11
52.70646344743045
 21
4.545349568382335
 31
0.0
  0
LINE
  5
3F9
330
3BF
100
AcDbEntity
  8
DIMENSION
  6
Continuous
 62
     1
100
AcDbLine
 10
50.78811785921039
 20
4.745225040005721
 30
0.0
 11
53.86970329528606
 21
-0.0000004060084393
 31
0.0
  0
ARC
  5
3FA
330
3BF
100
AcDbEntity
  8
DIMENSION
  6
Continuous
 62
     1
100
AcDbCircle
 10
50.60991655437272
 20
4.636023139953636
 30
0.0
 40
0.2
100
AcDbArc
 50
30.00000000000021
 51
89.99999999999594
  0
ARC
  5
3FB
330
3BF
100
AcDbEntity
  8
DIMENSION
  6
Continuous
 62
     1
100
AcDbCircle
 10
50.60991655437272
 20
4.636023139953636
 30
0.0
 40
0.2
100
AcDbArc
 50
30.00000000000021
 51
89.99999999999594
  0
LINE
  5
3FC
330
3BF
100
AcDbEntity
  8
DIMENSION
  6
Continuous
 62
     1
100
AcDbLine
 10
54.21563871371279
 20
0.0181293010466561
 30
0.0
 11
53.9850151014283
 21
0.0060428296766304
 31
0.0
  0
ARC
  5
3FD
330
3BF
100
AcDbEntity
  8
DIMENSION
  6
Continuous
 62
     1
100
AcDbCircle
 10
53.97454791017969
 20
0.2057687366275331
 30
0.0
 40
0.2
100
AcDbArc
 50
213.0000000000002
 51
272.999999999996
  0
ARC
  5
3FE
330
3BF
100
AcDbEntity
  8
DIMENSION
  6
Continuous
 62
     1
100
AcDbCircle
 10
53.97454791017969
 20
0.2057687366275331
 30
0.0
 40
0.2
100
AcDbArc
 50
213.0000000000002
 51
272.999999999996
  0
LINE
  5
3FF
330
3BF
100
AcDbEntity
  8
DIMENSION
  6
Continuous
 62
     1
100
AcDbLine
 10
53.49279805913295
 20
6.088618138152015
 30
0.0
 11
52.70646344743045
 21
4.545349568382449
 31
0.0
  0
LINE
  5
400
330
3BF
100
AcDbEntity
  8
DIMENSION
  6
Continuous
 62
     1
100
AcDbLine
 10
53.8911557850065
 20
6.209632416525096
 30
0.0
 11
53.66053217272201
 21
6.197545945154957
 31
0.0
  0
ARC
  5
401
330
3BF
100
AcDbEntity
  8
DIMENSION
  6
Continuous
 62
     1
100
AcDbCircle
 10
53.67099936397062
 20
5.997820038204054
 30
0.0
 40
0.2
100
AcDbArc
 50
93.00000000000406
 51
153.0000000000016
  0
ARC
  5
402
330
3BF
100
AcDbEntity
  8
DIMENSION
  6
Continuous
 62
     1
100
AcDbCircle
 10
53.67099936397062
 20
5.997820038204054
 30
0.0
 40
0.2
100
AcDbArc
 50
93.00000000000406
 51
153.0000000000016
  0
ARC
  5
403
330
3BF
100
AcDbEntity
  8
DIMENSION
  6
Continuous
 62
     1
100
AcDbCircle
 10
52.52826214259278
 20
4.636147668330295
 30
0.0
 40
0.2
100
AcDbArc
 50
212.9999999999972
 51
333.0000000000069
  0
ARC
  5
404
330
3BF
100
AcDbEntity
  8
DIMENSION
  6
Continuous
 62
     1
100
AcDbCircle
 10
52.52826214259278
 20
4.636147668330295
 30
0.0
 40
0.2
100
AcDbArc
 50
212.9999999999972
 51
333.0000000000069
  0
ARC
  5
405
330
3BF
100
AcDbEntity
  8
DIMENSION
  6
Continuous
 62
     1
100
AcDbCircle
 10
51.24945143498326
 20
5.870912088818386
 30
0.0
 40
0.2
100
AcDbArc
 50
33.00000000000022
 51
93.00000000000001
  0
ARC
  5
406
330
3BF
100
AcDbEntity
  8
DIMENSION
  6
Continuous
 62
     1
100
AcDbCircle
 10
51.24945143498326
 20
5.870912088818386
 30
0.0
 40
0.2
100
AcDbArc
 50
33.00000000000022
 51
93.00000000000001
  0
LINE
  5
407
330
3BF
100
AcDbEntity
  8
DIMENSION
  6
Continuous
 62
     1
100
AcDbLine
 10
38.54999999999995
 20
3.836023139953681
 30
0.0
 11
38.54999999999995
 21
2.536023139953613
 31
0.0
  0
LINE
  5
408
330
3BF
100
AcDbEntity
  8
DIMENSION
  6
Continuous
 62
     1
100
AcDbLine
 10
30.44999999999993
 20
3.836023139953681
 30
0.0
 11
30.44999999999993
 21
2.536023139953613
 31
0.0
  0
LINE
  5
409
330
3BF
100
AcDbEntity
  8
DIMENSION
  6
Continuous
 62
     1
100
AcDbLine
 10
37.54999999999995
 20
1.536023139953613
 30
0.0
 11
36.14999999999998
 21
1.536023139953613
 31
0.0
  0
LINE
  5
40A
330
3BF
100
AcDbEntity
  8
DIMENSION
  6
Continuous
 62
     1
100
AcDbLine
 10
31.44999999999993
 20
1.536023139953613
 30
0.0
 11
32.84999999999991
 21
1.536023139953613
 31
0.0
  0
ARC
  5
40B
330
3BF
100
AcDbEntity
  8
DIMENSION
  6
Continuous
 62
     1
100
AcDbCircle
 10
37.54999999999995
 20
2.536023139953613
 30
0.0
 40
1.0
100
AcDbArc
 50
270.0
 51
0.0
  0
ARC
  5
40C
330
3BF
100
AcDbEntity
  8
DIMENSION
  6
Continuous
 62
     1
100
AcDbCircle
 10
37.54999999999995
 20
2.536023139953613
 30
0.0
 40
1.0
100
AcDbArc
 50
270.0
 51
0.0
  0
ARC
  5
40D
330
3BF
100
AcDbEntity
  8
DIMENSION
  6
Continuous
 62
     1
100
AcDbCircle
 10
31.44999999999993
 20
2.536023139953613
 30
0.0
 40
1.0
100
AcDbArc
 50
180.0
 51
270.0
  0
ARC
  5
40E
330
3BF
100
AcDbEntity
  8
DIMENSION
  6
Continuous
 62
     1
100
AcDbCircle
 10
31.44999999999993
 20
2.536023139953613
 30
0.0
 40
1.0
100
AcDbArc
 50
180.0
 51
270.0
  0
ARC
  5
40F
330
3BF
100
AcDbEntity
  8
DIMENSION
  6
Continuous
 62
     1
100
AcDbCircle
 10
39.54999999999995
 20
3.836023139953681
 30
0.0
 40
1.0
100
AcDbArc
 50
90.0
 51
180.0
  0
ARC
  5
410
330
3BF
100
AcDbEntity
  8
DIMENSION
  6
Continuous
 62
     1
100
AcDbCircle
 10
39.54999999999995
 20
3.836023139953681
 30
0.0
 40
1.0
100
AcDbArc
 50
90.0
 51
180.0
  0
LINE
  5
411
330
3BF
100
AcDbEntity
  8
DIMENSION
  6
Continuous
 62
     1
100
AcDbLine
 10
13.05884572681191
 20
4.836023139953681
 30
0.0
 11
29.44999999999993
 21
4.836023139953681
 31
0.0
  0
ARC
  5
412
330
3BF
100
AcDbEntity
  8
DIMENSION
  6
Continuous
 62
     1
100
AcDbCircle
 10
29.44999999999993
 20
3.836023139953681
 30
0.0
 40
1.0
100
AcDbArc
 50
0.0
 51
89.99999999999997
  0
ARC
  5
413
330
3BF
100
AcDbEntity
  8
DIMENSION
  6
Continuous
 62
     1
100
AcDbCircle
 10
29.44999999999993
 20
3.836023139953681
 30
0.0
 40
1.0
100
AcDbArc
 50
0.0
 51
89.99999999999997
  0
LINE
  5
414
330
3BF
100
AcDbEntity
  8
DIMENSION
  6
Continuous
 62
     1
100
AcDbLine
 10
33.12358363277644
 20
4.836023139953681
 30
0.0
 11
32.64999999999998
 21
4.836023139953681
 31
0.0
  0
ARC
  5
415
330
3BF
100
AcDbEntity
  8
DIMENSION
  6
Continuous
 62
     1
100
AcDbCircle
 10
36.34999999999991
 20
3.686023139953591
 30
0.0
 40
1.15000000000001
100
AcDbArc
 50
270.0
 51
90.0
  0
ARC
  5
416
330
3BF
100
AcDbEntity
  8
DIMENSION
  6
Continuous
 62
     1
100
AcDbCircle
 10
36.34999999999991
 20
3.686023139953591
 30
0.0
 40
1.15000000000001
100
AcDbArc
 50
270.0
 51
90.0
  0
ARC
  5
417
330
3BF
100
AcDbEntity
  8
DIMENSION
  6
Continuous
 62
     1
100
AcDbCircle
 10
32.64999999999998
 20
3.686023139953591
 30
0.0
 40
1.150000000000007
100
AcDbArc
 50
90.0
 51
270.0
  0
ARC
  5
418
330
3BF
100
AcDbEntity
  8
DIMENSION
  6
Continuous
 62
     1
100
AcDbCircle
 10
32.64999999999998
 20
3.686023139953591
 30
0.0
 40
1.150000000000007
100
AcDbArc
 50
90.0
 51
270.0
  0
ARC
  5
419
330
3BF
100
AcDbEntity
  8
DIMENSION
  6
Continuous
 62
     1
100
AcDbCircle
 10
32.84999999999991
 20
2.036023139953613
 30
0.0
 40
0.5
100
AcDbArc
 50
270.0
 51
90.0
  0
ARC
  5
41A
330
3BF
100
AcDbEntity
  8
DIMENSION
  6
Continuous
 62
     1
100
AcDbCircle
 10
32.84999999999991
 20
2.036023139953613
 30
0.0
 40
0.5
100
AcDbArc
 50
270.0
 51
90.0
  0
ARC
  5
41B
330
3BF
100
AcDbEntity
  8
DIMENSION
  6
Continuous
 62
     1
100
AcDbCircle
 10
36.14999999999998
 20
2.036023139953613
 30
0.0
 40
0.4999999999999949
100
AcDbArc
 50
90.0
 51
270.0
  0
ARC
  5
41C
330
3BF
100
AcDbEntity
  8
DIMENSION
  6
Continuous
 62
     1
100
AcDbCircle
 10
36.14999999999998
 20
2.036023139953613
 30
0.0
 40
0.4999999999999949
100
AcDbArc
 50
90.0
 51
270.0
  0
LINE
  5
41D
330
3BF
100
AcDbEntity
  8
DIMENSION
  6
Continuous
 62
     1
100
AcDbLine
 10
36.34999999999991
 20
2.536023139953613
 30
0.0
 11
36.14999999999998
 21
2.536023139953613
 31
0.0
  0
LINE
  5
41E
330
3BF
100
AcDbEntity
  8
DIMENSION
  6
Continuous
 62
     1
100
AcDbLine
 10
36.34999999999991
 20
4.836023139953681
 30
0.0
 11
32.64999999999998
 21
4.836023139953681
 31
0.0
  0
LINE
  5
41F
330
3BF
100
AcDbEntity
  8
DIMENSION
  6
Continuous
 62
     1
100
AcDbLine
 10
32.64999999999998
 20
2.536023139953613
 30
0.0
 11
32.84999999999991
 21
2.536023139953613
 31
0.0
  0
LINE
  5
420
330
3BF
100
AcDbEntity
  8
DIMENSION
  6
Continuous
 62
     1
100
AcDbLine
 10
44.49999999999989
 20
5.086023139953681
 30
0.0
 11
44.75
 21
4.836023139953681
 31
0.0
  0
LINE
  5
421
330
3BF
100
AcDbEntity
  8
DIMENSION
  6
Continuous
 62
     1
100
AcDbLine
 10
44.5
 20
5.086023139953681
 30
0.0
 11
44.25
 21
4.836023139953681
 31
0.0
  0
LINE
  5
422
330
3BF
100
AcDbEntity
  8
DIMENSION
  6
Continuous
 62
     1
100
AcDbLine
 10
44.74999999999989
 20
4.836023139953681
 30
0.0
 11
50.60991655437272
 21
4.836023139953681
 31
0.0
  0
LINE
  5
423
330
3BF
100
AcDbEntity
  8
DIMENSION
  6
Continuous
 62
     1
100
AcDbLine
 10
17.29999999999995
 20
22.48602313995366
 30
0.0
 11
17.54999999999995
 21
22.23602313995366
 31
0.0
  0
LINE
  5
424
330
3BF
100
AcDbEntity
  8
DIMENSION
  6
Continuous
 62
     1
100
AcDbLine
 10
17.54999999999995
 20
22.23602313995366
 30
0.0
 11
17.29999999999995
 21
21.98602313995366
 31
0.0
  0
LINE
  5
425
330
3BF
100
AcDbEntity
  8
DIMENSION
  6
Continuous
 62
     1
100
AcDbLine
 10
17.29999999999995
 20
21.98602313995366
 30
0.0
 11
17.29999999999995
 21
17.46755846990823
 31
0.0
  0
LINE
  5
426
330
3BF
100
AcDbEntity
  8
DIMENSION
  6
Continuous
 62
     1
100
AcDbLine
 10
11.5
 20
31.03602313995373
 30
0.0
 11
11.5
 21
25.83602313995368
 31
0.0
  0
LINE
  5
427
330
3BF
100
AcDbEntity
  8
DIMENSION
  6
Continuous
 62
     1
100
AcDbLine
 10
16.29999999999995
 20
15.44683252774462
 30
0.0
 11
1.25
 21
6.757710976440762
 31
0.0
  0
LINE
  5
428
330
3BF
100
AcDbEntity
  8
DIMENSION
  6
Continuous
 62
     1
100
AcDbLine
 10
1.199999999999932
 20
4.592647466979656
 30
0.0
 11
1.199999999999932
 21
2.336023139953681
 31
0.0
  0
LINE
  5
429
330
3BF
100
AcDbEntity
  8
DIMENSION
  6
Continuous
 62
     1
100
AcDbLine
 10
16.89999999999998
 20
14.40760204320327
 30
0.0
 11
11.47666604983942
 21
11.27643872717283
 31
0.0
  0
LINE
  5
42A
330
3BF
100
AcDbEntity
  8
DIMENSION
  6
Continuous
 62
     1
100
AcDbLine
 10
0.0
 20
4.592647466979656
 30
0.0
 11
0.0
 21
2.336023139953681
 31
0.0
  0
LINE
  5
42B
330
3BF
100
AcDbEntity
  8
DIMENSION
  6
Continuous
 62
     1
100
AcDbLine
 10
17.29999999999995
 20
17.46755846990823
 30
0.0
 11
17.29999999999995
 21
17.17888333531346
 31
0.0
  0
LINE
  5
42C
330
3BF
100
AcDbEntity
  8
DIMENSION
  6
Continuous
 62
     1
100
AcDbLine
 10
18.5
 20
17.81396863142197
 30
0.0
 11
18.5
 21
17.17888333531346
 31
0.0
  0
ARC
  5
42D
330
3BF
100
AcDbEntity
  8
DIMENSION
  6
Continuous
 62
     1
100
AcDbCircle
 10
15.29999999999995
 20
17.17888333531346
 30
0.0
 40
2.0
100
AcDbArc
 50
300.0
 51
0.0
  0
ARC
  5
42E
330
3BF
100
AcDbEntity
  8
DIMENSION
  6
Continuous
 62
     1
100
AcDbCircle
 10
15.29999999999995
 20
17.17888333531346
 30
0.0
 40
2.0
100
AcDbArc
 50
300.0
 51
0.0
  0
ARC
  5
42F
330
3BF
100
AcDbEntity
  8
DIMENSION
  6
Continuous
 62
     1
100
AcDbCircle
 10
15.29999999999995
 20
17.17888333531346
 30
0.0
 40
3.2
100
AcDbArc
 50
300.0
 51
0.0
  0
ARC
  5
430
330
3BF
100
AcDbEntity
  8
DIMENSION
  6
Continuous
 62
     1
100
AcDbCircle
 10
15.29999999999995
 20
17.17888333531346
 30
0.0
 40
3.2
100
AcDbArc
 50
300.0
 51
0.0
  0
LINE
  5
431
330
3BF
100
AcDbEntity
  8
DIMENSION
  6
Continuous
 62
     1
100
AcDbLine
 10
6.598333950160395
 20
8.459932376226789
 30
0.0
 11
1.849999999999909
 21
5.718480491899413
 31
0.0
  0
ARC
  5
432
330
3BF
100
AcDbEntity
  8
DIMENSION
  6
Continuous
 62
     1
100
AcDbCircle
 10
2.5
 20
4.592647466979656
 30
0.0
 40
2.5
100
AcDbArc
 50
120.0
 51
180.0
  0
ARC
  5
433
330
3BF
100
AcDbEntity
  8
DIMENSION
  6
Continuous
 62
     1
100
AcDbCircle
 10
2.5
 20
4.592647466979656
 30
0.0
 40
2.5
100
AcDbArc
 50
120.0
 51
180.0
  0
ARC
  5
434
330
3BF
100
AcDbEntity
  8
DIMENSION
  6
Continuous
 62
     1
100
AcDbCircle
 10
2.5
 20
4.592647466979656
 30
0.0
 40
1.3
100
AcDbArc
 50
120.0
 51
180.0
  0
ARC
  5
435
330
3BF
100
AcDbEntity
  8
DIMENSION
  6
Continuous
 62
     1
100
AcDbCircle
 10
2.5
 20
4.592647466979656
 30
0.0
 40
1.3
100
AcDbArc
 50
120.0
 51
180.0
  0
ARC
  5
436
330
3BF
100
AcDbEntity
  8
DIMENSION
  6
Continuous
 62
     1
100
AcDbCircle
 10
0.599999999999909
 20
2.336023139953681
 30
0.0
 40
0.599999999999995
100
AcDbArc
 50
180.0
 51
0.0
  0
ARC
  5
437
330
3BF
100
AcDbEntity
  8
DIMENSION
  6
Continuous
 62
     1
100
AcDbCircle
 10
0.599999999999909
 20
2.336023139953681
 30
0.0
 40
0.599999999999995
100
AcDbArc
 50
180.0
 51
0.0
  0
LINE
  5
438
330
3BF
100
AcDbEntity
  8
DIMENSION
  6
Continuous
 62
     1
100
AcDbLine
 10
18.80681483474211
 20
37.81504628794301
 30
0.0
 11
18.49999999999989
 21
36.66999773616919
 31
0.0
  0
LINE
  5
439
330
3BF
100
AcDbEntity
  8
DIMENSION
  6
Continuous
 62
     1
100
AcDbLine
 10
18.5
 20
36.33896686510593
 30
0.0
 11
18.49999999999989
 21
36.66999773616919
 31
0.0
  0
ARC
  5
43A
330
3BF
100
AcDbEntity
  8
DIMENSION
  6
Continuous
 62
     1
100
AcDbCircle
 10
18.61362966948434
 20
37.86681009696349
 30
0.0
 40
0.2
100
AcDbArc
 50
345.0000000000009
 51
135.0000000000029
  0
ARC
  5
43B
330
3BF
100
AcDbEntity
  8
DIMENSION
  6
Continuous
 62
     1
100
AcDbCircle
 10
18.61362966948434
 20
37.86681009696349
 30
0.0
 40
0.2
100
AcDbArc
 50
345.0000000000009
 51
135.0000000000029
  0
ARC
  5
43C
330
3BF
100
AcDbEntity
  8
DIMENSION
  6
Continuous
 62
     1
100
AcDbCircle
 10
18.29999999999995
 20
34.21886585242828
 30
0.0
 40
0.2
100
AcDbArc
 50
225.0000000000003
 51
0.0
  0
ARC
  5
43D
330
3BF
100
AcDbEntity
  8
DIMENSION
  6
Continuous
 62
     1
100
AcDbCircle
 10
18.29999999999995
 20
34.21886585242828
 30
0.0
 40
0.2
100
AcDbArc
 50
225.0000000000003
 51
0.0
  0
ARC
  5
43E
330
3BF
100
AcDbEntity
  8
DIMENSION
  6
Continuous
 62
     1
100
AcDbCircle
 10
14.87999999999988
 20
29.73602313995366
 30
0.0
 40
2.85
100
AcDbArc
 50
220.1008112503674
 51
315.4320713505835
  0
ARC
  5
43F
330
3BF
100
AcDbEntity
  8
DIMENSION
  6
Continuous
 62
     1
100
AcDbCircle
 10
14.87999999999988
 20
29.73602313995366
 30
0.0
 40
2.85
100
AcDbArc
 50
220.1008112503674
 51
315.4320713505835
  0
LINE
  5
440
330
3BF
100
AcDbEntity
  8
DIMENSION
  6
Continuous
 62
     1
100
AcDbLine
 10
11.75980762113522
 20
6.786023139953613
 30
0.0
 11
10.74461524227058
 21
8.544387919603992
 31
0.0
  0
LINE
  5
441
330
3BF
100
AcDbEntity
  8
DIMENSION
  6
Continuous
 62
     1
100
AcDbLine
 10
9.705384757729234
 20
7.944387919603969
 30
0.0
 11
10.72057713659399
 21
6.186023139953591
 31
0.0
  0
ARC
  5
442
330
3BF
100
AcDbEntity
  8
DIMENSION
  6
Continuous
 62
     1
100
AcDbCircle
 10
7.973333950160395
 20
6.944387919603969
 30
0.0
 40
2.0
100
AcDbArc
 50
30.00000000000039
 51
119.9999999999998
  0
ARC
  5
443
330
3BF
100
AcDbEntity
  8
DIMENSION
  6
Continuous
 62
     1
100
AcDbCircle
 10
7.973333950160395
 20
6.944387919603969
 30
0.0
 40
2.0
100
AcDbArc
 50
30.00000000000039
 51
119.9999999999998
  0
ARC
  5
444
330
3BF
100
AcDbEntity
  8
DIMENSION
  6
Continuous
 62
     1
100
AcDbCircle
 10
12.47666604983954
 20
9.544387919603992
 30
0.0
 40
2.0
100
AcDbArc
 50
120.0000000000006
 51
209.9999999999997
  0
ARC
  5
445
330
3BF
100
AcDbEntity
  8
DIMENSION
  6
Continuous
 62
     1
100
AcDbCircle
 10
12.47666604983954
 20
9.544387919603992
 30
0.0
 40
2.0
100
AcDbArc
 50
120.0000000000006
 51
209.9999999999997
  0
ARC
  5
446
330
3BF
100
AcDbEntity
  8
DIMENSION
  6
Continuous
 62
     1
100
AcDbCircle
 10
13.05884572681191
 20
7.536023139953613
 30
0.0
 40
1.5
100
AcDbArc
 50
209.9999999999999
 51
270.0
  0
ARC
  5
447
330
3BF
100
AcDbEntity
  8
DIMENSION
  6
Continuous
 62
     1
100
AcDbCircle
 10
13.05884572681191
 20
7.536023139953613
 30
0.0
 40
1.5
100
AcDbArc
 50
209.9999999999999
 51
270.0
  0
ARC
  5
448
330
3BF
100
AcDbEntity
  8
DIMENSION
  6
Continuous
 62
     1
100
AcDbCircle
 10
13.05884572681191
 20
7.536023139953613
 30
0.0
 40
2.7
100
AcDbArc
 50
209.9999999999997
 51
270.0000000000003
  0
ARC
  5
449
330
3BF
100
AcDbEntity
  8
DIMENSION
  6
Continuous
 62
     1
100
AcDbCircle
 10
13.05884572681191
 20
7.536023139953613
 30
0.0
 40
2.7
100
AcDbArc
 50
209.9999999999997
 51
270.0000000000003
  0
LINE
  5
44A
330
3BF
100
AcDbEntity
  8
DIMENSION
  6
Continuous
 62
     1
100
AcDbLine
 10
6.598333950160395
 20
8.459932376226789
 30
0.0
 11
6.973333950160395
 21
8.676438727172808
 31
0.0
  0
LINE
  5
44B
330
3BF
100
AcDbEntity
  8
DIMENSION
  6
Continuous
 62
     1
100
AcDbLine
 10
14.54999999999995
 20
29.8526421778505
 30
0.0
 11
14.54999999999995
 21
29.73602313995366
 31
0.0
  0
ARC
  5
44C
330
3BF
100
AcDbEntity
  8
DIMENSION
  6
Continuous
 62
     1
100
AcDbCircle
 10
14.89999999999998
 20
29.73602313995366
 30
0.0
 40
0.35
100
AcDbArc
 50
270.0
 51
0.0
  0
ARC
  5
44D
330
3BF
100
AcDbEntity
  8
DIMENSION
  6
Continuous
 62
     1
100
AcDbCircle
 10
14.89999999999998
 20
29.73602313995366
 30
0.0
 40
0.35
100
AcDbArc
 50
270.0
 51
0.0
  0
ARC
  5
44E
330
3BF
100
AcDbEntity
  8
DIMENSION
  6
Continuous
 62
     1
100
AcDbCircle
 10
14.89999999999998
 20
29.73602313995366
 30
0.0
 40
0.35
100
AcDbArc
 50
180.0
 51
270.0
  0
ARC
  5
44F
330
3BF
100
AcDbEntity
  8
DIMENSION
  6
Continuous
 62
     1
100
AcDbCircle
 10
14.89999999999998
 20
29.73602313995366
 30
0.0
 40
0.35
100
AcDbArc
 50
180.0
 51
270.0
  0
ENDBLK
  5
3C1
330
3BF
100
AcDbEntity
  8
0
100
AcDbBlockEnd
  0
BLOCK
  5
451
330
450
100
AcDbEntity
  8
0
100
AcDbBlockBegin
  2
GEN_BLOCK00064
 70
     0
 10
0.0
 20
0.0
 30
0.0
  3
GEN_BLOCK00064
  1
GEN_BLOCK00064
  0
LINE
  5
454
330
450
100
AcDbEntity
  8
1
  6
Continuous
 62
     4
100
AcDbLine
 10
-0.0000002005599455
 20
0.1330444128635193
 30
0.0
 11
0.2925186487759959
 21
0.3128302687591287
 31
0.0
  0
LINE
  5
455
330
450
100
AcDbEntity
  8
1
  6
Continuous
 62
     4
100
AcDbLine
 10
0.292518648776003
 20
0.3128302687591216
 30
0.0
 11
0.484787998355209
 21
0.0000002709748372
 31
0.0
  0
ENDBLK
  5
452
330
450
100
AcDbEntity
  8
0
100
AcDbBlockEnd
  0
BLOCK
  5
457
330
456
100
AcDbEntity
  8
0
100
AcDbBlockBegin
  2
GEN_BLOCK00065
 70
     0
 10
0.0
 20
0.0
 30
0.0
  3
GEN_BLOCK00065
  1
GEN_BLOCK00065
  0
LINE
  5
45A
330
456
100
AcDbEntity
  8
1
  6
Continuous
 62
     4
100
AcDbLine
 10
0.0000007995533053
 20
0.0299310806598427
 30
0.0
 11
0.2490245848198427
 21
0.2663150597457076
 31
0.0
  0
LINE
  5
45B
330
456
100
AcDbEntity
  8
1
  6
Continuous
 62
     4
100
AcDbLine
 10
0.2490245848198498
 20
0.2663150597457076
 30
0.0
 11
0.5018219680365306
 21
0.0000002209924972
 31
0.0
  0
ENDBLK
  5
458
330
456
100
AcDbEntity
  8
0
100
AcDbBlockEnd
  0
BLOCK
  5
45D
330
45C
100
AcDbEntity
  8
0
100
AcDbBlockBegin
  2
GEN_BLOCK00066
 70
     2
 10
0.0
 20
0.0
 30
0.0
  3
GEN_BLOCK00066
  1
GEN_BLOCK00066
  0
ATTDEF
  5
45F
330
45C
100
AcDbEntity
  8
0
100
AcDbText
 10
0.0
 20
0.0
 30
0.0
 40
1.0
  1

100
AcDbAttributeDefinition
  3
Enter Symbol_Description
  2
Symbol_Description
 70
     0
280
     0
  0
TEXT
  5
463
330
45C
100
AcDbEntity
  8
0
  6
Continuous
 62
    15
100
AcDbText
 10
91.22000026702881
 20
25.23999238014221
 30
0.0
 40
1.759999990463257
  1
DRAWN
  7
ARIAL
100
AcDbText
  0
TEXT
  5
464
330
45C
100
AcDbEntity
  8
0
  6
Continuous
 62
    15
100
AcDbText
 10
123.2200012207031
 20
31.11999237537384
 30
0.0
 40
1.759999990463257
  1
1:1
  7
ARIAL
100
AcDbText
  0
TEXT
  5
465
330
45C
100
AcDbEntity
  8
0
  6
Continuous
 62
    15
100
AcDbText
 10
91.22000026702881
 20
21.11999237537384
 30
0.0
 40
1.759999990463257
  1
PBA
  7
ARIAL
100
AcDbText
  0
TEXT
  5
466
330
45C
100
AcDbEntity
  8
0
  6
Continuous
 62
    15
100
AcDbText
 10
123.2200012207031
 20
21.11999237537384
 30
0.0
 40
1.759999990463257
  1
XX
  7
ARIAL
100
AcDbText
  0
TEXT
  5
467
330
45C
100
AcDbEntity
  8
0
  6
Continuous
 62
    15
100
AcDbText
 10
52.2998487617856
 20
11.99998474121094
 30
0.0
 40
1.759999990463257
  1
Mountpleasant, Dundalk, Ireland
  7
ARIAL
100
AcDbText
  0
TEXT
  5
468
330
45C
100
AcDbEntity
  8
0
  6
Continuous
 62
    15
100
AcDbText
 10
55.04665867415602
 20
9.007984399795532
 30
0.0
 40
1.759999990463257
  1
Telephone (353/42) 9371244
  7
ARIAL
100
AcDbText
  0
TEXT
  5
469
330
45C
100
AcDbEntity
  8
0
  6
Continuous
 62
    15
100
AcDbText
 10
59.40923912321492
 20
6.015984058380127
 30
0.0
 40
1.759999990463257
  1
Fax (353/42) 9371221
  7
ARIAL
100
AcDbText
  0
TEXT
  5
46A
330
45C
100
AcDbEntity
  8
0
  6
Continuous
 62
    15
100
AcDbText
 10
113.1999912261963
 20
6.239984750747681
 30
0.0
 40
1.759999990463257
  1
DESCRIPTION
  7
ARIAL
100
AcDbText
  0
TEXT
  5
46B
330
45C
100
AcDbEntity
  8
0
  6
Continuous
 62
    15
100
AcDbText
 10
113.1999912261963
 20
15.23999238014221
 30
0.0
 40
1.759999990463257
  1
CODE
  7
ARIAL
100
AcDbText
  0
TEXT
  5
46C
330
45C
100
AcDbEntity
  8
0
  6
Continuous
 62
    15
100
AcDbText
 10
123.2200012207031
 20
25.23999238014221
 30
0.0
 40
1.759999990463257
  1
TOLERANCE
  7
ARIAL
100
AcDbText
  0
TEXT
  5
46D
330
45C
100
AcDbEntity
  8
0
  6
Continuous
 62
    15
100
AcDbText
 10
123.2200012207031
 20
35.23999238014221
 30
0.0
 40
1.759999990463257
  1
SCALE
  7
ARIAL
100
AcDbText
  0
TEXT
  5
46E
330
45C
100
AcDbEntity
  8
0
  6
Continuous
 62
    15
100
AcDbText
 10
91.22000026702881
 20
35.23999238014221
 30
0.0
 40
1.759999990463257
  1
APPROVED
  7
ARIAL
100
AcDbText
  0
TEXT
  5
46F
330
45C
100
AcDbEntity
  8
0
  6
Continuous
 62
    15
100
AcDbText
 10
155.2200088500977
 20
25.23999238014221
 30
0.0
 40
1.759999990463257
  1
DATE OF LAST REV.
  7
ARIAL
100
AcDbText
  0
TEXT
  5
470
330
45C
100
AcDbEntity
  8
0
  6
Continuous
 62
    15
100
AcDbText
 10
113.1999912261963
 20
11.11998474597931
 30
0.0
 40
1.759999990463257
  1
OUM
  7
ARIAL
100
AcDbText
  0
TEXT
  5
471
330
45C
100
AcDbEntity
  8
0
  6
Continuous
 62
    15
100
AcDbText
 10
113.1999912261963
 20
2.119984745979309
 30
0.0
 40
1.759999990463257
  1
Assembled drawing for OUM solution
  7
ARIAL
100
AcDbText
  0
TEXT
  5
472
330
45C
100
AcDbEntity
  8
0
  6
Continuous
 62
    15
100
AcDbText
 10
155.2200088500977
 20
21.11999237537384
 30
0.0
 40
1.759999990463257
  1
18/10/17
  7
ARIAL
100
AcDbText
  0
TEXT
  5
473
330
45C
100
AcDbEntity
  8
0
  6
Continuous
 62
    15
100
AcDbText
 10
91.22000026702881
 20
31.11999237537384
 30
0.0
 40
1.759999990463257
  1
XX
  7
ARIAL
100
AcDbText
  0
TEXT
  5
474
330
45C
100
AcDbEntity
  8
0
  6
Continuous
 62
    15
100
AcDbText
 10
123.2200012207031
 20
45.23999238014221
 30
0.0
 40
1.759999990463257
  1
DRAWING No
  7
ARIAL
100
AcDbText
  0
TEXT
  5
475
330
45C
100
AcDbEntity
  8
0
  6
Continuous
 62
    15
100
AcDbText
 10
155.2200088500977
 20
35.23999238014221
 30
0.0
 40
1.759999990463257
  1
ORIGINAL DRAW DATE
  7
ARIAL
100
AcDbText
  0
TEXT
  5
476
330
45C
100
AcDbEntity
  8
0
  6
Continuous
 62
    15
100
AcDbText
 10
155.2200088500977
 20
31.11999237537384
 30
0.0
 40
1.759999990463257
  1
06/03/03
  7
ARIAL
100
AcDbText
  0
TEXT
  5
477
330
45C
100
AcDbEntity
  8
0
  6
Continuous
 62
    15
100
AcDbText
 10
123.2200088500977
 20
41.11999237537384
 30
0.0
 40
1.759999990463257
  1
[Cust. no.] - [proj. no.] - [prod. type] - [dwg no.]
  7
ARIAL
100
AcDbText
  0
TEXT
  5
478
330
45C
100
AcDbEntity
  8
0
  6
Continuous
 62
    15
100
AcDbText
 10
92.4996194582877
 20
279.270003080368
 30
0.0
 40
1.059999942779541
  1
DATE
  7
ARIAL
100
AcDbText
  0
TEXT
  5
479
330
45C
100
AcDbEntity
  8
0
  6
Continuous
 62
    15
100
AcDbText
 10
100.17646535095
 20
279.270003080368
 30
0.0
 40
1.059999942779541
  1
ISSUE
  7
ARIAL
100
AcDbText
  0
TEXT
  5
47A
330
45C
100
AcDbEntity
  8
0
  6
Continuous
 62
    15
100
AcDbText
 10
137.4140388762459
 20
279.270003080368
 30
0.0
 40
1.059999942779541
  1
CHANGE
  7
ARIAL
100
AcDbText
  0
TEXT
  5
47B
330
45C
100
AcDbEntity
  8
0
  6
Continuous
 62
    15
100
AcDbText
 10
181.6347683620016
 20
279.270003080368
 30
0.0
 40
1.059999942779541
  1
SIGNED
  7
ARIAL
100
AcDbText
  0
TEXT
  5
47C
330
45C
100
AcDbEntity
  8
0
  6
Continuous
 62
    15
100
AcDbText
 10
2.815216064453125
 20
278.770003080368
 30
0.0
 40
1.059999942779541
  1
THIS DRAWING  IS  THE PROPERTY OF  EXITEX  LTD
  7
ARIAL
100
AcDbText
  0
TEXT
  5
47D
330
45C
100
AcDbEntity
  8
0
  6
Continuous
 62
    15
100
AcDbText
 10
2.815216064453125
 20
276.9680029153824
 30
0.0
 40
1.059999942779541
  1
AND  MUST NOT BE REPRODUCED IN WHOLE OR IN
  7
ARIAL
100
AcDbText
  0
TEXT
  5
47E
330
45C
100
AcDbEntity
  8
0
  6
Continuous
 62
    15
100
AcDbText
 10
2.815216064453125
 20
275.1660027503967
 30
0.0
 40
1.059999942779541
  1
PART WITHOUT CONSENT
  7
ARIAL
100
AcDbText
  0
TEXT
  5
47F
330
45C
100
AcDbEntity
  8
0
  6
Continuous
 62
    15
100
AcDbText
 10
2.815216064453125
 20
273.3640025854111
 30
0.0
 40
1.059999942779541
  1
C  COPYRIGHT EXITEX.
  7
ARIAL
100
AcDbText
  0
TEXT
  5
480
330
45C
100
AcDbEntity
  8
0
  6
Continuous
 62
    15
100
AcDbText
 10
92.01488829728115
 20
276.270003080368
 30
0.0
 40
1.059999942779541
  1
18/10/17
  7
ARIAL
100
AcDbText
  0
TEXT
  5
481
330
45C
100
AcDbEntity
  8
0
  6
Continuous
 62
    15
100
AcDbText
 10
93.30750472663192
 20
274.270003080368
 30
0.0
 40
1.059999942779541
  1
XX
  7
ARIAL
100
AcDbText
  0
TEXT
  5
482
330
45C
100
AcDbEntity
  8
0
  6
Continuous
 62
    15
100
AcDbText
 10
93.30750472663192
 20
272.270003080368
 30
0.0
 40
1.059999942779541
  1
XX
  7
ARIAL
100
AcDbText
  0
TEXT
  5
483
330
45C
100
AcDbEntity
  8
0
  6
Continuous
 62
    15
100
AcDbText
 10
93.30750472663192
 20
270.270003080368
 30
0.0
 40
1.059999942779541
  1
XX
  7
ARIAL
100
AcDbText
  0
TEXT
  5
484
330
45C
100
AcDbEntity
  8
0
  6
Continuous
 62
    15
100
AcDbText
 10
101.9538129413073
 20
276.270003080368
 30
0.0
 40
1.059999942779541
  1
1
  7
ARIAL
100
AcDbText
  0
TEXT
  5
485
330
45C
100
AcDbEntity
  8
0
  6
Continuous
 62
    15
100
AcDbText
 10
101.3075047266319
 20
274.270003080368
 30
0.0
 40
1.059999942779541
  1
XX
  7
ARIAL
100
AcDbText
  0
TEXT
  5
486
330
45C
100
AcDbEntity
  8
0
  6
Continuous
 62
    15
100
AcDbText
 10
101.3075047266319
 20
272.270003080368
 30
0.0
 40
1.059999942779541
  1
XX
  7
ARIAL
100
AcDbText
  0
TEXT
  5
487
330
45C
100
AcDbEntity
  8
0
  6
Continuous
 62
    15
100
AcDbText
 10
101.3075047266319
 20
270.270003080368
 30
0.0
 40
1.059999942779541
  1
XX
  7
ARIAL
100
AcDbText
  0
TEXT
  5
488
330
45C
100
AcDbEntity
  8
0
  6
Continuous
 62
    15
100
AcDbText
 10
131.9204190515051
 20
276.270003080368
 30
0.0
 40
1.059999942779541
  1
Original drawing - new template
  7
ARIAL
100
AcDbText
  0
TEXT
  5
489
330
45C
100
AcDbEntity
  8
0
  6
Continuous
 62
    15
100
AcDbText
 10
139.3529635202721
 20
274.270003080368
 30
0.0
 40
1.059999942779541
  1
XX
  7
ARIAL
100
AcDbText
  0
TEXT
  5
48A
330
45C
100
AcDbEntity
  8
0
  6
Continuous
 62
    15
100
AcDbText
 10
139.3529635202721
 20
272.270003080368
 30
0.0
 40
1.059999942779541
  1
XX
  7
ARIAL
100
AcDbText
  0
TEXT
  5
48B
330
45C
100
AcDbEntity
  8
0
  6
Continuous
 62
    15
100
AcDbText
 10
139.3529635202721
 20
270.270003080368
 30
0.0
 40
1.059999942779541
  1
XX
  7
ARIAL
100
AcDbText
  0
TEXT
  5
48C
330
45C
100
AcDbEntity
  8
0
  6
Continuous
 62
    15
100
AcDbText
 10
182.7658077376835
 20
276.270003080368
 30
0.0
 40
1.059999942779541
  1
SBG
  7
ARIAL
100
AcDbText
  0
TEXT
  5
48D
330
45C
100
AcDbEntity
  8
0
  6
Continuous
 62
    15
100
AcDbText
 10
183.25053889869
 20
274.270003080368
 30
0.0
 40
1.059999942779541
  1
XX
  7
ARIAL
100
AcDbText
  0
TEXT
  5
48E
330
45C
100
AcDbEntity
  8
0
  6
Continuous
 62
    15
100
AcDbText
 10
183.25053889869
 20
272.270003080368
 30
0.0
 40
1.059999942779541
  1
XX
  7
ARIAL
100
AcDbText
  0
TEXT
  5
48F
330
45C
100
AcDbEntity
  8
0
  6
Continuous
 62
    15
100
AcDbText
 10
183.25053889869
 20
270.270003080368
 30
0.0
 40
1.059999942779541
  1
XX
  7
ARIAL
100
AcDbText
  0
TEXT
  5
490
330
45C
100
AcDbEntity
  8
0
  6
Continuous
 62
    15
100
AcDbText
 10
79.28633308410645
 20
275.7720630168915
 30
0.0
 40
1.059999942779541
  1
First angle
  7
ARIAL
100
AcDbText
  0
TEXT
  5
491
330
45C
100
AcDbEntity
  8
0
  6
Continuous
 62
    15
100
AcDbText
 10
79.28633308410645
 20
273.9700628519058
 30
0.0
 40
1.059999942779541
  1
projection
  7
ARIAL
100
AcDbText
  0
LINE
  5
492
330
45C
100
AcDbEntity
  8
0
  6
Continuous
 62
     9
100
AcDbLine
 10
0.0000006103515631
 20
17.99999389648438
 30
0.0
 11
194.2200006103516
 21
17.99999389648438
 31
0.0
  0
LINE
  5
493
330
45C
100
AcDbEntity
  8
0
  6
Continuous
 62
     9
100
AcDbLine
 10
112.1999913452354
 20
17.99999389648437
 30
0.0
 11
112.1999913452354
 21
-0.0000061035156307
 31
0.0
  0
LINE
  5
494
330
45C
100
AcDbEntity
  8
0
  6
Continuous
 62
     9
100
AcDbLine
 10
154.2200006103516
 20
17.99999389648437
 30
0.0
 11
154.2200006103516
 21
37.99999389648437
 31
0.0
  0
LINE
  5
495
330
45C
100
AcDbEntity
  8
0
  6
Continuous
 62
     9
100
AcDbLine
 10
112.1999913452354
 20
8.999993896484312
 30
0.0
 11
194.2200006103515
 21
8.99999389648437
 31
0.0
  0
LINE
  5
496
330
45C
100
AcDbEntity
  8
0
  6
Continuous
 62
     9
100
AcDbLine
 10
122.2200006103516
 20
37.99999389648438
 30
0.0
 11
194.2200006103516
 21
37.99999389648437
 31
0.0
  0
LINE
  5
497
330
45C
100
AcDbEntity
  8
0
  6
Continuous
 62
     9
100
AcDbLine
 10
90.22000061035158
 20
27.99999389648437
 30
0.0
 11
194.2200006103516
 21
27.99999389648437
 31
0.0
  0
LINE
  5
498
330
45C
100
AcDbEntity
  8
0
  6
Continuous
 62
     9
100
AcDbLine
 10
194.2200006103516
 20
-0.0000061035156307
 30
0.0
 11
194.2200006103516
 21
281.2999938964844
 31
0.0
  0
LINE
  5
499
330
45C
100
AcDbEntity
  8
0
  6
Continuous
 62
     9
100
AcDbLine
 10
0.0000006103515631
 20
-0.0000061035156307
 30
0.0
 11
0.0000006103515631
 21
281.2999938964844
 31
0.0
  0
LINE
  5
49A
330
45C
100
AcDbEntity
  8
0
  6
Continuous
 62
     9
100
AcDbLine
 10
0.0000006103515631
 20
281.2999938964844
 30
0.0
 11
194.2200006103516
 21
281.2999938964844
 31
0.0
  0
LINE
  5
49B
330
45C
100
AcDbEntity
  8
0
  6
Continuous
 62
     9
100
AcDbLine
 10
194.2200006103516
 20
-0.0000061035156307
 30
0.0
 11
0.0000006103515631
 21
-0.0000061035156307
 31
0.0
  0
LINE
  5
49C
330
45C
100
AcDbEntity
  8
0
  6
Continuous
 62
     9
100
AcDbLine
 10
90.22000061035158
 20
37.99999389648438
 30
0.0
 11
90.22000061035158
 21
27.99999389648437
 31
0.0
  0
LINE
  5
49D
330
45C
100
AcDbEntity
  8
0
  6
Continuous
 62
     9
100
AcDbLine
 10
122.2200006103516
 20
37.99999389648437
 30
0.0
 11
122.2200006103516
 21
27.99999389648437
 31
0.0
  0
LINE
  5
49E
330
45C
100
AcDbEntity
  8
0
  6
Continuous
 62
     9
100
AcDbLine
 10
122.2200006103516
 20
27.99999389648437
 30
0.0
 11
122.2200006103516
 21
17.99999389648438
 31
0.0
  0
LINE
  5
49F
330
45C
100
AcDbEntity
  8
0
  6
Continuous
 62
     9
100
AcDbLine
 10
90.22000061035158
 20
27.99999389648437
 30
0.0
 11
90.22000061035158
 21
17.99999389648438
 31
0.0
  0
LINE
  5
4A0
330
45C
100
AcDbEntity
  8
0
  6
Continuous
 62
     9
100
AcDbLine
 10
122.2200006103516
 20
47.99999389648436
 30
0.0
 11
194.2200006103516
 21
47.99999389648436
 31
0.0
  0
LINE
  5
4A1
330
45C
100
AcDbEntity
  8
0
  6
Continuous
 62
     2
100
AcDbLine
 10
90.27696715421
 20
281.2999938964844
 30
0.0
 11
90.27696715421
 21
269.2999938964844
 31
0.0
  0
LINE
  5
4A2
330
45C
100
AcDbEntity
  8
0
  6
Continuous
 62
     2
100
AcDbLine
 10
194.2200006103516
 20
278.2999938964844
 30
0.0
 11
90.27696715421
 21
278.2999938964844
 31
0.0
  0
LINE
  5
4A3
330
45C
100
AcDbEntity
  8
0
  6
Continuous
 62
     2
100
AcDbLine
 10
98.27696715421
 20
281.2999938964844
 30
0.0
 11
98.27696715421
 21
269.2999938964844
 31
0.0
  0
LINE
  5
4A4
330
45C
100
AcDbEntity
  8
0
  6
Continuous
 62
     2
100
AcDbLine
 10
106.27696715421
 20
281.2999938964844
 30
0.0
 11
106.27696715421
 21
269.2999938964844
 31
0.0
  0
LINE
  5
4A5
330
45C
100
AcDbEntity
  8
0
  6
Continuous
 62
     2
100
AcDbLine
 10
174.2200006103516
 20
281.2999938964844
 30
0.0
 11
174.2200006103516
 21
269.2999938964844
 31
0.0
  0
CIRCLE
  5
4A6
330
45C
100
AcDbEntity
  8
0
  6
Continuous
 62
     1
100
AcDbCircle
 10
3.560661341893677
 20
273.8689679114367
 30
0.0
 40
1.0
  0
ARC
  5
4A7
330
45C
100
AcDbEntity
  8
0
  6
Continuous
 62
     1
100
AcDbCircle
 10
3.560661341893677
 20
273.8689679114367
 30
0.0
 40
1.0
100
AcDbArc
 50
0.0
 51
0.0
  0
LINE
  5
4A8
330
45C
100
AcDbEntity
  8
0
  6
Continuous
 62
     1
100
AcDbLine
 10
58.52696715421
 20
277.040374953251
 30
0.0
 11
58.52696715421
 21
273.5596128397178
 31
0.0
  0
LINE
  5
4A9
330
45C
100
AcDbEntity
  8
0
  6
Continuous
 62
     1
100
AcDbLine
 10
66.02696715421
 20
279.0499938964844
 30
0.0
 11
66.02696715421
 21
271.5499938964844
 31
0.0
  0
LINE
  5
4AA
330
45C
100
AcDbEntity
  8
0
  6
Continuous
 62
     1
100
AcDbLine
 10
66.02696715421001
 20
271.5499938964844
 30
0.0
 11
58.52696715421
 21
273.5596128397178
 31
0.0
  0
LINE
  5
4AB
330
45C
100
AcDbEntity
  8
0
  6
Continuous
 62
     1
100
AcDbLine
 10
66.02696715421
 20
279.0499938964844
 30
0.0
 11
58.52696715421
 21
277.040374953251
 31
0.0
  0
ARC
  5
4AC
330
45C
100
AcDbEntity
  8
0
  6
Continuous
 62
     1
100
AcDbCircle
 10
72.27696715421
 20
275.2999938964844
 30
0.0
 40
3.75
100
AcDbArc
 50
180.0
 51
0.0
  0
ARC
  5
4AD
330
45C
100
AcDbEntity
  8
0
  6
Continuous
 62
     1
100
AcDbCircle
 10
72.27696715421
 20
275.2999938964844
 30
0.0
 40
3.75
100
AcDbArc
 50
180.0
 51
0.0
  0
ARC
  5
4AE
330
45C
100
AcDbEntity
  8
0
  6
Continuous
 62
     1
100
AcDbCircle
 10
72.27696715421
 20
275.2999938964844
 30
0.0
 40
3.75
100
AcDbArc
 50
0.0
 51
180.0
  0
ARC
  5
4AF
330
45C
100
AcDbEntity
  8
0
  6
Continuous
 62
     1
100
AcDbCircle
 10
72.27696715421
 20
275.2999938964844
 30
0.0
 40
3.75
100
AcDbArc
 50
0.0
 51
180.0
  0
ARC
  5
4B0
330
45C
100
AcDbEntity
  8
0
  6
Continuous
 62
     1
100
AcDbCircle
 10
72.27696715421
 20
275.2999938964844
 30
0.0
 40
1.740381057
100
AcDbArc
 50
180.0
 51
0.0
  0
ARC
  5
4B1
330
45C
100
AcDbEntity
  8
0
  6
Continuous
 62
     1
100
AcDbCircle
 10
72.27696715421
 20
275.2999938964844
 30
0.0
 40
1.740381057
100
AcDbArc
 50
180.0
 51
0.0
  0
ARC
  5
4B2
330
45C
100
AcDbEntity
  8
0
  6
Continuous
 62
     1
100
AcDbCircle
 10
72.27696715421
 20
275.2999938964844
 30
0.0
 40
1.740381057
100
AcDbArc
 50
0.0
 51
180.0
  0
ARC
  5
4B3
330
45C
100
AcDbEntity
  8
0
  6
Continuous
 62
     1
100
AcDbCircle
 10
72.27696715421
 20
275.2999938964844
 30
0.0
 40
1.740381057
100
AcDbArc
 50
0.0
 51
180.0
  0
LINE
  5
4B4
330
45C
100
AcDbEntity
  8
0
  6
Continuous
 62
     1
100
AcDbLine
 10
72.27696715421
 20
275.7999938964844
 30
0.0
 11
72.27696715421
 21
274.7999938964844
 31
0.0
  0
LINE
  5
4B5
330
45C
100
AcDbEntity
  8
0
  6
Continuous
 62
     1
100
AcDbLine
 10
71.77696715421
 20
275.2999938964844
 30
0.0
 11
72.77696715421
 21
275.2999938964844
 31
0.0
  0
LINE
  5
4B6
330
45C
100
AcDbEntity
  8
0
  6
DOT
 62
     1
100
AcDbLine
 10
71.27696715421
 20
275.2999938964844
 30
0.0
 11
55.02000987546776
 21
275.2999938964844
 31
0.0
  0
LINE
  5
4B7
330
45C
100
AcDbEntity
  8
0
  6
DOT
 62
     1
100
AcDbLine
 10
73.27696715421
 20
275.2999938964844
 30
0.0
 11
79.28633747875388
 21
275.2999938964844
 31
0.0
  0
LINE
  5
4B8
330
45C
100
AcDbEntity
  8
0
  6
DOT
 62
     1
100
AcDbLine
 10
72.27696715421
 20
274.2999938964844
 30
0.0
 11
72.27696715421
 21
270.2999938964844
 31
0.0
  0
LINE
  5
4B9
330
45C
100
AcDbEntity
  8
0
  6
DOT
 62
     1
100
AcDbLine
 10
72.27696715421
 20
276.2999938964844
 30
0.0
 11
72.27696715421
 21
280.2999938964844
 31
0.0
  0
ENDBLK
  5
45E
330
45C
100
AcDbEntity
  8
0
100
AcDbBlockEnd
  0
ENDSEC
  0
SECTION
  2
ENTITIES
  0
INSERT
  5
77
330
1F
100
AcDbEntity
  8
1
100
AcDbBlockReference
  2
GEN_BLOCK
 10
46.84603881835938
 20
-17.21007919311523
 30
0.0
  0
INSERT
  5
7D
330
1F
100
AcDbEntity
  8
1
100
AcDbBlockReference
  2
GEN_BLOCK00000
 10
43.43112564086914
 20
-14.83102321624756
 30
0.0
  0
INSERT
  5
83
330
1F
100
AcDbEntity
  8
1
100
AcDbBlockReference
  2
GEN_BLOCK00001
 10
42.98770141601562
 20
-14.55880165100098
 30
0.0
  0
INSERT
  5
89
330
1F
100
AcDbEntity
  8
1
100
AcDbBlockReference
  2
GEN_BLOCK00002
 10
44.307373046875
 20
-15.39253330230713
 30
0.0
  0
INSERT
  5
8F
330
1F
100
AcDbEntity
  8
1
100
AcDbBlockReference
  2
GEN_BLOCK00003
 10
32.50248718261719
 20
-10.09583950042725
 30
0.0
  0
INSERT
  5
95
330
1F
100
AcDbEntity
  8
1
100
AcDbBlockReference
  2
GEN_BLOCK00004
 10
37.90038299560547
 20
-11.95334053039551
 30
0.0
  0
INSERT
  5
9B
330
1F
100
AcDbEntity
  8
1
100
AcDbBlockReference
  2
GEN_BLOCK00005
 10
48.45770263671875
 20
-18.52848243713379
 30
0.0
  0
INSERT
  5
A1
330
1F
100
AcDbEntity
  8
1
100
AcDbBlockReference
  2
GEN_BLOCK00006
 10
26.90449333190918
 20
-9.024317741394043
 30
0.0
  0
INSERT
  5
A7
330
1F
100
AcDbEntity
  8
1
100
AcDbBlockReference
  2
GEN_BLOCK00007
 10
33.50210952758789
 20
-10.37600898742676
 30
0.0
  0
INSERT
  5
AD
330
1F
100
AcDbEntity
  8
1
100
AcDbBlockReference
  2
GEN_BLOCK00008
 10
23.80757713317871
 20
-21.51269340515137
 30
0.0
  0
INSERT
  5
D2
330
1F
100
AcDbEntity
  8
0
100
AcDbBlockReference
 66
     1
  2
GEN_BLOCK00009
 10
-97.11000061035156
 20
-140.6499938964844
 30
0.0
  0
ATTRIB
  5
D3
330
D2
100
AcDbEntity
  8
0
100
AcDbText
 10
0.0
 20
0.0
 30
0.0
 40
1.0
  1

100
AcDbAttribute
  2
Symbol_Description
 70
     1
280
     0
  0
SEQEND
  5
D4
330
D2
100
AcDbEntity
  8
0
  0
INSERT
  5
12F
330
1F
100
AcDbEntity
  8
1
100
AcDbBlockReference
  2
GEN_BLOCK00010
 10
48.84988784790039
 20
-18.87092018127441
 30
0.0
  0
INSERT
  5
135
330
1F
100
AcDbEntity
  8
1
100
AcDbBlockReference
  2
GEN_BLOCK00011
 10
49.62091445922852
 20
-19.57079696655273
 30
0.0
  0
INSERT
  5
13B
330
1F
100
AcDbEntity
  8
1
100
AcDbBlockReference
  2
GEN_BLOCK00012
 10
46.01540756225586
 20
-16.58246421813965
 30
0.0
  0
INSERT
  5
141
330
1F
100
AcDbEntity
  8
1
100
AcDbBlockReference
  2
GEN_BLOCK00013
 10
27.93206596374512
 20
-9.15947151184082
 30
0.0
  0
INSERT
  5
147
330
1F
100
AcDbEntity
  8
0
100
AcDbBlockReference
  2
GEN_BLOCK00014
 10
-10.96902942657471
 20
-20.0037956237793
 30
0.0
  0
INSERT
  5
18E
330
1F
100
AcDbEntity
  8
1
100
AcDbBlockReference
  2
GEN_BLOCK00015
 10
34.98764419555664
 20
-10.84464168548584
 30
0.0
  0
INSERT
  5
194
330
1F
100
AcDbEntity
  8
1
100
AcDbBlockReference
  2
GEN_BLOCK00016
 10
45.16899490356445
 20
-15.97647857666016
 30
0.0
  0
INSERT
  5
19A
330
1F
100
AcDbEntity
  8
1
100
AcDbBlockReference
  2
GEN_BLOCK00017
 10
24.32469940185547
 20
-8.803628921508789
 30
0.0
  0
INSERT
  5
1A0
330
1F
100
AcDbEntity
  8
1
100
AcDbBlockReference
  2
GEN_BLOCK00018
 10
47.25525665283203
 20
-17.5318660736084
 30
0.0
  0
INSERT
  5
1A6
330
1F
100
AcDbEntity
  8
1
100
AcDbBlockReference
  2
GEN_BLOCK00019
 10
39.79188537597656
 20
-12.81672477722168
 30
0.0
  0
INSERT
  5
1AC
330
1F
100
AcDbEntity
  8
1
100
AcDbBlockReference
  2
GEN_BLOCK00020
 10
26.38960075378418
 20
-8.966768264770508
 30
0.0
  0
INSERT
  5
1B2
330
1F
100
AcDbEntity
  8
1
100
AcDbBlockReference
  2
GEN_BLOCK00021
 10
40.25773239135742
 20
-13.04777908325195
 30
0.0
  0
INSERT
  5
1B8
330
1F
100
AcDbEntity
  8
1
100
AcDbBlockReference
  2
GEN_BLOCK00022
 10
25.87408828735352
 20
-8.915916442871094
 30
0.0
  0
INSERT
  5
1BE
330
1F
100
AcDbEntity
  8
1
100
AcDbBlockReference
  2
GEN_BLOCK00023
 10
34.49443054199219
 20
-10.68201446533203
 30
0.0
  0
INSERT
  5
1C4
330
1F
100
AcDbEntity
  8
1
100
AcDbBlockReference
  2
GEN_BLOCK00024
 10
49.99962615966797
 20
-19.58088302612305
 30
0.0
  0
INSERT
  5
1CB
330
1F
100
AcDbEntity
  8
1
100
AcDbBlockReference
 66
     1
  2
_RASTER_[X__IMAGES_LOGO_JPG]
 10
-85.22274780273438
 20
-139.33984375
 30
0.0
  0
ATTRIB
  5
1CC
330
1CB
100
AcDbEntity
  8
1
100
AcDbText
 10
0.0
 20
0.0
 30
0.0
 40
1.0
  1
_RASTER_[X:\IMAGES\LOGO.JPG]
100
AcDbAttribute
  2
PAT_NAME
 70
     1
280
     0
  0
ATTRIB
  5
1CE
330
1CB
100
AcDbEntity
  8
1
100
AcDbText
 10
0.0
 20
0.0
 30
0.0
 40
1.0
  1

100
AcDbAttribute
  2
Symbol_Description
 70
     1
280
     0
  0
SEQEND
  5
1CD
330
1CB
100
AcDbEntity
  8
1
  0
INSERT
  5
1D3
330
1F
100
AcDbEntity
  8
1
100
AcDbBlockReference
 66
     1
  2
GEN_BLOCK00025
 10
-6.889999866485596
 20
-102.6500015258789
 30
0.0
  0
ATTRIB
  5
1D4
330
1D3
100
AcDbEntity
  8
1
100
AcDbText
 10
0.0
 20
0.0
 30
0.0
 40
1.0
  1

100
AcDbAttribute
  2
Symbol_Description
 70
     1
280
     0
  0
SEQEND
  5
1D5
330
1D3
100
AcDbEntity
  8
1
  0
INSERT
  5
1DB
330
1F
100
AcDbEntity
  8
1
100
AcDbBlockReference
  2
GEN_BLOCK00026
 10
28.95611000061035
 20
-9.32128620147705
 30
0.0
  0
INSERT
  5
1E1
330
1F
100
AcDbEntity
  8
1
100
AcDbBlockReference
  2
GEN_BLOCK00027
 10
23.73893737792969
 20
-22.0
 30
0.0
  0
INSERT
  5
1F0
330
1F
100
AcDbEntity
  8
1
100
AcDbBlockReference
  2
GEN_BLOCK00028
 10
35.96775054931641
 20
-11.18900680541992
 30
0.0
  0
INSERT
  5
1F8
330
1F
100
AcDbEntity
  8
DIMENSION
100
AcDbBlockReference
 66
     1
  2
LOOSE
 10
-22.00103569030762
 20
-22.0
 30
0.0
  0
ATTRIB
  5
1F9
330
1F8
100
AcDbEntity
  8
DIMENSION
100
AcDbText
 10
0.0
 20
0.0
 30
0.0
 40
1.0
  1
LOOSE
100
AcDbAttribute
  2
PAT_NAME
 70
     1
280
     0
  0
SEQEND
  5
1FA
330
1F8
100
AcDbEntity
  8
DIMENSION
  0
INSERT
  5
267
330
1F
100
AcDbEntity
  8
1
100
AcDbBlockReference
  2
GEN_BLOCK00029
 10
35.47877883911133
 20
-11.01364898681641
 30
0.0
  0
INSERT
  5
26D
330
1F
100
AcDbEntity
  8
1
100
AcDbBlockReference
  2
GEN_BLOCK00030
 10
30.99084091186523
 20
-9.724438667297363
 30
0.0
  0
INSERT
  5
273
330
1F
100
AcDbEntity
  8
1
100
AcDbBlockReference
  2
GEN_BLOCK00031
 10
43.87104034423828
 20
-15.10894966125488
 30
0.0
  0
INSERT
  5
279
330
1F
100
AcDbEntity
  8
1
100
AcDbBlockReference
  2
GEN_BLOCK00032
 10
38.85160064697266
 20
-12.3727912902832
 30
0.0
  0
INSERT
  5
27F
330
1F
100
AcDbEntity
  8
1
100
AcDbBlockReference
  2
GEN_BLOCK00033
 10
29.46659278869629
 20
-9.41215705871582
 30
0.0
  0
INSERT
  5
285
330
1F
100
AcDbEntity
  8
1
100
AcDbBlockReference
  2
GEN_BLOCK00034
 10
41.18043518066406
 20
-13.52786731719971
 30
0.0
  0
INSERT
  5
28B
330
1F
100
AcDbEntity
  8
1
100
AcDbBlockReference
  2
GEN_BLOCK00035
 10
48.0611572265625
 20
-18.19112396240234
 30
0.0
  0
INSERT
  5
291
330
1F
100
AcDbEntity
  8
0
100
AcDbBlockReference
  2
GEN_BLOCK00036
 10
-52.79365158081055
 20
-22.5
 30
0.0
  0
INSERT
  5
29C
330
1F
100
AcDbEntity
  8
1
100
AcDbBlockReference
  2
GEN_BLOCK00037
 10
44.74005126953125
 20
-15.68172550201416
 30
0.0
  0
INSERT
  5
2A2
330
1F
100
AcDbEntity
  8
1
100
AcDbBlockReference
  2
GEN_BLOCK00038
 10
42.54084396362305
 20
-14.29233074188232
 30
0.0
  0
INSERT
  5
2A8
330
1F
100
AcDbEntity
  8
1
100
AcDbBlockReference
  2
GEN_BLOCK00039
 10
40.72060775756836
 20
-13.28484058380127
 30
0.0
  0
INSERT
  5
2AE
330
1F
100
AcDbEntity
  8
1
100
AcDbBlockReference
  2
GEN_BLOCK00040
 10
36.93888092041016
 20
-11.55865669250488
 30
0.0
  0
INSERT
  5
2B4
330
1F
100
AcDbEntity
  8
1
100
AcDbBlockReference
  2
GEN_BLOCK00041
 10
23.80757713317871
 20
-8.779644012451172
 30
0.0
  0
INSERT
  5
2BA
330
1F
100
AcDbEntity
  8
1
100
AcDbBlockReference
  2
GEN_BLOCK00042
 10
31.49623680114746
 20
-9.841695785522461
 30
0.0
  0
INSERT
  5
2C0
330
1F
100
AcDbEntity
  8
1
100
AcDbBlockReference
  2
GEN_BLOCK00043
 10
30.48404312133789
 20
-9.613750457763672
 30
0.0
  0
INSERT
  5
2C6
330
1F
100
AcDbEntity
  8
1
100
AcDbBlockReference
  2
GEN_BLOCK00044
 10
45.59413909912109
 20
-16.27674102783203
 30
0.0
  0
INSERT
  5
2CC
330
1F
100
AcDbEntity
  8
1
100
AcDbBlockReference
  2
GEN_BLOCK00045
 10
46.43273162841797
 20
-16.89359474182129
 30
0.0
  0
INSERT
  5
2D2
330
1F
100
AcDbEntity
  8
1
100
AcDbBlockReference
  2
GEN_BLOCK00046
 10
39.32315063476562
 20
-12.59171581268311
 30
0.0
  0
INSERT
  5
2D8
330
1F
100
AcDbEntity
  8
1
100
AcDbBlockReference
  2
GEN_BLOCK00047
 10
32.00014877319336
 20
-9.965503692626953
 30
0.0
  0
INSERT
  5
2DE
330
1F
100
AcDbEntity
  8
1
100
AcDbBlockReference
  2
GEN_BLOCK00048
 10
28.44457244873047
 20
-9.237052917480469
 30
0.0
  0
INSERT
  5
2E5
330
1F
100
AcDbEntity
  8
GEN_LAYER
100
AcDbBlockReference
  2
GEN_BLOCK00049
 10
-27.65548515319824
 20
-11.57770729064941
 30
0.0
  0
INSERT
  5
352
330
1F
100
AcDbEntity
  8
1
100
AcDbBlockReference
  2
GEN_BLOCK00050
 10
49.23764801025391
 20
-19.2183780670166
 30
0.0
  0
INSERT
  5
358
330
1F
100
AcDbEntity
  8
1
100
AcDbBlockReference
  2
GEN_BLOCK00051
 10
47.66032028198242
 20
-17.8588981628418
 30
0.0
  0
INSERT
  5
35E
330
1F
100
AcDbEntity
  8
GEN_LAYER
100
AcDbBlockReference
  2
GEN_BLOCK00052
 10
15.24186515808105
 20
-22.87950325012207
 30
0.0
  0
INSERT
  5
386
330
1F
100
AcDbEntity
  8
1
100
AcDbBlockReference
  2
GEN_BLOCK00053
 10
29.97593116760254
 20
-9.509651184082031
 30
0.0
  0
INSERT
  5
38C
330
1F
100
AcDbEntity
  8
1
100
AcDbBlockReference
  2
GEN_BLOCK00054
 10
38.37731552124023
 20
-12.159987449646
 30
0.0
  0
INSERT
  5
392
330
1F
100
AcDbEntity
  8
1
100
AcDbBlockReference
  2
GEN_BLOCK00055
 10
25.35804176330566
 20
-8.871770858764648
 30
0.0
  0
INSERT
  5
398
330
1F
100
AcDbEntity
  8
1
100
AcDbBlockReference
  2
GEN_BLOCK00056
 10
27.41867637634277
 20
-9.088556289672852
 30
0.0
  0
INSERT
  5
39E
330
1F
100
AcDbEntity
  8
1
100
AcDbBlockReference
  2
GEN_BLOCK00057
 10
41.63713455200195
 20
-13.77682018280029
 30
0.0
  0
INSERT
  5
3A4
330
1F
100
AcDbEntity
  8
0
100
AcDbBlockReference
  2
GEN_BLOCK00058
 10
-8.602972984313965
 20
40.54985046386719
 30
0.0
  0
INSERT
  5
3AA
330
1F
100
AcDbEntity
  8
1
100
AcDbBlockReference
  2
GEN_BLOCK00059
 10
42.09062957763672
 20
-14.03165531158447
 30
0.0
  0
INSERT
  5
3B0
330
1F
100
AcDbEntity
  8
1
100
AcDbBlockReference
  2
GEN_BLOCK00060
 10
37.42087936401367
 20
-11.75288581848145
 30
0.0
  0
INSERT
  5
3B6
330
1F
100
AcDbEntity
  8
1
100
AcDbBlockReference
  2
GEN_BLOCK00061
 10
33.99922561645508
 20
-10.52579498291016
 30
0.0
  0
INSERT
  5
3BC
330
1F
100
AcDbEntity
  8
1
100
AcDbBlockReference
  2
GEN_BLOCK00062
 10
36.4544792175293
 20
-11.37068653106689
 30
0.0
  0
INSERT
  5
3C3
330
1F
100
AcDbEntity
  8
DIMENSION
100
AcDbBlockReference
 66
     1
  2
LOOSE00063
 10
-40.5
 20
-11.03602313995361
 30
0.0
  0
ATTRIB
  5
3C4
330
3C3
100
AcDbEntity
  8
DIMENSION
100
AcDbText
 10
0.0
 20
0.0
 30
0.0
 40
1.0
  1
LOOSE
100
AcDbAttribute
  2
PAT_NAME
 70
     1
280
     0
  0
SEQEND
  5
3C5
330
3C3
100
AcDbEntity
  8
DIMENSION
  0
INSERT
  5
453
330
1F
100
AcDbEntity
  8
1
100
AcDbBlockReference
  2
GEN_BLOCK00064
 10
33.00317001342773
 20
-10.2326831817627
 30
0.0
  0
INSERT
  5
459
330
1F
100
AcDbEntity
  8
1
100
AcDbBlockReference
  2
GEN_BLOCK00065
 10
24.84154891967773
 20
-8.83434009552002
 30
0.0
  0
INSERT
  5
460
330
1F
100
AcDbEntity
  8
0
100
AcDbBlockReference
 66
     1
  2
GEN_BLOCK00066
 10
-97.11000061035156
 20
-140.6499938964844
 30
0.0
  0
ATTRIB
  5
461
330
460
100
AcDbEntity
  8
0
100
AcDbText
 10
0.0
 20
0.0
 30
0.0
 40
1.0
  1

100
AcDbAttribute
  2
Symbol_Description
 70
     1
280
     0
  0
SEQEND
  5
462
330
460
100
AcDbEntity
  8
0
  0
ENDSEC
  0
SECTION
  2
OBJECTS
  0
DICTIONARY
  5
C
330
0
100
AcDbDictionary
281
     1
  3
ACAD_DETAILVIEWSTYLE
350
4EE
  3
ACAD_GROUP
350
D
  3
ACAD_LAYOUT
350
1A
  3
ACAD_MATERIAL
350
43
  3
ACAD_MLEADERSTYLE
350
4ED
  3
ACAD_MLINESTYLE
350
17
  3
ACAD_PLOTSETTINGS
350
19
  3
ACAD_PLOTSTYLENAME
350
E
  3
ACAD_SCALELIST
350
47
  3
ACAD_SECTIONVIEWSTYLE
350
4EF
  3
ACAD_TABLESTYLE
350
4EC
  3
ACAD_VISUALSTYLE
350
2A
  3
AcDbVariableDictionary
350
4BA
  0
SUN
  5
69
330
29
100
AcDbSun
 90
        1
290
     0
 63
     7
421
 16777215
 40
1.0
291
     1
 91
  2455826
 92
 54000000
292
     0
 70
     2
 71
   256
280
     1
  0
DICTIONARY
  5
4EE
102
{ACAD_REACTORS
330
C
102
}
330
C
100
AcDbDictionary
281
     1
  0
DICTIONARY
  5
D
102
{ACAD_REACTORS
330
C
102
}
330
C
100
AcDbDictionary
281
     1
  0
DICTIONARY
  5
1A
102
{ACAD_REACTORS
330
C
102
}
330
C
100
AcDbDictionary
281
     1
  3
Layout1
350
1E
  3
Layout2
350
26
  3
Model
350
22
  0
DICTIONARY
  5
43
102
{ACAD_REACTORS
330
C
102
}
330
C
100
AcDbDictionary
281
     1
  3
ByBlock
350
45
  3
ByLayer
350
44
  3
Global
350
46
  0
DICTIONARY
  5
4ED
102
{ACAD_REACTORS
330
C
102
}
330
C
100
AcDbDictionary
281
     1
  0
DICTIONARY
  5
17
102
{ACAD_REACTORS
330
C
102
}
330
C
100
AcDbDictionary
281
     1
  3
Standard
350
18
  0
DICTIONARY
  5
19
102
{ACAD_REACTORS
330
C
102
}
330
C
100
AcDbDictionary
281
     1
  0
ACDBDICTIONARYWDFLT
  5
E
102
{ACAD_REACTORS
330
C
102
}
330
C
100
AcDbDictionary
281
     1
  3
Normal
350
F
100
AcDbDictionaryWithDefault
340
F
  0
DICTIONARY
  5
47
102
{ACAD_REACTORS
330
C
102
}
330
C
100
AcDbDictionary
281
     1
  3
A0
350
48
  3
A1
350
49
  3
A2
350
4A
  3
A3
350
4B
  3
A4
350
4C
  3
A5
350
4D
  3
A6
350
4E
  3
A7
350
4F
  3
A8
350
50
  3
A9
350
51
  3
B0
350
52
  3
B1
350
53
  3
B2
350
54
  3
B3
350
55
  3
B4
350
56
  3
B5
350
57
  3
B6
350
58
  3
B7
350
59
  3
B8
350
5A
  3
B9
350
5B
  3
C0
350
5C
  3
C1
350
5D
  3
C2
350
5E
  3
C3
350
5F
  3
C4
350
60
  3
C5
350
61
  3
C6
350
62
  3
C7
350
63
  3
C8
350
64
  3
C9
350
65
  3
D0
350
66
  3
D1
350
67
  3
D2
350
68
  0
DICTIONARY
  5
4EF
102
{ACAD_REACTORS
330
C
102
}
330
C
100
AcDbDictionary
281
     1
  0
DICTIONARY
  5
4EC
102
{ACAD_REACTORS
330
C
102
}
330
C
100
AcDbDictionary
281
     1
  0
DICTIONARY
  5
2A
102
{ACAD_REACTORS
330
C
102
}
330
C
100
AcDbDictionary
281
     1
  3
2dWireframe
350
2F
  3
Basic
350
32
  3
Brighten
350
36
  3
ColorChange
350
3A
  3
Conceptual
350
34
  3
Dim
350
35
  3
EdgeColorOff
350
3D
  3
Facepattern
350
39
  3
Flat
350
2B
  3
FlatWithEdges
350
2C
  3
Gouraud
350
2D
  3
GouraudWithEdges
350
2E
  3
Hidden
350
31
  3
JitterOff
350
3B
  3
Linepattern
350
38
  3
OverhangOff
350
3C
  3
Realistic
350
33
  3
Shaded
350
42
  3
Shaded with edges
350
41
  3
Shades of Gray
350
3E
  3
Sketchy
350
3F
  3
Thicken
350
37
  3
Wireframe
350
30
  3
X-Ray
350
40
  0
DICTIONARY
  5
4BA
102
{ACAD_REACTORS
330
C
102
}
330
C
100
AcDbDictionary
281
     1
  3
CANNOSCALE
350
4BB
  0
LAYOUT
  5
1E
102
{ACAD_REACTORS
330
1A
102
}
330
1A
100
AcDbPlotSettings
  1

  2
none_device
  4

  6

 40
0.0
 41
0.0
 42
0.0
 43
0.0
 44
0.0
 45
0.0
 46
0.0
 47
0.0
 48
0.0
 49
0.0
140
0.0
141
0.0
142
1.0
143
1.0
 70
   688
 72
     1
 73
     0
 74
     5
  7

 75
    16
 76
     0
 77
     2
 78
   300
147
1.0
148
0.0
149
0.0
100
AcDbLayout
  1
Layout1
 70
     1
 71
     1
 10
0.0
 20
0.0
 11
420.0
 21
297.0
 12
0.0
 22
0.0
 32
0.0
 14
1.000000000000000E+20
 24
1.000000000000000E+20
 34
1.000000000000000E+20
 15
-1.000000000000000E+20
 25
-1.000000000000000E+20
 35
-1.000000000000000E+20
146
0.0
 13
0.0
 23
0.0
 33
0.0
 16
1.0
 26
0.0
 36
0.0
 17
0.0
 27
1.0
 37
0.0
 76
     0
330
1B
  0
LAYOUT
  5
26
102
{ACAD_REACTORS
330
1A
102
}
330
1A
100
AcDbPlotSettings
  1

  2
none_device
  4

  6

 40
0.0
 41
0.0
 42
0.0
 43
0.0
 44
0.0
 45
0.0
 46
0.0
 47
0.0
 48
0.0
 49
0.0
140
0.0
141
0.0
142
1.0
143
1.0
 70
   688
 72
     1
 73
     0
 74
     5
  7

 75
    16
 76
     0
 77
     2
 78
   300
147
1.0
148
0.0
149
0.0
100
AcDbLayout
  1
Layout2
 70
     1
 71
     2
 10
0.0
 20
0.0
 11
0.0
 21
0.0
 12
0.0
 22
0.0
 32
0.0
 14
0.0
 24
0.0
 34
0.0
 15
0.0
 25
0.0
 35
0.0
146
0.0
 13
0.0
 23
0.0
 33
0.0
 16
1.0
 26
0.0
 36
0.0
 17
0.0
 27
1.0
 37
0.0
 76
     0
330
23
  0
LAYOUT
  5
22
102
{ACAD_REACTORS
330
1A
102
}
330
1A
100
AcDbPlotSettings
  1

  2
none_device
  4
Letter_(8.50_x_11.00_Inches)
  6

 40
6.35
 41
6.35
 42
6.35000508
 43
6.35000508
 44
215.9
 45
279.4
 46
0.0
 47
0.0
 48
0.0
 49
0.0
140
0.0
141
0.0
142
1.0
143
1.0
 70
  1712
 72
     1
 73
     0
 74
     0
  7

 75
     0
 76
     0
 77
     2
 78
   300
147
1.0
148
0.0
149
0.0
100
AcDbLayout
  1
Model
 70
     1
 71
     0
 10
0.0
 20
0.0
 11
420.0
 21
297.0
 12
0.0
 22
0.0
 32
0.0
 14
-97.11
 24
-140.65
 34
0.0
 15
97.11
 25
140.65
 35
0.0
146
0.0
 13
0.0
 23
0.0
 33
0.0
 16
1.0
 26
0.0
 36
0.0
 17
0.0
 27
1.0
 37
0.0
 76
     0
330
1F
331
29
  0
MATERIAL
  5
45
102
{ACAD_REACTORS
330
43
102
}
330
43
100
AcDbMaterial
  1
ByBlock
 72
     1
 94
      127
  0
MATERIAL
  5
44
102
{ACAD_REACTORS
330
43
102
}
330
43
100
AcDbMaterial
  1
ByLayer
 72
     1
 94
      127
  0
MATERIAL
  5
46
102
{ACAD_REACTORS
330
43
102
}
330
43
100
AcDbMaterial
  1
Global
 72
     1
 94
      127
  0
MLINESTYLE
  5
18
102
{ACAD_REACTORS
330
17
102
}
330
17
100
AcDbMlineStyle
  2
Standard
 70
     0
  3

 62
   256
 51
90.0
 52
90.0
 71
     2
 49
0.5
 62
   256
  6
BYLAYER
 49
-0.5
 62
   256
  6
BYLAYER
  0
ACDBPLACEHOLDER
  5
F
102
{ACAD_REACTORS
330
E
102
}
330
E
  0
SCALE
  5
48
102
{ACAD_REACTORS
330
47
102
}
330
47
100
AcDbScale
 70
     0
300
1:1
140
1.0
141
1.0
290
     1
  0
SCALE
  5
49
102
{ACAD_REACTORS
330
47
102
}
330
47
100
AcDbScale
 70
     0
300
1:2
140
1.0
141
2.0
290
     0
  0
SCALE
  5
4A
102
{ACAD_REACTORS
330
47
102
}
330
47
100
AcDbScale
 70
     0
300
1:4
140
1.0
141
4.0
290
     0
  0
SCALE
  5
4B
102
{ACAD_REACTORS
330
47
102
}
330
47
100
AcDbScale
 70
     0
300
1:5
140
1.0
141
5.0
290
     0
  0
SCALE
  5
4C
102
{ACAD_REACTORS
330
47
102
}
330
47
100
AcDbScale
 70
     0
300
1:8
140
1.0
141
8.0
290
     0
  0
SCALE
  5
4D
102
{ACAD_REACTORS
330
47
102
}
330
47
100
AcDbScale
 70
     0
300
1:10
140
1.0
141
10.0
290
     0
  0
SCALE
  5
4E
102
{ACAD_REACTORS
330
47
102
}
330
47
100
AcDbScale
 70
     0
300
1:16
140
1.0
141
16.0
290
     0
  0
SCALE
  5
4F
102
{ACAD_REACTORS
330
47
102
}
330
47
100
AcDbScale
 70
     0
300
1:20
140
1.0
141
20.0
290
     0
  0
SCALE
  5
50
102
{ACAD_REACTORS
330
47
102
}
330
47
100
AcDbScale
 70
     0
300
1:30
140
1.0
141
30.0
290
     0
  0
SCALE
  5
51
102
{ACAD_REACTORS
330
47
102
}
330
47
100
AcDbScale
 70
     0
300
1:40
140
1.0
141
40.0
290
     0
  0
SCALE
  5
52
102
{ACAD_REACTORS
330
47
102
}
330
47
100
AcDbScale
 70
     0
300
1:50
140
1.0
141
50.0
290
     0
  0
SCALE
  5
53
102
{ACAD_REACTORS
330
47
102
}
330
47
100
AcDbScale
 70
     0
300
1:100
140
1.0
141
100.0
290
     0
  0
SCALE
  5
54
102
{ACAD_REACTORS
330
47
102
}
330
47
100
AcDbScale
 70
     0
300
2:1
140
2.0
141
1.0
290
     0
  0
SCALE
  5
55
102
{ACAD_REACTORS
330
47
102
}
330
47
100
AcDbScale
 70
     0
300
4:1
140
4.0
141
1.0
290
     0
  0
SCALE
  5
56
102
{ACAD_REACTORS
330
47
102
}
330
47
100
AcDbScale
 70
     0
300
8:1
140
8.0
141
1.0
290
     0
  0
SCALE
  5
57
102
{ACAD_REACTORS
330
47
102
}
330
47
100
AcDbScale
 70
     0
300
10:1
140
10.0
141
1.0
290
     0
  0
SCALE
  5
58
102
{ACAD_REACTORS
330
47
102
}
330
47
100
AcDbScale
 70
     0
300
100:1
140
100.0
141
1.0
290
     0
  0
SCALE
  5
59
102
{ACAD_REACTORS
330
47
102
}
330
47
100
AcDbScale
 70
     0
300
1/128" = 1'-0"
140
0.0078125
141
12.0
290
     0
  0
SCALE
  5
5A
102
{ACAD_REACTORS
330
47
102
}
330
47
100
AcDbScale
 70
     0
300
1/64" = 1'-0"
140
0.015625
141
12.0
290
     0
  0
SCALE
  5
5B
102
{ACAD_REACTORS
330
47
102
}
330
47
100
AcDbScale
 70
     0
300
1/32" = 1'-0"
140
0.03125
141
12.0
290
     0
  0
SCALE
  5
5C
102
{ACAD_REACTORS
330
47
102
}
330
47
100
AcDbScale
 70
     0
300
1/16" = 1'-0"
140
0.0625
141
12.0
290
     0
  0
SCALE
  5
5D
102
{ACAD_REACTORS
330
47
102
}
330
47
100
AcDbScale
 70
     0
300
3/32" = 1'-0"
140
0.09375
141
12.0
290
     0
  0
SCALE
  5
5E
102
{ACAD_REACTORS
330
47
102
}
330
47
100
AcDbScale
 70
     0
300
1/8" = 1'-0"
140
0.125
141
12.0
290
     0
  0
SCALE
  5
5F
102
{ACAD_REACTORS
330
47
102
}
330
47
100
AcDbScale
 70
     0
300
3/16" = 1'-0"
140
0.1875
141
12.0
290
     0
  0
SCALE
  5
60
102
{ACAD_REACTORS
330
47
102
}
330
47
100
AcDbScale
 70
     0
300
1/4" = 1'-0"
140
0.25
141
12.0
290
     0
  0
SCALE
  5
61
102
{ACAD_REACTORS
330
47
102
}
330
47
100
AcDbScale
 70
     0
300
3/8" = 1'-0"
140
0.375
141
12.0
290
     0
  0
SCALE
  5
62
102
{ACAD_REACTORS
330
47
102
}
330
47
100
AcDbScale
 70
     0
300
1/2" = 1'-0"
140
0.5
141
12.0
290
     0
  0
SCALE
  5
63
102
{ACAD_REACTORS
330
47
102
}
330
47
100
AcDbScale
 70
     0
300
3/4" = 1'-0"
140
0.75
141
12.0
290
     0
  0
SCALE
  5
64
102
{ACAD_REACTORS
330
47
102
}
330
47
100
AcDbScale
 70
     0
300
1" = 1'-0"
140
1.0
141
12.0
290
     0
  0
SCALE
  5
65
102
{ACAD_REACTORS
330
47
102
}
330
47
100
AcDbScale
 70
     0
300
1-1/2" = 1'-0"
140
1.5
141
12.0
290
     0
  0
SCALE
  5
66
102
{ACAD_REACTORS
330
47
102
}
330
47
100
AcDbScale
 70
     0
300
3" = 1'-0"
140
3.0
141
12.0
290
     0
  0
SCALE
  5
67
102
{ACAD_REACTORS
330
47
102
}
330
47
100
AcDbScale
 70
     0
300
6" = 1'-0"
140
6.0
141
12.0
290
     0
  0
SCALE
  5
68
102
{ACAD_REACTORS
330
47
102
}
330
47
100
AcDbScale
 70
     0
300
1'-0" = 1'-0"
140
12.0
141
12.0
290
     0
  0
VISUALSTYLE
  5
2F
102
{ACAD_REACTORS
330
2A
102
}
102
{ACAD_XDICTIONARY
360
4C4
102
}
330
2A
100
AcDbVisualStyle
  2
2dWireframe
 70
     4
177
     2
291
     0
 71
     0
176
     1
 72
     2
176
     1
 73
     0
176
     1
 90
        0
176
     1
 40
0.6
176
     1
 41
30.0
176
     1
 62
     5
 63
     7
421
 16777215
176
     1
 74
     1
176
     1
 91
        4
176
     1
 64
     7
176
     1
 65
   257
176
     1
 75
     1
176
     1
175
     1
176
     1
 42
1.0
176
     1
 92
        0
176
     1
 66
   257
176
     1
 43
1.0
176
     1
 76
     1
176
     1
 77
     6
176
     1
 78
     2
176
     1
 67
     7
176
     1
 79
     5
176
     1
170
     0
176
     1
171
     0
176
     1
290
     0
176
     1
 93
        1
176
     1
 44
0.0
176
     1
173
     0
176
     1
  0
VISUALSTYLE
  5
32
102
{ACAD_REACTORS
330
2A
102
}
102
{ACAD_XDICTIONARY
360
4CA
102
}
330
2A
100
AcDbVisualStyle
  2
Basic
 70
     7
177
     2
291
     1
 71
     1
176
     1
 72
     0
176
     1
 73
     1
176
     1
 90
        0
176
     1
 40
0.6
176
     1
 41
30.0
176
     1
 62
     5
 63
     7
421
 16777215
176
     1
 74
     0
176
     1
 91
        4
176
     1
 64
     7
176
     1
 65
   257
176
     1
 75
     1
176
     1
175
     1
176
     1
 42
1.0
176
     1
 92
        8
176
     1
 66
     7
176
     1
 43
1.0
176
     1
 76
     1
176
     1
 77
     6
176
     1
 78
     2
176
     1
 67
     7
176
     1
 79
     5
176
     1
170
     0
176
     1
171
     0
176
     1
290
     0
176
     1
 93
        1
176
     1
 44
0.0
176
     1
173
     0
176
     1
  0
VISUALSTYLE
  5
36
102
{ACAD_REACTORS
330
2A
102
}
102
{ACAD_XDICTIONARY
360
4D2
102
}
330
2A
100
AcDbVisualStyle
  2
Brighten
 70
    12
177
     2
291
     1
 71
     2
176
     1
 72
     2
176
     1
 73
     0
176
     1
 90
        0
176
     1
 40
0.6
176
     1
 41
30.0
176
     1
 62
     5
 63
     7
421
 16777215
176
     1
 74
     1
176
     1
 91
        4
176
     1
 64
     7
176
     1
 65
   257
176
     1
 75
     1
176
     1
175
     1
176
     1
 42
1.0
176
     1
 92
        8
176
     1
 66
     7
176
     1
 43
1.0
176
     1
 76
     1
176
     1
 77
     6
176
     1
 78
     2
176
     1
 67
     7
176
     1
 79
     5
176
     1
170
     0
176
     1
171
     0
176
     1
290
     0
176
     1
 93
        1
176
     1
 44
50.0
176
     1
173
     0
176
     1
  0
VISUALSTYLE
  5
3A
102
{ACAD_REACTORS
330
2A
102
}
102
{ACAD_XDICTIONARY
360
4DA
102
}
330
2A
100
AcDbVisualStyle
  2
ColorChange
 70
    16
177
     2
291
     1
 71
     2
176
     1
 72
     2
176
     1
 73
     3
176
     1
 90
        0
176
     1
 40
0.6
176
     1
 41
30.0
176
     1
 62
     5
 63
     8
421
  8421504
176
     1
 74
     1
176
     1
 91
        4
176
     1
 64
     7
176
     1
 65
   257
176
     1
 75
     1
176
     1
175
     1
176
     1
 42
1.0
176
     1
 92
        8
176
     1
 66
     8
424
  8421504
176
     1
 43
1.0
176
     1
 76
     1
176
     1
 77
     6
176
     1
 78
     2
176
     1
 67
     7
176
     1
 79
     5
176
     1
170
     0
176
     1
171
     0
176
     1
290
     0
176
     1
 93
        1
176
     1
 44
0.0
176
     1
173
     0
176
     1
  0
VISUALSTYLE
  5
34
102
{ACAD_REACTORS
330
2A
102
}
102
{ACAD_XDICTIONARY
360
4CE
102
}
330
2A
100
AcDbVisualStyle
  2
Conceptual
 70
     9
177
     2
291
     0
 71
     3
176
     1
 72
     2
176
     1
 73
     0
176
     1
 90
        0
176
     1
 40
0.6
176
     1
 41
30.0
176
     1
 62
     5
 63
     7
421
 16777215
176
     1
 74
     2
176
     1
 91
        2
176
     1
 64
     7
176
     1
 65
   257
176
     1
 75
     1
176
     1
175
     1
176
     1
 42
179.0
176
     1
 92
        8
176
     1
 66
     7
176
     1
 43
1.0
176
     1
 76
     1
176
     1
 77
     6
176
     1
 78
     2
176
     1
 67
     7
176
     1
 79
     3
176
     1
170
     0
176
     1
171
     0
176
     1
290
     0
176
     1
 93
        1
176
     1
 44
0.0
176
     1
173
     0
176
     1
  0
VISUALSTYLE
  5
35
102
{ACAD_REACTORS
330
2A
102
}
102
{ACAD_XDICTIONARY
360
4D0
102
}
330
2A
100
AcDbVisualStyle
  2
Dim
 70
    11
177
     2
291
     1
 71
     2
176
     1
 72
     2
176
     1
 73
     0
176
     1
 90
        0
176
     1
 40
0.6
176
     1
 41
30.0
176
     1
 62
     5
 63
     7
421
 16777215
176
     1
 74
     1
176
     1
 91
        4
176
     1
 64
     7
176
     1
 65
   257
176
     1
 75
     1
176
     1
175
     1
176
     1
 42
1.0
176
     1
 92
        8
176
     1
 66
     7
176
     1
 43
1.0
176
     1
 76
     1
176
     1
 77
     6
176
     1
 78
     2
176
     1
 67
     7
176
     1
 79
     5
176
     1
170
     0
176
     1
171
     0
176
     1
290
     0
176
     1
 93
        1
176
     1
 44
-50.0
176
     1
173
     0
176
     1
  0
VISUALSTYLE
  5
3D
102
{ACAD_REACTORS
330
2A
102
}
102
{ACAD_XDICTIONARY
360
4E0
102
}
330
2A
100
AcDbVisualStyle
  2
EdgeColorOff
 70
    22
177
     2
291
     1
 71
     2
176
     0
 72
     2
176
     0
 73
     0
176
     0
 90
        0
176
     0
 40
0.6
176
     0
 41
30.0
176
     0
 62
     5
 63
     7
421
 16777215
176
     0
 74
     1
176
     0
 91
        4
176
     0
 64
     7
176
     0
 65
   257
176
     0
 75
     1
176
     0
175
     1
176
     0
 42
1.0
176
     0
 92
        8
176
     2
 66
     7
176
     0
 43
1.0
176
     0
 76
     1
176
     0
 77
     6
176
     0
 78
     2
176
     0
 67
     7
176
     0
 79
     5
176
     0
170
     0
176
     0
171
     0
176
     0
290
     0
176
     0
 93
        1
176
     0
 44
0.0
176
     0
173
     0
176
     0
  0
VISUALSTYLE
  5
39
102
{ACAD_REACTORS
330
2A
102
}
102
{ACAD_XDICTIONARY
360
4D8
102
}
330
2A
100
AcDbVisualStyle
  2
Facepattern
 70
    15
177
     2
291
     1
 71
     2
176
     1
 72
     2
176
     1
 73
     0
176
     1
 90
        0
176
     1
 40
0.6
176
     1
 41
30.0
176
     1
 62
     5
 63
     7
421
 16777215
176
     1
 74
     1
176
     1
 91
        4
176
     1
 64
     7
176
     1
 65
   257
176
     1
 75
     1
176
     1
175
     1
176
     1
 42
1.0
176
     1
 92
        8
176
     1
 66
     7
176
     1
 43
1.0
176
     1
 76
     1
176
     1
 77
     6
176
     1
 78
     2
176
     1
 67
     7
176
     1
 79
     5
176
     1
170
     0
176
     1
171
     0
176
     1
290
     0
176
     1
 93
        1
176
     1
 44
0.0
176
     1
173
     0
176
     1
  0
VISUALSTYLE
  5
2B
102
{ACAD_REACTORS
330
2A
102
}
102
{ACAD_XDICTIONARY
360
4BC
102
}
330
2A
100
AcDbVisualStyle
  2
Flat
 70
     0
177
     2
291
     1
 71
     2
176
     1
 72
     1
176
     1
 73
     1
176
     1
 90
        2
176
     1
 40
0.6
176
     1
 41
30.0
176
     1
 62
     5
 63
     7
421
 16777215
176
     1
 74
     0
176
     1
 91
        0
176
     1
 64
     7
176
     1
 65
   257
176
     1
 75
     1
176
     1
175
     1
176
     1
 42
1.0
176
     1
 92
        8
176
     1
 66
     7
176
     1
 43
1.0
176
     1
 76
     1
176
     1
 77
     6
176
     1
 78
     2
176
     1
 67
     7
176
     1
 79
     5
176
     1
170
     0
176
     1
171
     0
176
     1
290
     0
176
     1
 93
       13
176
     1
 44
0.0
176
     1
173
     0
176
     1
  0
VISUALSTYLE
  5
2C
102
{ACAD_REACTORS
330
2A
102
}
102
{ACAD_XDICTIONARY
360
4BE
102
}
330
2A
100
AcDbVisualStyle
  2
FlatWithEdges
 70
     1
177
     2
291
     1
 71
     2
176
     1
 72
     1
176
     1
 73
     1
176
     1
 90
        2
176
     1
 40
0.6
176
     1
 41
30.0
176
     1
 62
     5
 63
     7
421
 16777215
176
     1
 74
     1
176
     1
 91
        0
176
     1
 64
     7
176
     1
 65
   257
176
     1
 75
     1
176
     1
175
     1
176
     1
 42
1.0
176
     1
 92
        0
176
     1
 66
   257
176
     1
 43
1.0
176
     1
 76
     1
176
     1
 77
     6
176
     1
 78
     2
176
     1
 67
     7
176
     1
 79
     5
176
     1
170
     0
176
     1
171
     0
176
     1
290
     0
176
     1
 93
       13
176
     1
 44
0.0
176
     1
173
     0
176
     1
  0
VISUALSTYLE
  5
2D
102
{ACAD_REACTORS
330
2A
102
}
102
{ACAD_XDICTIONARY
360
4C0
102
}
330
2A
100
AcDbVisualStyle
  2
Gouraud
 70
     2
177
     2
291
     1
 71
     2
176
     1
 72
     2
176
     1
 73
     1
176
     1
 90
        2
176
     1
 40
0.6
176
     1
 41
30.0
176
     1
 62
     5
 63
     7
421
 16777215
176
     1
 74
     0
176
     1
 91
        0
176
     1
 64
     7
176
     1
 65
   257
176
     1
 75
     1
176
     1
175
     1
176
     1
 42
1.0
176
     1
 92
        0
176
     1
 66
     7
176
     1
 43
1.0
176
     1
 76
     1
176
     1
 77
     6
176
     1
 78
     2
176
     1
 67
     7
176
     1
 79
     5
176
     1
170
     0
176
     1
171
     0
176
     1
290
     0
176
     1
 93
       13
176
     1
 44
0.0
176
     1
173
     0
176
     1
  0
VISUALSTYLE
  5
2E
102
{ACAD_REACTORS
330
2A
102
}
102
{ACAD_XDICTIONARY
360
4C2
102
}
330
2A
100
AcDbVisualStyle
  2
GouraudWithEdges
 70
     3
177
     2
291
     1
 71
     2
176
     1
 72
     2
176
     1
 73
     1
176
     1
 90
        2
176
     1
 40
0.6
176
     1
 41
30.0
176
     1
 62
     5
 63
     7
421
 16777215
176
     1
 74
     1
176
     1
 91
        0
176
     1
 64
     7
176
     1
 65
   257
176
     1
 75
     1
176
     1
175
     1
176
     1
 42
1.0
176
     1
 92
        0
176
     1
 66
   257
176
     1
 43
1.0
176
     1
 76
     1
176
     1
 77
     6
176
     1
 78
     2
176
     1
 67
     7
176
     1
 79
     5
176
     1
170
     0
176
     1
171
     0
176
     1
290
     0
176
     1
 93
       13
176
     1
 44
0.0
176
     1
173
     0
176
     1
  0
VISUALSTYLE
  5
31
102
{ACAD_REACTORS
330
2A
102
}
102
{ACAD_XDICTIONARY
360
4C8
102
}
330
2A
100
AcDbVisualStyle
  2
Hidden
 70
     6
177
     2
291
     0
 71
     1
176
     1
 72
     2
176
     1
 73
     2
176
     1
 90
        0
176
     1
 40
0.6
176
     1
 41
30.0
176
     1
 62
     5
 63
     7
421
 16777215
176
     1
 74
     2
176
     1
 91
        2
176
     1
 64
     7
176
     1
 65
   257
176
     1
 75
     2
176
     1
175
     1
176
     1
 42
40.0
176
     1
 92
        0
176
     1
 66
   257
176
     1
 43
1.0
176
     1
 76
     1
176
     1
 77
     6
176
     1
 78
     2
176
     1
 67
     7
176
     1
 79
     3
176
     1
170
     0
176
     1
171
     0
176
     1
290
     0
176
     1
 93
        1
176
     1
 44
0.0
176
     1
173
     0
176
     1
  0
VISUALSTYLE
  5
3B
102
{ACAD_REACTORS
330
2A
102
}
102
{ACAD_XDICTIONARY
360
4DC
102
}
330
2A
100
AcDbVisualStyle
  2
JitterOff
 70
    20
177
     2
291
     1
 71
     2
176
     0
 72
     2
176
     0
 73
     0
176
     0
 90
        0
176
     0
 40
0.6
176
     0
 41
30.0
176
     0
 62
     5
 63
     7
421
 16777215
176
     0
 74
     1
176
     0
 91
        4
176
     0
 64
     7
176
     0
 65
   257
176
     0
 75
     1
176
     0
175
     1
176
     0
 42
1.0
176
     0
 92
       10
176
     2
 66
     7
176
     0
 43
1.0
176
     0
 76
     1
176
     0
 77
     6
176
     0
 78
     2
176
     0
 67
     7
176
     0
 79
     5
176
     0
170
     0
176
     0
171
     0
176
     0
290
     0
176
     0
 93
        1
176
     0
 44
0.0
176
     0
173
     0
176
     0
  0
VISUALSTYLE
  5
38
102
{ACAD_REACTORS
330
2A
102
}
102
{ACAD_XDICTIONARY
360
4D6
102
}
330
2A
100
AcDbVisualStyle
  2
Linepattern
 70
    14
177
     2
291
     1
 71
     2
176
     1
 72
     2
176
     1
 73
     0
176
     1
 90
        0
176
     1
 40
0.6
176
     1
 41
30.0
176
     1
 62
     5
 63
     7
421
 16777215
176
     1
 74
     1
176
     1
 91
        4
176
     1
 64
     7
176
     1
 65
   257
176
     1
 75
     7
176
     1
175
     7
176
     1
 42
1.0
176
     1
 92
        8
176
     1
 66
     7
176
     1
 43
1.0
176
     1
 76
     1
176
     1
 77
     6
176
     1
 78
     2
176
     1
 67
     7
176
     1
 79
     5
176
     1
170
     0
176
     1
171
     0
176
     1
290
     0
176
     1
 93
        1
176
     1
 44
0.0
176
     1
173
     0
176
     1
  0
VISUALSTYLE
  5
3C
102
{ACAD_REACTORS
330
2A
102
}
102
{ACAD_XDICTIONARY
360
4DE
102
}
330
2A
100
AcDbVisualStyle
  2
OverhangOff
 70
    21
177
     2
291
     1
 71
     2
176
     0
 72
     2
176
     0
 73
     0
176
     0
 90
        0
176
     0
 40
0.6
176
     0
 41
30.0
176
     0
 62
     5
 63
     7
421
 16777215
176
     0
 74
     1
176
     0
 91
        4
176
     0
 64
     7
176
     0
 65
   257
176
     0
 75
     1
176
     0
175
     1
176
     0
 42
1.0
176
     0
 92
        9
176
     2
 66
     7
176
     0
 43
1.0
176
     0
 76
     1
176
     0
 77
     6
176
     0
 78
     2
176
     0
 67
     7
176
     0
 79
     5
176
     0
170
     0
176
     0
171
     0
176
     0
290
     0
176
     0
 93
        1
176
     0
 44
0.0
176
     0
173
     0
176
     0
  0
VISUALSTYLE
  5
33
102
{ACAD_REACTORS
330
2A
102
}
102
{ACAD_XDICTIONARY
360
4CC
102
}
330
2A
100
AcDbVisualStyle
  2
Realistic
 70
     8
177
     2
291
     0
 71
     2
176
     1
 72
     3
176
     1
 73
     0
176
     1
 90
        2
176
     1
 40
0.6
176
     1
 41
30.0
176
     1
 62
     5
 63
     7
421
 16777215
176
     1
 74
     0
176
     1
 91
        0
176
     1
 64
     7
176
     1
 65
   257
176
     1
 75
     1
176
     1
175
     1
176
     1
 42
1.0
176
     1
 92
        8
176
     1
 66
   257
176
     1
 43
1.0
176
     1
 76
     1
176
     1
 77
     6
176
     1
 78
     2
176
     1
 67
     7
176
     1
 79
     3
176
     1
170
     0
176
     1
171
     0
176
     1
290
     0
176
     1
 93
       13
176
     1
 44
0.0
176
     1
173
     0
176
     1
  0
VISUALSTYLE
  5
42
102
{ACAD_REACTORS
330
2A
102
}
102
{ACAD_XDICTIONARY
360
4EA
102
}
330
2A
100
AcDbVisualStyle
  2
Shaded
 70
    27
177
     2
291
     0
 71
     2
176
     1
 72
     2
176
     1
 73
     1
176
     1
 90
        2
176
     1
 40
0.6
176
     1
 41
30.0
176
     1
 62
     5
 63
     7
421
 16777215
176
     1
 74
     0
176
     1
 91
        4
176
     1
 64
     7
176
     1
 65
   257
176
     1
 75
     1
176
     1
175
     1
176
     1
 42
1.0
176
     1
 92
        8
176
     1
 66
   257
176
     1
 43
1.0
176
     1
 76
     1
176
     1
 77
     6
176
     1
 78
     2
176
     1
 67
     8
425
  7895160
176
     1
 79
     3
176
     1
170
     0
176
     1
171
     0
176
     1
290
     0
176
     1
 93
        5
176
     1
 44
0.0
176
     1
173
     0
176
     1
  0
VISUALSTYLE
  5
41
102
{ACAD_REACTORS
330
2A
102
}
102
{ACAD_XDICTIONARY
360
4E8
102
}
330
2A
100
AcDbVisualStyle
  2
Shaded with edges
 70
    26
177
     2
291
     0
 71
     2
176
     1
 72
     2
176
     1
 73
     1
176
     1
 90
        2
176
     1
 40
0.6
176
     1
 41
30.0
176
     1
 62
     5
 63
     7
421
 16777215
176
     1
 74
     1
176
     1
 91
       10
176
     1
 64
     7
176
     1
 65
   257
176
     1
 75
     2
176
     1
175
     1
176
     1
 42
1.0
176
     1
 92
        8
176
     1
 66
   257
176
     1
 43
1.0
176
     1
 76
     1
176
     1
 77
     6
176
     1
 78
     2
176
     1
 67
     7
176
     1
 79
     3
176
     1
170
     0
176
     1
171
     0
176
     1
290
     0
176
     1
 93
        5
176
     1
 44
0.0
176
     1
173
     0
176
     1
  0
VISUALSTYLE
  5
3E
102
{ACAD_REACTORS
330
2A
102
}
102
{ACAD_XDICTIONARY
360
4E2
102
}
330
2A
100
AcDbVisualStyle
  2
Shades of Gray
 70
    23
177
     2
291
     0
 71
     2
176
     1
 72
     2
176
     1
 73
     3
176
     1
 90
        0
176
     1
 40
0.6
176
     1
 41
30.0
176
     1
 62
     5
 63
     7
421
 16777215
176
     1
 74
     2
176
     1
 91
        2
176
     1
 64
     7
176
     1
 65
     7
176
     1
 75
     1
176
     1
175
     1
176
     1
 42
40.0
176
     1
 92
        8
176
     1
 66
     7
176
     1
 43
1.0
176
     1
 76
     1
176
     1
 77
     6
176
     1
 78
     2
176
     1
 67
     7
176
     1
 79
     3
176
     1
170
     0
176
     1
171
     0
176
     1
290
     0
176
     1
 93
        1
176
     1
 44
0.0
176
     1
173
     0
176
     1
  0
VISUALSTYLE
  5
3F
102
{ACAD_REACTORS
330
2A
102
}
102
{ACAD_XDICTIONARY
360
4E4
102
}
330
2A
100
AcDbVisualStyle
  2
Sketchy
 70
    24
177
     2
291
     0
 71
     1
176
     1
 72
     2
176
     1
 73
     2
176
     1
 90
        0
176
     1
 40
0.6
176
     1
 41
30.0
176
     1
 62
     5
 63
     7
421
 16777215
176
     1
 74
     2
176
     1
 91
        2
176
     1
 64
     7
176
     1
 65
     7
176
     1
 75
     1
176
     1
175
     1
176
     1
 42
40.0
176
     1
 92
       11
176
     1
 66
     7
176
     1
 43
1.0
176
     1
 76
     1
176
     1
 77
     6
176
     1
 78
     2
176
     1
 67
     7
176
     1
 79
     6
176
     1
170
     0
176
     1
171
     0
176
     1
290
     0
176
     1
 93
        1
176
     1
 44
0.0
176
     1
173
     0
176
     1
  0
VISUALSTYLE
  5
37
102
{ACAD_REACTORS
330
2A
102
}
102
{ACAD_XDICTIONARY
360
4D4
102
}
330
2A
100
AcDbVisualStyle
  2
Thicken
 70
    13
177
     2
291
     1
 71
     2
176
     1
 72
     2
176
     1
 73
     0
176
     1
 90
        0
176
     1
 40
0.6
176
     1
 41
30.0
176
     1
 62
     5
 63
     7
421
 16777215
176
     1
 74
     1
176
     1
 91
        4
176
     1
 64
     7
176
     1
 65
   257
176
     1
 75
     1
176
     1
175
     1
176
     1
 42
1.0
176
     1
 92
       12
176
     1
 66
     7
176
     1
 43
1.0
176
     1
 76
     1
176
     1
 77
     6
176
     1
 78
     2
176
     1
 67
     7
176
     1
 79
     5
176
     1
170
     0
176
     1
171
     0
176
     1
290
     0
176
     1
 93
        1
176
     1
 44
0.0
176
     1
173
     0
176
     1
  0
VISUALSTYLE
  5
30
102
{ACAD_REACTORS
330
2A
102
}
102
{ACAD_XDICTIONARY
360
4C6
102
}
330
2A
100
AcDbVisualStyle
  2
Wireframe
 70
     5
177
     2
291
     0
 71
     0
176
     1
 72
     2
176
     1
 73
     0
176
     1
 90
        0
176
     1
 40
0.6
176
     1
 41
30.0
176
     1
 62
     5
 63
     7
421
 16777215
176
     1
 74
     1
176
     1
 91
        4
176
     1
 64
     7
176
     1
 65
   257
176
     1
 75
     1
176
     1
175
     1
176
     1
 42
1.0
176
     1
 92
        0
176
     1
 66
   257
176
     1
 43
1.0
176
     1
 76
     1
176
     1
 77
     6
176
     1
 78
     2
176
     1
 67
     7
176
     1
 79
     3
176
     1
170
     0
176
     1
171
     0
176
     1
290
     0
176
     1
 93
        1
176
     1
 44
0.0
176
     1
173
     0
176
     1
  0
VISUALSTYLE
  5
40
102
{ACAD_REACTORS
330
2A
102
}
102
{ACAD_XDICTIONARY
360
4E6
102
}
330
2A
100
AcDbVisualStyle
  2
X-Ray
 70
    25
177
     2
291
     0
 71
     2
176
     1
 72
     2
176
     1
 73
     1
176
     1
 90
        1
176
     1
 40
0.5
176
     1
 41
30.0
176
     1
 62
     5
 63
     7
421
 16777215
176
     1
 74
     1
176
     1
 91
        0
176
     1
 64
     7
176
     1
 65
   257
176
     1
 75
     1
176
     1
175
     1
176
     1
 42
1.0
176
     1
 92
        8
176
     1
 66
     7
176
     1
 43
1.0
176
     1
 76
     1
176
     1
 77
     6
176
     1
 78
     2
176
     1
 67
     7
176
     1
 79
     3
176
     1
170
     0
176
     1
171
     0
176
     1
290
     0
176
     1
 93
       13
176
     1
 44
0.0
176
     1
173
     0
176
     1
  0
DICTIONARYVAR
  5
4BB
102
{ACAD_REACTORS
330
4BA
102
}
330
4BA
100
DictionaryVariables
280
     0
  1
1:1
  0
DICTIONARY
  5
4C4
330
2F
100
AcDbDictionary
280
     1
281
     1
  3
ACAD_XREC_ROUNDTRIP
360
4C5
  0
DICTIONARY
  5
4CA
330
32
100
AcDbDictionary
280
     1
281
     1
  3
ACAD_XREC_ROUNDTRIP
360
4CB
  0
DICTIONARY
  5
4D2
330
36
100
AcDbDictionary
280
     1
281
     1
  3
ACAD_XREC_ROUNDTRIP
360
4D3
  0
DICTIONARY
  5
4DA
330
3A
100
AcDbDictionary
280
     1
281
     1
  3
ACAD_XREC_ROUNDTRIP
360
4DB
  0
DICTIONARY
  5
4CE
330
34
100
AcDbDictionary
280
     1
281
     1
  3
ACAD_XREC_ROUNDTRIP
360
4CF
  0
DICTIONARY
  5
4D0
330
35
100
AcDbDictionary
280
     1
281
     1
  3
ACAD_XREC_ROUNDTRIP
360
4D1
  0
DICTIONARY
  5
4E0
330
3D
100
AcDbDictionary
280
     1
281
     1
  3
ACAD_XREC_ROUNDTRIP
360
4E1
  0
DICTIONARY
  5
4D8
330
39
100
AcDbDictionary
280
     1
281
     1
  3
ACAD_XREC_ROUNDTRIP
360
4D9
  0
DICTIONARY
  5
4BC
330
2B
100
AcDbDictionary
280
     1
281
     1
  3
ACAD_XREC_ROUNDTRIP
360
4BD
  0
DICTIONARY
  5
4BE
330
2C
100
AcDbDictionary
280
     1
281
     1
  3
ACAD_XREC_ROUNDTRIP
360
4BF
  0
DICTIONARY
  5
4C0
330
2D
100
AcDbDictionary
280
     1
281
     1
  3
ACAD_XREC_ROUNDTRIP
360
4C1
  0
DICTIONARY
  5
4C2
330
2E
100
AcDbDictionary
280
     1
281
     1
  3
ACAD_XREC_ROUNDTRIP
360
4C3
  0
DICTIONARY
  5
4C8
330
31
100
AcDbDictionary
280
     1
281
     1
  3
ACAD_XREC_ROUNDTRIP
360
4C9
  0
DICTIONARY
  5
4DC
330
3B
100
AcDbDictionary
280
     1
281
     1
  3
ACAD_XREC_ROUNDTRIP
360
4DD
  0
DICTIONARY
  5
4D6
330
38
100
AcDbDictionary
280
     1
281
     1
  3
ACAD_XREC_ROUNDTRIP
360
4D7
  0
DICTIONARY
  5
4DE
330
3C
100
AcDbDictionary
280
     1
281
     1
  3
ACAD_XREC_ROUNDTRIP
360
4DF
  0
DICTIONARY
  5
4CC
330
33
100
AcDbDictionary
280
     1
281
     1
  3
ACAD_XREC_ROUNDTRIP
360
4CD
  0
DICTIONARY
  5
4EA
330
42
100
AcDbDictionary
280
     1
281
     1
  3
ACAD_XREC_ROUNDTRIP
360
4EB
  0
DICTIONARY
  5
4E8
330
41
100
AcDbDictionary
280
     1
281
     1
  3
ACAD_XREC_ROUNDTRIP
360
4E9
  0
DICTIONARY
  5
4E2
330
3E
100
AcDbDictionary
280
     1
281
     1
  3
ACAD_XREC_ROUNDTRIP
360
4E3
  0
DICTIONARY
  5
4E4
330
3F
100
AcDbDictionary
280
     1
281
     1
  3
ACAD_XREC_ROUNDTRIP
360
4E5
  0
DICTIONARY
  5
4D4
330
37
100
AcDbDictionary
280
     1
281
     1
  3
ACAD_XREC_ROUNDTRIP
360
4D5
  0
DICTIONARY
  5
4C6
330
30
100
AcDbDictionary
280
     1
281
     1
  3
ACAD_XREC_ROUNDTRIP
360
4C7
  0
DICTIONARY
  5
4E6
330
40
100
AcDbDictionary
280
     1
281
     1
  3
ACAD_XREC_ROUNDTRIP
360
4E7
  0
XRECORD
  5
4C5
102
{ACAD_REACTORS
330
4C4
102
}
330
4C4
100
AcDbXrecord
280
     1
102
RTVSPost2010Prop28
280
     1
102
RTVSPost2010PropOp28
 70
     1
102
RTVSPost2010Prop29
280
     1
102
RTVSPost2010PropOp29
 70
     1
102
RTVSPost2010Prop30
280
     0
102
RTVSPost2010PropOp30
 70
     1
102
RTVSPost2010Prop31
280
     0
102
RTVSPost2010PropOp31
 70
     1
102
RTVSPost2010Prop32
280
     0
102
RTVSPost2010PropOp32
 70
     1
102
RTVSPost2010Prop33
280
     0
102
RTVSPost2010PropOp33
 70
     1
102
RTVSPost2010Prop34
280
     0
102
RTVSPost2010PropOp34
 70
     1
102
RTVSPost2010Prop35
280
     0
102
RTVSPost2010PropOp35
 70
     1
102
RTVSPost2010Prop36
280
     0
102
RTVSPost2010PropOp36
 70
     1
102
RTVSPost2010Prop37
 90
       50
102
RTVSPost2010PropOp37
 70
     1
102
RTVSPost2010Prop38
140
0.0
102
RTVSPost2010PropOp38
 70
     1
102
RTVSPost2010Prop39
140
1.0
102
RTVSPost2010PropOp39
 70
     1
102
RTVSPost2010Prop40
 90
        0
102
RTVSPost2010PropOp40
 70
     1
102
RTVSPost2010Prop41ColorIndex
 90
       18
102
RTVSPost2010Prop41ColorRGB
 90
        0
102
RTVSPost2010PropOp41
 70
     1
102
RTVSPost2010Prop42
 90
       50
102
RTVSPost2010PropOp42
 70
     1
102
RTVSPost2010Prop43
 90
        3
102
RTVSPost2010PropOp43
 70
     1
102
RTVSPost2010Prop44ColorIndex
 90
        5
102
RTVSPost2010Prop44ColorRGB
 90
      255
102
RTVSPost2010PropOp44
 70
     1
102
RTVSPost2010Prop45
280
     0
102
RTVSPost2010PropOp45
 70
     1
102
RTVSPost2010Prop46
 90
       50
102
RTVSPost2010PropOp46
 70
     1
102
RTVSPost2010Prop47
 90
       50
102
RTVSPost2010PropOp47
 70
     1
102
RTVSPost2010Prop48
 90
       50
102
RTVSPost2010PropOp48
 70
     1
102
RTVSPost2010Prop49
280
     0
102
RTVSPost2010PropOp49
 70
     1
102
RTVSPost2010Prop50
 90
       50
102
RTVSPost2010PropOp50
 70
     1
102
RTVSPost2010Prop51ColorIndex
 90
      256
102
RTVSPost2010Prop51ColorRGB
 90
-16777216
102
RTVSPost2010PropOp51
 70
     0
102
RTVSPost2010Prop52
140
1.0
102
RTVSPost2010PropOp52
 70
     0
102
RTVSPost2010Prop53
 90
        2
102
RTVSPost2010PropOp53
 70
     1
102
RTVSPost2010Prop54
  1
strokes_ogs.tif
102
RTVSPost2010PropOp54
 70
     1
102
RTVSPost2010Prop55
280
     0
102
RTVSPost2010PropOp55
 70
     1
102
RTVSPost2010Prop56
140
1.0
102
RTVSPost2010PropOp56
 70
     1
102
RTVSPost2010Prop57
140
1.0
102
RTVSPost2010PropOp57
 70
     1
  0
XRECORD
  5
4CB
102
{ACAD_REACTORS
330
4CA
102
}
330
4CA
100
AcDbXrecord
280
     1
102
RTVSPost2010Prop28
280
     0
102
RTVSPost2010PropOp28
 70
     1
102
RTVSPost2010Prop29
280
     1
102
RTVSPost2010PropOp29
 70
     1
102
RTVSPost2010Prop30
280
     1
102
RTVSPost2010PropOp30
 70
     1
102
RTVSPost2010Prop31
280
     0
102
RTVSPost2010PropOp31
 70
     1
102
RTVSPost2010Prop32
280
     0
102
RTVSPost2010PropOp32
 70
     1
102
RTVSPost2010Prop33
280
     0
102
RTVSPost2010PropOp33
 70
     1
102
RTVSPost2010Prop34
280
     0
102
RTVSPost2010PropOp34
 70
     1
102
RTVSPost2010Prop35
280
     0
102
RTVSPost2010PropOp35
 70
     1
102
RTVSPost2010Prop36
280
     0
102
RTVSPost2010PropOp36
 70
     1
102
RTVSPost2010Prop37
 90
       50
102
RTVSPost2010PropOp37
 70
     1
102
RTVSPost2010Prop38
140
0.0
102
RTVSPost2010PropOp38
 70
     1
102
RTVSPost2010Prop39
140
1.0
102
RTVSPost2010PropOp39
 70
     1
102
RTVSPost2010Prop40
 90
        0
102
RTVSPost2010PropOp40
 70
     1
102
RTVSPost2010Prop41ColorIndex
 90
       18
102
RTVSPost2010Prop41ColorRGB
 90
        0
102
RTVSPost2010PropOp41
 70
     1
102
RTVSPost2010Prop42
 90
       50
102
RTVSPost2010PropOp42
 70
     1
102
RTVSPost2010Prop43
 90
        3
102
RTVSPost2010PropOp43
 70
     1
102
RTVSPost2010Prop44ColorIndex
 90
        5
102
RTVSPost2010Prop44ColorRGB
 90
      255
102
RTVSPost2010PropOp44
 70
     1
102
RTVSPost2010Prop45
280
     0
102
RTVSPost2010PropOp45
 70
     1
102
RTVSPost2010Prop46
 90
       50
102
RTVSPost2010PropOp46
 70
     1
102
RTVSPost2010Prop47
 90
       50
102
RTVSPost2010PropOp47
 70
     1
102
RTVSPost2010Prop48
 90
       50
102
RTVSPost2010PropOp48
 70
     1
102
RTVSPost2010Prop49
280
     0
102
RTVSPost2010PropOp49
 70
     1
102
RTVSPost2010Prop50
 90
       50
102
RTVSPost2010PropOp50
 70
     1
102
RTVSPost2010Prop51ColorIndex
 90
      256
102
RTVSPost2010Prop51ColorRGB
 90
-16777216
102
RTVSPost2010PropOp51
 70
     0
102
RTVSPost2010Prop52
140
1.0
102
RTVSPost2010PropOp52
 70
     0
102
RTVSPost2010Prop53
 90
        2
102
RTVSPost2010PropOp53
 70
     1
102
RTVSPost2010Prop54
  1
strokes_ogs.tif
102
RTVSPost2010PropOp54
 70
     1
102
RTVSPost2010Prop55
280
     0
102
RTVSPost2010PropOp55
 70
     1
102
RTVSPost2010Prop56
140
1.0
102
RTVSPost2010PropOp56
 70
     1
102
RTVSPost2010Prop57
140
1.0
102
RTVSPost2010PropOp57
 70
     1
  0
XRECORD
  5
4D3
102
{ACAD_REACTORS
330
4D2
102
}
330
4D2
100
AcDbXrecord
280
     1
102
RTVSPost2010Prop28
280
     0
102
RTVSPost2010PropOp28
 70
     1
102
RTVSPost2010Prop29
280
     1
102
RTVSPost2010PropOp29
 70
     1
102
RTVSPost2010Prop30
280
     1
102
RTVSPost2010PropOp30
 70
     1
102
RTVSPost2010Prop31
280
     0
102
RTVSPost2010PropOp31
 70
     1
102
RTVSPost2010Prop32
280
     0
102
RTVSPost2010PropOp32
 70
     1
102
RTVSPost2010Prop33
280
     0
102
RTVSPost2010PropOp33
 70
     1
102
RTVSPost2010Prop34
280
     0
102
RTVSPost2010PropOp34
 70
     1
102
RTVSPost2010Prop35
280
     0
102
RTVSPost2010PropOp35
 70
     1
102
RTVSPost2010Prop36
280
     0
102
RTVSPost2010PropOp36
 70
     1
102
RTVSPost2010Prop37
 90
       50
102
RTVSPost2010PropOp37
 70
     1
102
RTVSPost2010Prop38
140
0.0
102
RTVSPost2010PropOp38
 70
     1
102
RTVSPost2010Prop39
140
1.0
102
RTVSPost2010PropOp39
 70
     1
102
RTVSPost2010Prop40
 90
        0
102
RTVSPost2010PropOp40
 70
     1
102
RTVSPost2010Prop41ColorIndex
 90
       18
102
RTVSPost2010Prop41ColorRGB
 90
        0
102
RTVSPost2010PropOp41
 70
     1
102
RTVSPost2010Prop42
 90
       50
102
RTVSPost2010PropOp42
 70
     1
102
RTVSPost2010Prop43
 90
        3
102
RTVSPost2010PropOp43
 70
     1
102
RTVSPost2010Prop44ColorIndex
 90
        5
102
RTVSPost2010Prop44ColorRGB
 90
      255
102
RTVSPost2010PropOp44
 70
     1
102
RTVSPost2010Prop45
280
     0
102
RTVSPost2010PropOp45
 70
     1
102
RTVSPost2010Prop46
 90
       50
102
RTVSPost2010PropOp46
 70
     1
102
RTVSPost2010Prop47
 90
       50
102
RTVSPost2010PropOp47
 70
     1
102
RTVSPost2010Prop48
 90
       50
102
RTVSPost2010PropOp48
 70
     1
102
RTVSPost2010Prop49
280
     0
102
RTVSPost2010PropOp49
 70
     1
102
RTVSPost2010Prop50
 90
       50
102
RTVSPost2010PropOp50
 70
     1
102
RTVSPost2010Prop51ColorIndex
 90
      256
102
RTVSPost2010Prop51ColorRGB
 90
-16777216
102
RTVSPost2010PropOp51
 70
     0
102
RTVSPost2010Prop52
140
1.0
102
RTVSPost2010PropOp52
 70
     0
102
RTVSPost2010Prop53
 90
        2
102
RTVSPost2010PropOp53
 70
     1
102
RTVSPost2010Prop54
  1
strokes_ogs.tif
102
RTVSPost2010PropOp54
 70
     1
102
RTVSPost2010Prop55
280
     0
102
RTVSPost2010PropOp55
 70
     1
102
RTVSPost2010Prop56
140
1.0
102
RTVSPost2010PropOp56
 70
     1
102
RTVSPost2010Prop57
140
1.0
102
RTVSPost2010PropOp57
 70
     1
  0
XRECORD
  5
4DB
102
{ACAD_REACTORS
330
4DA
102
}
330
4DA
100
AcDbXrecord
280
     1
102
RTVSPost2010Prop28
280
     0
102
RTVSPost2010PropOp28
 70
     1
102
RTVSPost2010Prop29
280
     1
102
RTVSPost2010PropOp29
 70
     1
102
RTVSPost2010Prop30
280
     1
102
RTVSPost2010PropOp30
 70
     1
102
RTVSPost2010Prop31
280
     0
102
RTVSPost2010PropOp31
 70
     1
102
RTVSPost2010Prop32
280
     0
102
RTVSPost2010PropOp32
 70
     1
102
RTVSPost2010Prop33
280
     0
102
RTVSPost2010PropOp33
 70
     1
102
RTVSPost2010Prop34
280
     0
102
RTVSPost2010PropOp34
 70
     1
102
RTVSPost2010Prop35
280
     0
102
RTVSPost2010PropOp35
 70
     1
102
RTVSPost2010Prop36
280
     0
102
RTVSPost2010PropOp36
 70
     1
102
RTVSPost2010Prop37
 90
       50
102
RTVSPost2010PropOp37
 70
     1
102
RTVSPost2010Prop38
140
0.0
102
RTVSPost2010PropOp38
 70
     1
102
RTVSPost2010Prop39
140
1.0
102
RTVSPost2010PropOp39
 70
     1
102
RTVSPost2010Prop40
 90
        0
102
RTVSPost2010PropOp40
 70
     1
102
RTVSPost2010Prop41ColorIndex
 90
       18
102
RTVSPost2010Prop41ColorRGB
 90
        0
102
RTVSPost2010PropOp41
 70
     1
102
RTVSPost2010Prop42
 90
       50
102
RTVSPost2010PropOp42
 70
     1
102
RTVSPost2010Prop43
 90
        3
102
RTVSPost2010PropOp43
 70
     1
102
RTVSPost2010Prop44ColorIndex
 90
        5
102
RTVSPost2010Prop44ColorRGB
 90
      255
102
RTVSPost2010PropOp44
 70
     1
102
RTVSPost2010Prop45
280
     0
102
RTVSPost2010PropOp45
 70
     1
102
RTVSPost2010Prop46
 90
       50
102
RTVSPost2010PropOp46
 70
     1
102
RTVSPost2010Prop47
 90
       50
102
RTVSPost2010PropOp47
 70
     1
102
RTVSPost2010Prop48
 90
       50
102
RTVSPost2010PropOp48
 70
     1
102
RTVSPost2010Prop49
280
     0
102
RTVSPost2010PropOp49
 70
     1
102
RTVSPost2010Prop50
 90
       50
102
RTVSPost2010PropOp50
 70
     1
102
RTVSPost2010Prop51ColorIndex
 90
      256
102
RTVSPost2010Prop51ColorRGB
 90
-16777216
102
RTVSPost2010PropOp51
 70
     0
102
RTVSPost2010Prop52
140
1.0
102
RTVSPost2010PropOp52
 70
     0
102
RTVSPost2010Prop53
 90
        2
102
RTVSPost2010PropOp53
 70
     1
102
RTVSPost2010Prop54
  1
strokes_ogs.tif
102
RTVSPost2010PropOp54
 70
     1
102
RTVSPost2010Prop55
280
     0
102
RTVSPost2010PropOp55
 70
     1
102
RTVSPost2010Prop56
140
1.0
102
RTVSPost2010PropOp56
 70
     1
102
RTVSPost2010Prop57
140
1.0
102
RTVSPost2010PropOp57
 70
     1
  0
XRECORD
  5
4CF
102
{ACAD_REACTORS
330
4CE
102
}
330
4CE
100
AcDbXrecord
280
     1
102
RTVSPost2010Prop28
280
     0
102
RTVSPost2010PropOp28
 70
     1
102
RTVSPost2010Prop29
280
     1
102
RTVSPost2010PropOp29
 70
     1
102
RTVSPost2010Prop30
280
     1
102
RTVSPost2010PropOp30
 70
     1
102
RTVSPost2010Prop31
280
     0
102
RTVSPost2010PropOp31
 70
     1
102
RTVSPost2010Prop32
280
     0
102
RTVSPost2010PropOp32
 70
     1
102
RTVSPost2010Prop33
280
     0
102
RTVSPost2010PropOp33
 70
     1
102
RTVSPost2010Prop34
280
     0
102
RTVSPost2010PropOp34
 70
     1
102
RTVSPost2010Prop35
280
     0
102
RTVSPost2010PropOp35
 70
     1
102
RTVSPost2010Prop36
280
     0
102
RTVSPost2010PropOp36
 70
     1
102
RTVSPost2010Prop37
 90
       50
102
RTVSPost2010PropOp37
 70
     1
102
RTVSPost2010Prop38
140
0.0
102
RTVSPost2010PropOp38
 70
     1
102
RTVSPost2010Prop39
140
1.0
102
RTVSPost2010PropOp39
 70
     1
102
RTVSPost2010Prop40
 90
        0
102
RTVSPost2010PropOp40
 70
     1
102
RTVSPost2010Prop41ColorIndex
 90
       18
102
RTVSPost2010Prop41ColorRGB
 90
        0
102
RTVSPost2010PropOp41
 70
     1
102
RTVSPost2010Prop42
 90
       50
102
RTVSPost2010PropOp42
 70
     1
102
RTVSPost2010Prop43
 90
        3
102
RTVSPost2010PropOp43
 70
     1
102
RTVSPost2010Prop44ColorIndex
 90
        5
102
RTVSPost2010Prop44ColorRGB
 90
      255
102
RTVSPost2010PropOp44
 70
     1
102
RTVSPost2010Prop45
280
     0
102
RTVSPost2010PropOp45
 70
     1
102
RTVSPost2010Prop46
 90
       50
102
RTVSPost2010PropOp46
 70
     1
102
RTVSPost2010Prop47
 90
       50
102
RTVSPost2010PropOp47
 70
     1
102
RTVSPost2010Prop48
 90
       50
102
RTVSPost2010PropOp48
 70
     1
102
RTVSPost2010Prop49
280
     0
102
RTVSPost2010PropOp49
 70
     1
102
RTVSPost2010Prop50
 90
       50
102
RTVSPost2010PropOp50
 70
     1
102
RTVSPost2010Prop51ColorIndex
 90
      256
102
RTVSPost2010Prop51ColorRGB
 90
-16777216
102
RTVSPost2010PropOp51
 70
     0
102
RTVSPost2010Prop52
140
1.0
102
RTVSPost2010PropOp52
 70
     0
102
RTVSPost2010Prop53
 90
        2
102
RTVSPost2010PropOp53
 70
     1
102
RTVSPost2010Prop54
  1
strokes_ogs.tif
102
RTVSPost2010PropOp54
 70
     1
102
RTVSPost2010Prop55
280
     0
102
RTVSPost2010PropOp55
 70
     1
102
RTVSPost2010Prop56
140
1.0
102
RTVSPost2010PropOp56
 70
     1
102
RTVSPost2010Prop57
140
1.0
102
RTVSPost2010PropOp57
 70
     1
  0
XRECORD
  5
4D1
102
{ACAD_REACTORS
330
4D0
102
}
330
4D0
100
AcDbXrecord
280
     1
102
RTVSPost2010Prop28
280
     0
102
RTVSPost2010PropOp28
 70
     1
102
RTVSPost2010Prop29
280
     1
102
RTVSPost2010PropOp29
 70
     1
102
RTVSPost2010Prop30
280
     1
102
RTVSPost2010PropOp30
 70
     1
102
RTVSPost2010Prop31
280
     0
102
RTVSPost2010PropOp31
 70
     1
102
RTVSPost2010Prop32
280
     0
102
RTVSPost2010PropOp32
 70
     1
102
RTVSPost2010Prop33
280
     0
102
RTVSPost2010PropOp33
 70
     1
102
RTVSPost2010Prop34
280
     0
102
RTVSPost2010PropOp34
 70
     1
102
RTVSPost2010Prop35
280
     0
102
RTVSPost2010PropOp35
 70
     1
102
RTVSPost2010Prop36
280
     0
102
RTVSPost2010PropOp36
 70
     1
102
RTVSPost2010Prop37
 90
       50
102
RTVSPost2010PropOp37
 70
     1
102
RTVSPost2010Prop38
140
0.0
102
RTVSPost2010PropOp38
 70
     1
102
RTVSPost2010Prop39
140
1.0
102
RTVSPost2010PropOp39
 70
     1
102
RTVSPost2010Prop40
 90
        0
102
RTVSPost2010PropOp40
 70
     1
102
RTVSPost2010Prop41ColorIndex
 90
       18
102
RTVSPost2010Prop41ColorRGB
 90
        0
102
RTVSPost2010PropOp41
 70
     1
102
RTVSPost2010Prop42
 90
       50
102
RTVSPost2010PropOp42
 70
     1
102
RTVSPost2010Prop43
 90
        3
102
RTVSPost2010PropOp43
 70
     1
102
RTVSPost2010Prop44ColorIndex
 90
        5
102
RTVSPost2010Prop44ColorRGB
 90
      255
102
RTVSPost2010PropOp44
 70
     1
102
RTVSPost2010Prop45
280
     0
102
RTVSPost2010PropOp45
 70
     1
102
RTVSPost2010Prop46
 90
       50
102
RTVSPost2010PropOp46
 70
     1
102
RTVSPost2010Prop47
 90
       50
102
RTVSPost2010PropOp47
 70
     1
102
RTVSPost2010Prop48
 90
       50
102
RTVSPost2010PropOp48
 70
     1
102
RTVSPost2010Prop49
280
     0
102
RTVSPost2010PropOp49
 70
     1
102
RTVSPost2010Prop50
 90
       50
102
RTVSPost2010PropOp50
 70
     1
102
RTVSPost2010Prop51ColorIndex
 90
      256
102
RTVSPost2010Prop51ColorRGB
 90
-16777216
102
RTVSPost2010PropOp51
 70
     0
102
RTVSPost2010Prop52
140
1.0
102
RTVSPost2010PropOp52
 70
     0
102
RTVSPost2010Prop53
 90
        2
102
RTVSPost2010PropOp53
 70
     1
102
RTVSPost2010Prop54
  1
strokes_ogs.tif
102
RTVSPost2010PropOp54
 70
     1
102
RTVSPost2010Prop55
280
     0
102
RTVSPost2010PropOp55
 70
     1
102
RTVSPost2010Prop56
140
1.0
102
RTVSPost2010PropOp56
 70
     1
102
RTVSPost2010Prop57
140
1.0
102
RTVSPost2010PropOp57
 70
     1
  0
XRECORD
  5
4E1
102
{ACAD_REACTORS
330
4E0
102
}
330
4E0
100
AcDbXrecord
280
     1
102
RTVSPost2010Prop28
280
     0
102
RTVSPost2010PropOp28
 70
     0
102
RTVSPost2010Prop29
280
     1
102
RTVSPost2010PropOp29
 70
     0
102
RTVSPost2010Prop30
280
     1
102
RTVSPost2010PropOp30
 70
     0
102
RTVSPost2010Prop31
280
     0
102
RTVSPost2010PropOp31
 70
     0
102
RTVSPost2010Prop32
280
     0
102
RTVSPost2010PropOp32
 70
     0
102
RTVSPost2010Prop33
280
     0
102
RTVSPost2010PropOp33
 70
     0
102
RTVSPost2010Prop34
280
     0
102
RTVSPost2010PropOp34
 70
     0
102
RTVSPost2010Prop35
280
     0
102
RTVSPost2010PropOp35
 70
     0
102
RTVSPost2010Prop36
280
     0
102
RTVSPost2010PropOp36
 70
     0
102
RTVSPost2010Prop37
 90
       50
102
RTVSPost2010PropOp37
 70
     0
102
RTVSPost2010Prop38
140
0.0
102
RTVSPost2010PropOp38
 70
     0
102
RTVSPost2010Prop39
140
1.0
102
RTVSPost2010PropOp39
 70
     0
102
RTVSPost2010Prop40
 90
        0
102
RTVSPost2010PropOp40
 70
     0
102
RTVSPost2010Prop41ColorIndex
 90
       18
102
RTVSPost2010Prop41ColorRGB
 90
        0
102
RTVSPost2010PropOp41
 70
     0
102
RTVSPost2010Prop42
 90
       50
102
RTVSPost2010PropOp42
 70
     0
102
RTVSPost2010Prop43
 90
        3
102
RTVSPost2010PropOp43
 70
     0
102
RTVSPost2010Prop44ColorIndex
 90
        5
102
RTVSPost2010Prop44ColorRGB
 90
      255
102
RTVSPost2010PropOp44
 70
     0
102
RTVSPost2010Prop45
280
     0
102
RTVSPost2010PropOp45
 70
     0
102
RTVSPost2010Prop46
 90
       50
102
RTVSPost2010PropOp46
 70
     0
102
RTVSPost2010Prop47
 90
       50
102
RTVSPost2010PropOp47
 70
     0
102
RTVSPost2010Prop48
 90
       50
102
RTVSPost2010PropOp48
 70
     0
102
RTVSPost2010Prop49
280
     0
102
RTVSPost2010PropOp49
 70
     0
102
RTVSPost2010Prop50
 90
       50
102
RTVSPost2010PropOp50
 70
     0
102
RTVSPost2010Prop51ColorIndex
 90
      256
102
RTVSPost2010Prop51ColorRGB
 90
-16777216
102
RTVSPost2010PropOp51
 70
     0
102
RTVSPost2010Prop52
140
1.0
102
RTVSPost2010PropOp52
 70
     0
102
RTVSPost2010Prop53
 90
        2
102
RTVSPost2010PropOp53
 70
     0
102
RTVSPost2010Prop54
  1
strokes_ogs.tif
102
RTVSPost2010PropOp54
 70
     0
102
RTVSPost2010Prop55
280
     0
102
RTVSPost2010PropOp55
 70
     0
102
RTVSPost2010Prop56
140
1.0
102
RTVSPost2010PropOp56
 70
     0
102
RTVSPost2010Prop57
140
1.0
102
RTVSPost2010PropOp57
 70
     0
  0
XRECORD
  5
4D9
102
{ACAD_REACTORS
330
4D8
102
}
330
4D8
100
AcDbXrecord
280
     1
102
RTVSPost2010Prop28
280
     0
102
RTVSPost2010PropOp28
 70
     1
102
RTVSPost2010Prop29
280
     1
102
RTVSPost2010PropOp29
 70
     1
102
RTVSPost2010Prop30
280
     1
102
RTVSPost2010PropOp30
 70
     1
102
RTVSPost2010Prop31
280
     0
102
RTVSPost2010PropOp31
 70
     1
102
RTVSPost2010Prop32
280
     0
102
RTVSPost2010PropOp32
 70
     1
102
RTVSPost2010Prop33
280
     0
102
RTVSPost2010PropOp33
 70
     1
102
RTVSPost2010Prop34
280
     0
102
RTVSPost2010PropOp34
 70
     1
102
RTVSPost2010Prop35
280
     0
102
RTVSPost2010PropOp35
 70
     1
102
RTVSPost2010Prop36
280
     0
102
RTVSPost2010PropOp36
 70
     1
102
RTVSPost2010Prop37
 90
       50
102
RTVSPost2010PropOp37
 70
     1
102
RTVSPost2010Prop38
140
0.0
102
RTVSPost2010PropOp38
 70
     1
102
RTVSPost2010Prop39
140
1.0
102
RTVSPost2010PropOp39
 70
     1
102
RTVSPost2010Prop40
 90
        0
102
RTVSPost2010PropOp40
 70
     1
102
RTVSPost2010Prop41ColorIndex
 90
       18
102
RTVSPost2010Prop41ColorRGB
 90
        0
102
RTVSPost2010PropOp41
 70
     1
102
RTVSPost2010Prop42
 90
       50
102
RTVSPost2010PropOp42
 70
     1
102
RTVSPost2010Prop43
 90
        3
102
RTVSPost2010PropOp43
 70
     1
102
RTVSPost2010Prop44ColorIndex
 90
        5
102
RTVSPost2010Prop44ColorRGB
 90
      255
102
RTVSPost2010PropOp44
 70
     1
102
RTVSPost2010Prop45
280
     0
102
RTVSPost2010PropOp45
 70
     1
102
RTVSPost2010Prop46
 90
       50
102
RTVSPost2010PropOp46
 70
     1
102
RTVSPost2010Prop47
 90
       50
102
RTVSPost2010PropOp47
 70
     1
102
RTVSPost2010Prop48
 90
       50
102
RTVSPost2010PropOp48
 70
     1
102
RTVSPost2010Prop49
280
     0
102
RTVSPost2010PropOp49
 70
     1
102
RTVSPost2010Prop50
 90
       50
102
RTVSPost2010PropOp50
 70
     1
102
RTVSPost2010Prop51ColorIndex
 90
      256
102
RTVSPost2010Prop51ColorRGB
 90
-16777216
102
RTVSPost2010PropOp51
 70
     0
102
RTVSPost2010Prop52
140
1.0
102
RTVSPost2010PropOp52
 70
     0
102
RTVSPost2010Prop53
 90
        2
102
RTVSPost2010PropOp53
 70
     1
102
RTVSPost2010Prop54
  1
strokes_ogs.tif
102
RTVSPost2010PropOp54
 70
     1
102
RTVSPost2010Prop55
280
     0
102
RTVSPost2010PropOp55
 70
     1
102
RTVSPost2010Prop56
140
1.0
102
RTVSPost2010PropOp56
 70
     1
102
RTVSPost2010Prop57
140
1.0
102
RTVSPost2010PropOp57
 70
     1
  0
XRECORD
  5
4BD
102
{ACAD_REACTORS
330
4BC
102
}
330
4BC
100
AcDbXrecord
280
     1
102
RTVSPost2010Prop28
280
     0
102
RTVSPost2010PropOp28
 70
     1
102
RTVSPost2010Prop29
280
     1
102
RTVSPost2010PropOp29
 70
     1
102
RTVSPost2010Prop30
280
     1
102
RTVSPost2010PropOp30
 70
     1
102
RTVSPost2010Prop31
280
     0
102
RTVSPost2010PropOp31
 70
     1
102
RTVSPost2010Prop32
280
     0
102
RTVSPost2010PropOp32
 70
     1
102
RTVSPost2010Prop33
280
     0
102
RTVSPost2010PropOp33
 70
     1
102
RTVSPost2010Prop34
280
     0
102
RTVSPost2010PropOp34
 70
     1
102
RTVSPost2010Prop35
280
     0
102
RTVSPost2010PropOp35
 70
     1
102
RTVSPost2010Prop36
280
     0
102
RTVSPost2010PropOp36
 70
     1
102
RTVSPost2010Prop37
 90
       50
102
RTVSPost2010PropOp37
 70
     1
102
RTVSPost2010Prop38
140
0.0
102
RTVSPost2010PropOp38
 70
     1
102
RTVSPost2010Prop39
140
1.0
102
RTVSPost2010PropOp39
 70
     1
102
RTVSPost2010Prop40
 90
        0
102
RTVSPost2010PropOp40
 70
     1
102
RTVSPost2010Prop41ColorIndex
 90
       18
102
RTVSPost2010Prop41ColorRGB
 90
        0
102
RTVSPost2010PropOp41
 70
     1
102
RTVSPost2010Prop42
 90
       50
102
RTVSPost2010PropOp42
 70
     1
102
RTVSPost2010Prop43
 90
        3
102
RTVSPost2010PropOp43
 70
     1
102
RTVSPost2010Prop44ColorIndex
 90
        5
102
RTVSPost2010Prop44ColorRGB
 90
      255
102
RTVSPost2010PropOp44
 70
     1
102
RTVSPost2010Prop45
280
     0
102
RTVSPost2010PropOp45
 70
     1
102
RTVSPost2010Prop46
 90
       50
102
RTVSPost2010PropOp46
 70
     1
102
RTVSPost2010Prop47
 90
       50
102
RTVSPost2010PropOp47
 70
     1
102
RTVSPost2010Prop48
 90
       50
102
RTVSPost2010PropOp48
 70
     1
102
RTVSPost2010Prop49
280
     0
102
RTVSPost2010PropOp49
 70
     1
102
RTVSPost2010Prop50
 90
       50
102
RTVSPost2010PropOp50
 70
     1
102
RTVSPost2010Prop51ColorIndex
 90
      256
102
RTVSPost2010Prop51ColorRGB
 90
-16777216
102
RTVSPost2010PropOp51
 70
     0
102
RTVSPost2010Prop52
140
1.0
102
RTVSPost2010PropOp52
 70
     0
102
RTVSPost2010Prop53
 90
        2
102
RTVSPost2010PropOp53
 70
     1
102
RTVSPost2010Prop54
  1
strokes_ogs.tif
102
RTVSPost2010PropOp54
 70
     1
102
RTVSPost2010Prop55
280
     0
102
RTVSPost2010PropOp55
 70
     1
102
RTVSPost2010Prop56
140
1.0
102
RTVSPost2010PropOp56
 70
     1
102
RTVSPost2010Prop57
140
1.0
102
RTVSPost2010PropOp57
 70
     1
  0
XRECORD
  5
4BF
102
{ACAD_REACTORS
330
4BE
102
}
330
4BE
100
AcDbXrecord
280
     1
102
RTVSPost2010Prop28
280
     0
102
RTVSPost2010PropOp28
 70
     1
102
RTVSPost2010Prop29
280
     1
102
RTVSPost2010PropOp29
 70
     1
102
RTVSPost2010Prop30
280
     1
102
RTVSPost2010PropOp30
 70
     1
102
RTVSPost2010Prop31
280
     0
102
RTVSPost2010PropOp31
 70
     1
102
RTVSPost2010Prop32
280
     0
102
RTVSPost2010PropOp32
 70
     1
102
RTVSPost2010Prop33
280
     0
102
RTVSPost2010PropOp33
 70
     1
102
RTVSPost2010Prop34
280
     0
102
RTVSPost2010PropOp34
 70
     1
102
RTVSPost2010Prop35
280
     0
102
RTVSPost2010PropOp35
 70
     1
102
RTVSPost2010Prop36
280
     0
102
RTVSPost2010PropOp36
 70
     1
102
RTVSPost2010Prop37
 90
       50
102
RTVSPost2010PropOp37
 70
     1
102
RTVSPost2010Prop38
140
0.0
102
RTVSPost2010PropOp38
 70
     1
102
RTVSPost2010Prop39
140
1.0
102
RTVSPost2010PropOp39
 70
     1
102
RTVSPost2010Prop40
 90
        0
102
RTVSPost2010PropOp40
 70
     1
102
RTVSPost2010Prop41ColorIndex
 90
       18
102
RTVSPost2010Prop41ColorRGB
 90
        0
102
RTVSPost2010PropOp41
 70
     1
102
RTVSPost2010Prop42
 90
       50
102
RTVSPost2010PropOp42
 70
     1
102
RTVSPost2010Prop43
 90
        3
102
RTVSPost2010PropOp43
 70
     1
102
RTVSPost2010Prop44ColorIndex
 90
        5
102
RTVSPost2010Prop44ColorRGB
 90
      255
102
RTVSPost2010PropOp44
 70
     1
102
RTVSPost2010Prop45
280
     0
102
RTVSPost2010PropOp45
 70
     1
102
RTVSPost2010Prop46
 90
       50
102
RTVSPost2010PropOp46
 70
     1
102
RTVSPost2010Prop47
 90
       50
102
RTVSPost2010PropOp47
 70
     1
102
RTVSPost2010Prop48
 90
       50
102
RTVSPost2010PropOp48
 70
     1
102
RTVSPost2010Prop49
280
     0
102
RTVSPost2010PropOp49
 70
     1
102
RTVSPost2010Prop50
 90
       50
102
RTVSPost2010PropOp50
 70
     1
102
RTVSPost2010Prop51ColorIndex
 90
      256
102
RTVSPost2010Prop51ColorRGB
 90
-16777216
102
RTVSPost2010PropOp51
 70
     0
102
RTVSPost2010Prop52
140
1.0
102
RTVSPost2010PropOp52
 70
     0
102
RTVSPost2010Prop53
 90
        2
102
RTVSPost2010PropOp53
 70
     1
102
RTVSPost2010Prop54
  1
strokes_ogs.tif
102
RTVSPost2010PropOp54
 70
     1
102
RTVSPost2010Prop55
280
     0
102
RTVSPost2010PropOp55
 70
     1
102
RTVSPost2010Prop56
140
1.0
102
RTVSPost2010PropOp56
 70
     1
102
RTVSPost2010Prop57
140
1.0
102
RTVSPost2010PropOp57
 70
     1
  0
XRECORD
  5
4C1
102
{ACAD_REACTORS
330
4C0
102
}
330
4C0
100
AcDbXrecord
280
     1
102
RTVSPost2010Prop28
280
     0
102
RTVSPost2010PropOp28
 70
     1
102
RTVSPost2010Prop29
280
     1
102
RTVSPost2010PropOp29
 70
     1
102
RTVSPost2010Prop30
280
     1
102
RTVSPost2010PropOp30
 70
     1
102
RTVSPost2010Prop31
280
     0
102
RTVSPost2010PropOp31
 70
     1
102
RTVSPost2010Prop32
280
     0
102
RTVSPost2010PropOp32
 70
     1
102
RTVSPost2010Prop33
280
     0
102
RTVSPost2010PropOp33
 70
     1
102
RTVSPost2010Prop34
280
     0
102
RTVSPost2010PropOp34
 70
     1
102
RTVSPost2010Prop35
280
     0
102
RTVSPost2010PropOp35
 70
     1
102
RTVSPost2010Prop36
280
     0
102
RTVSPost2010PropOp36
 70
     1
102
RTVSPost2010Prop37
 90
       50
102
RTVSPost2010PropOp37
 70
     1
102
RTVSPost2010Prop38
140
0.0
102
RTVSPost2010PropOp38
 70
     1
102
RTVSPost2010Prop39
140
1.0
102
RTVSPost2010PropOp39
 70
     1
102
RTVSPost2010Prop40
 90
        0
102
RTVSPost2010PropOp40
 70
     1
102
RTVSPost2010Prop41ColorIndex
 90
       18
102
RTVSPost2010Prop41ColorRGB
 90
        0
102
RTVSPost2010PropOp41
 70
     1
102
RTVSPost2010Prop42
 90
       50
102
RTVSPost2010PropOp42
 70
     1
102
RTVSPost2010Prop43
 90
        3
102
RTVSPost2010PropOp43
 70
     1
102
RTVSPost2010Prop44ColorIndex
 90
        5
102
RTVSPost2010Prop44ColorRGB
 90
      255
102
RTVSPost2010PropOp44
 70
     1
102
RTVSPost2010Prop45
280
     0
102
RTVSPost2010PropOp45
 70
     1
102
RTVSPost2010Prop46
 90
       50
102
RTVSPost2010PropOp46
 70
     1
102
RTVSPost2010Prop47
 90
       50
102
RTVSPost2010PropOp47
 70
     1
102
RTVSPost2010Prop48
 90
       50
102
RTVSPost2010PropOp48
 70
     1
102
RTVSPost2010Prop49
280
     0
102
RTVSPost2010PropOp49
 70
     1
102
RTVSPost2010Prop50
 90
       50
102
RTVSPost2010PropOp50
 70
     1
102
RTVSPost2010Prop51ColorIndex
 90
      256
102
RTVSPost2010Prop51ColorRGB
 90
-16777216
102
RTVSPost2010PropOp51
 70
     0
102
RTVSPost2010Prop52
140
1.0
102
RTVSPost2010PropOp52
 70
     0
102
RTVSPost2010Prop53
 90
        2
102
RTVSPost2010PropOp53
 70
     1
102
RTVSPost2010Prop54
  1
strokes_ogs.tif
102
RTVSPost2010PropOp54
 70
     1
102
RTVSPost2010Prop55
280
     0
102
RTVSPost2010PropOp55
 70
     1
102
RTVSPost2010Prop56
140
1.0
102
RTVSPost2010PropOp56
 70
     1
102
RTVSPost2010Prop57
140
1.0
102
RTVSPost2010PropOp57
 70
     1
  0
XRECORD
  5
4C3
102
{ACAD_REACTORS
330
4C2
102
}
330
4C2
100
AcDbXrecord
280
     1
102
RTVSPost2010Prop28
280
     0
102
RTVSPost2010PropOp28
 70
     1
102
RTVSPost2010Prop29
280
     1
102
RTVSPost2010PropOp29
 70
     1
102
RTVSPost2010Prop30
280
     1
102
RTVSPost2010PropOp30
 70
     1
102
RTVSPost2010Prop31
280
     0
102
RTVSPost2010PropOp31
 70
     1
102
RTVSPost2010Prop32
280
     0
102
RTVSPost2010PropOp32
 70
     1
102
RTVSPost2010Prop33
280
     0
102
RTVSPost2010PropOp33
 70
     1
102
RTVSPost2010Prop34
280
     0
102
RTVSPost2010PropOp34
 70
     1
102
RTVSPost2010Prop35
280
     0
102
RTVSPost2010PropOp35
 70
     1
102
RTVSPost2010Prop36
280
     0
102
RTVSPost2010PropOp36
 70
     1
102
RTVSPost2010Prop37
 90
       50
102
RTVSPost2010PropOp37
 70
     1
102
RTVSPost2010Prop38
140
0.0
102
RTVSPost2010PropOp38
 70
     1
102
RTVSPost2010Prop39
140
1.0
102
RTVSPost2010PropOp39
 70
     1
102
RTVSPost2010Prop40
 90
        0
102
RTVSPost2010PropOp40
 70
     1
102
RTVSPost2010Prop41ColorIndex
 90
       18
102
RTVSPost2010Prop41ColorRGB
 90
        0
102
RTVSPost2010PropOp41
 70
     1
102
RTVSPost2010Prop42
 90
       50
102
RTVSPost2010PropOp42
 70
     1
102
RTVSPost2010Prop43
 90
        3
102
RTVSPost2010PropOp43
 70
     1
102
RTVSPost2010Prop44ColorIndex
 90
        5
102
RTVSPost2010Prop44ColorRGB
 90
      255
102
RTVSPost2010PropOp44
 70
     1
102
RTVSPost2010Prop45
280
     0
102
RTVSPost2010PropOp45
 70
     1
102
RTVSPost2010Prop46
 90
       50
102
RTVSPost2010PropOp46
 70
     1
102
RTVSPost2010Prop47
 90
       50
102
RTVSPost2010PropOp47
 70
     1
102
RTVSPost2010Prop48
 90
       50
102
RTVSPost2010PropOp48
 70
     1
102
RTVSPost2010Prop49
280
     0
102
RTVSPost2010PropOp49
 70
     1
102
RTVSPost2010Prop50
 90
       50
102
RTVSPost2010PropOp50
 70
     1
102
RTVSPost2010Prop51ColorIndex
 90
      256
102
RTVSPost2010Prop51ColorRGB
 90
-16777216
102
RTVSPost2010PropOp51
 70
     0
102
RTVSPost2010Prop52
140
1.0
102
RTVSPost2010PropOp52
 70
     0
102
RTVSPost2010Prop53
 90
        2
102
RTVSPost2010PropOp53
 70
     1
102
RTVSPost2010Prop54
  1
strokes_ogs.tif
102
RTVSPost2010PropOp54
 70
     1
102
RTVSPost2010Prop55
280
     0
102
RTVSPost2010PropOp55
 70
     1
102
RTVSPost2010Prop56
140
1.0
102
RTVSPost2010PropOp56
 70
     1
102
RTVSPost2010Prop57
140
1.0
102
RTVSPost2010PropOp57
 70
     1
  0
XRECORD
  5
4C9
102
{ACAD_REACTORS
330
4C8
102
}
330
4C8
100
AcDbXrecord
280
     1
102
RTVSPost2010Prop28
280
     0
102
RTVSPost2010PropOp28
 70
     1
102
RTVSPost2010Prop29
280
     1
102
RTVSPost2010PropOp29
 70
     1
102
RTVSPost2010Prop30
280
     1
102
RTVSPost2010PropOp30
 70
     1
102
RTVSPost2010Prop31
280
     0
102
RTVSPost2010PropOp31
 70
     1
102
RTVSPost2010Prop32
280
     0
102
RTVSPost2010PropOp32
 70
     1
102
RTVSPost2010Prop33
280
     0
102
RTVSPost2010PropOp33
 70
     1
102
RTVSPost2010Prop34
280
     0
102
RTVSPost2010PropOp34
 70
     1
102
RTVSPost2010Prop35
280
     0
102
RTVSPost2010PropOp35
 70
     1
102
RTVSPost2010Prop36
280
     0
102
RTVSPost2010PropOp36
 70
     1
102
RTVSPost2010Prop37
 90
       50
102
RTVSPost2010PropOp37
 70
     1
102
RTVSPost2010Prop38
140
0.0
102
RTVSPost2010PropOp38
 70
     1
102
RTVSPost2010Prop39
140
1.0
102
RTVSPost2010PropOp39
 70
     1
102
RTVSPost2010Prop40
 90
        0
102
RTVSPost2010PropOp40
 70
     1
102
RTVSPost2010Prop41ColorIndex
 90
       18
102
RTVSPost2010Prop41ColorRGB
 90
        0
102
RTVSPost2010PropOp41
 70
     1
102
RTVSPost2010Prop42
 90
       50
102
RTVSPost2010PropOp42
 70
     1
102
RTVSPost2010Prop43
 90
        3
102
RTVSPost2010PropOp43
 70
     1
102
RTVSPost2010Prop44ColorIndex
 90
        5
102
RTVSPost2010Prop44ColorRGB
 90
      255
102
RTVSPost2010PropOp44
 70
     1
102
RTVSPost2010Prop45
280
     0
102
RTVSPost2010PropOp45
 70
     1
102
RTVSPost2010Prop46
 90
       50
102
RTVSPost2010PropOp46
 70
     1
102
RTVSPost2010Prop47
 90
       50
102
RTVSPost2010PropOp47
 70
     1
102
RTVSPost2010Prop48
 90
       50
102
RTVSPost2010PropOp48
 70
     1
102
RTVSPost2010Prop49
280
     0
102
RTVSPost2010PropOp49
 70
     1
102
RTVSPost2010Prop50
 90
       50
102
RTVSPost2010PropOp50
 70
     1
102
RTVSPost2010Prop51ColorIndex
 90
      256
102
RTVSPost2010Prop51ColorRGB
 90
-16777216
102
RTVSPost2010PropOp51
 70
     0
102
RTVSPost2010Prop52
140
1.0
102
RTVSPost2010PropOp52
 70
     0
102
RTVSPost2010Prop53
 90
        2
102
RTVSPost2010PropOp53
 70
     1
102
RTVSPost2010Prop54
  1
strokes_ogs.tif
102
RTVSPost2010PropOp54
 70
     1
102
RTVSPost2010Prop55
280
     0
102
RTVSPost2010PropOp55
 70
     1
102
RTVSPost2010Prop56
140
1.0
102
RTVSPost2010PropOp56
 70
     1
102
RTVSPost2010Prop57
140
1.0
102
RTVSPost2010PropOp57
 70
     1
  0
XRECORD
  5
4DD
102
{ACAD_REACTORS
330
4DC
102
}
330
4DC
100
AcDbXrecord
280
     1
102
RTVSPost2010Prop28
280
     0
102
RTVSPost2010PropOp28
 70
     0
102
RTVSPost2010Prop29
280
     1
102
RTVSPost2010PropOp29
 70
     0
102
RTVSPost2010Prop30
280
     1
102
RTVSPost2010PropOp30
 70
     0
102
RTVSPost2010Prop31
280
     0
102
RTVSPost2010PropOp31
 70
     0
102
RTVSPost2010Prop32
280
     0
102
RTVSPost2010PropOp32
 70
     0
102
RTVSPost2010Prop33
280
     0
102
RTVSPost2010PropOp33
 70
     0
102
RTVSPost2010Prop34
280
     0
102
RTVSPost2010PropOp34
 70
     0
102
RTVSPost2010Prop35
280
     0
102
RTVSPost2010PropOp35
 70
     0
102
RTVSPost2010Prop36
280
     0
102
RTVSPost2010PropOp36
 70
     0
102
RTVSPost2010Prop37
 90
       50
102
RTVSPost2010PropOp37
 70
     0
102
RTVSPost2010Prop38
140
0.0
102
RTVSPost2010PropOp38
 70
     0
102
RTVSPost2010Prop39
140
1.0
102
RTVSPost2010PropOp39
 70
     0
102
RTVSPost2010Prop40
 90
        0
102
RTVSPost2010PropOp40
 70
     0
102
RTVSPost2010Prop41ColorIndex
 90
       18
102
RTVSPost2010Prop41ColorRGB
 90
        0
102
RTVSPost2010PropOp41
 70
     0
102
RTVSPost2010Prop42
 90
       50
102
RTVSPost2010PropOp42
 70
     0
102
RTVSPost2010Prop43
 90
        3
102
RTVSPost2010PropOp43
 70
     0
102
RTVSPost2010Prop44ColorIndex
 90
        5
102
RTVSPost2010Prop44ColorRGB
 90
      255
102
RTVSPost2010PropOp44
 70
     0
102
RTVSPost2010Prop45
280
     0
102
RTVSPost2010PropOp45
 70
     0
102
RTVSPost2010Prop46
 90
       50
102
RTVSPost2010PropOp46
 70
     0
102
RTVSPost2010Prop47
 90
       50
102
RTVSPost2010PropOp47
 70
     0
102
RTVSPost2010Prop48
 90
       50
102
RTVSPost2010PropOp48
 70
     0
102
RTVSPost2010Prop49
280
     0
102
RTVSPost2010PropOp49
 70
     0
102
RTVSPost2010Prop50
 90
       50
102
RTVSPost2010PropOp50
 70
     0
102
RTVSPost2010Prop51ColorIndex
 90
      256
102
RTVSPost2010Prop51ColorRGB
 90
-16777216
102
RTVSPost2010PropOp51
 70
     0
102
RTVSPost2010Prop52
140
1.0
102
RTVSPost2010PropOp52
 70
     0
102
RTVSPost2010Prop53
 90
        2
102
RTVSPost2010PropOp53
 70
     0
102
RTVSPost2010Prop54
  1
strokes_ogs.tif
102
RTVSPost2010PropOp54
 70
     0
102
RTVSPost2010Prop55
280
     0
102
RTVSPost2010PropOp55
 70
     0
102
RTVSPost2010Prop56
140
1.0
102
RTVSPost2010PropOp56
 70
     0
102
RTVSPost2010Prop57
140
1.0
102
RTVSPost2010PropOp57
 70
     0
  0
XRECORD
  5
4D7
102
{ACAD_REACTORS
330
4D6
102
}
330
4D6
100
AcDbXrecord
280
     1
102
RTVSPost2010Prop28
280
     0
102
RTVSPost2010PropOp28
 70
     1
102
RTVSPost2010Prop29
280
     1
102
RTVSPost2010PropOp29
 70
     1
102
RTVSPost2010Prop30
280
     1
102
RTVSPost2010PropOp30
 70
     1
102
RTVSPost2010Prop31
280
     0
102
RTVSPost2010PropOp31
 70
     1
102
RTVSPost2010Prop32
280
     0
102
RTVSPost2010PropOp32
 70
     1
102
RTVSPost2010Prop33
280
     0
102
RTVSPost2010PropOp33
 70
     1
102
RTVSPost2010Prop34
280
     0
102
RTVSPost2010PropOp34
 70
     1
102
RTVSPost2010Prop35
280
     0
102
RTVSPost2010PropOp35
 70
     1
102
RTVSPost2010Prop36
280
     0
102
RTVSPost2010PropOp36
 70
     1
102
RTVSPost2010Prop37
 90
       50
102
RTVSPost2010PropOp37
 70
     1
102
RTVSPost2010Prop38
140
0.0
102
RTVSPost2010PropOp38
 70
     1
102
RTVSPost2010Prop39
140
1.0
102
RTVSPost2010PropOp39
 70
     1
102
RTVSPost2010Prop40
 90
        0
102
RTVSPost2010PropOp40
 70
     1
102
RTVSPost2010Prop41ColorIndex
 90
       18
102
RTVSPost2010Prop41ColorRGB
 90
        0
102
RTVSPost2010PropOp41
 70
     1
102
RTVSPost2010Prop42
 90
       50
102
RTVSPost2010PropOp42
 70
     1
102
RTVSPost2010Prop43
 90
        3
102
RTVSPost2010PropOp43
 70
     1
102
RTVSPost2010Prop44ColorIndex
 90
        5
102
RTVSPost2010Prop44ColorRGB
 90
      255
102
RTVSPost2010PropOp44
 70
     1
102
RTVSPost2010Prop45
280
     0
102
RTVSPost2010PropOp45
 70
     1
102
RTVSPost2010Prop46
 90
       50
102
RTVSPost2010PropOp46
 70
     1
102
RTVSPost2010Prop47
 90
       50
102
RTVSPost2010PropOp47
 70
     1
102
RTVSPost2010Prop48
 90
       50
102
RTVSPost2010PropOp48
 70
     1
102
RTVSPost2010Prop49
280
     0
102
RTVSPost2010PropOp49
 70
     1
102
RTVSPost2010Prop50
 90
       50
102
RTVSPost2010PropOp50
 70
     1
102
RTVSPost2010Prop51ColorIndex
 90
      256
102
RTVSPost2010Prop51ColorRGB
 90
-16777216
102
RTVSPost2010PropOp51
 70
     0
102
RTVSPost2010Prop52
140
1.0
102
RTVSPost2010PropOp52
 70
     0
102
RTVSPost2010Prop53
 90
        2
102
RTVSPost2010PropOp53
 70
     1
102
RTVSPost2010Prop54
  1
strokes_ogs.tif
102
RTVSPost2010PropOp54
 70
     1
102
RTVSPost2010Prop55
280
     0
102
RTVSPost2010PropOp55
 70
     1
102
RTVSPost2010Prop56
140
1.0
102
RTVSPost2010PropOp56
 70
     1
102
RTVSPost2010Prop57
140
1.0
102
RTVSPost2010PropOp57
 70
     1
  0
XRECORD
  5
4DF
102
{ACAD_REACTORS
330
4DE
102
}
330
4DE
100
AcDbXrecord
280
     1
102
RTVSPost2010Prop28
280
     0
102
RTVSPost2010PropOp28
 70
     0
102
RTVSPost2010Prop29
280
     1
102
RTVSPost2010PropOp29
 70
     0
102
RTVSPost2010Prop30
280
     1
102
RTVSPost2010PropOp30
 70
     0
102
RTVSPost2010Prop31
280
     0
102
RTVSPost2010PropOp31
 70
     0
102
RTVSPost2010Prop32
280
     0
102
RTVSPost2010PropOp32
 70
     0
102
RTVSPost2010Prop33
280
     0
102
RTVSPost2010PropOp33
 70
     0
102
RTVSPost2010Prop34
280
     0
102
RTVSPost2010PropOp34
 70
     0
102
RTVSPost2010Prop35
280
     0
102
RTVSPost2010PropOp35
 70
     0
102
RTVSPost2010Prop36
280
     0
102
RTVSPost2010PropOp36
 70
     0
102
RTVSPost2010Prop37
 90
       50
102
RTVSPost2010PropOp37
 70
     0
102
RTVSPost2010Prop38
140
0.0
102
RTVSPost2010PropOp38
 70
     0
102
RTVSPost2010Prop39
140
1.0
102
RTVSPost2010PropOp39
 70
     0
102
RTVSPost2010Prop40
 90
        0
102
RTVSPost2010PropOp40
 70
     0
102
RTVSPost2010Prop41ColorIndex
 90
       18
102
RTVSPost2010Prop41ColorRGB
 90
        0
102
RTVSPost2010PropOp41
 70
     0
102
RTVSPost2010Prop42
 90
       50
102
RTVSPost2010PropOp42
 70
     0
102
RTVSPost2010Prop43
 90
        3
102
RTVSPost2010PropOp43
 70
     0
102
RTVSPost2010Prop44ColorIndex
 90
        5
102
RTVSPost2010Prop44ColorRGB
 90
      255
102
RTVSPost2010PropOp44
 70
     0
102
RTVSPost2010Prop45
280
     0
102
RTVSPost2010PropOp45
 70
     0
102
RTVSPost2010Prop46
 90
       50
102
RTVSPost2010PropOp46
 70
     0
102
RTVSPost2010Prop47
 90
       50
102
RTVSPost2010PropOp47
 70
     0
102
RTVSPost2010Prop48
 90
       50
102
RTVSPost2010PropOp48
 70
     0
102
RTVSPost2010Prop49
280
     0
102
RTVSPost2010PropOp49
 70
     0
102
RTVSPost2010Prop50
 90
       50
102
RTVSPost2010PropOp50
 70
     0
102
RTVSPost2010Prop51ColorIndex
 90
      256
102
RTVSPost2010Prop51ColorRGB
 90
-16777216
102
RTVSPost2010PropOp51
 70
     0
102
RTVSPost2010Prop52
140
1.0
102
RTVSPost2010PropOp52
 70
     0
102
RTVSPost2010Prop53
 90
        2
102
RTVSPost2010PropOp53
 70
     0
102
RTVSPost2010Prop54
  1
strokes_ogs.tif
102
RTVSPost2010PropOp54
 70
     0
102
RTVSPost2010Prop55
280
     0
102
RTVSPost2010PropOp55
 70
     0
102
RTVSPost2010Prop56
140
1.0
102
RTVSPost2010PropOp56
 70
     0
102
RTVSPost2010Prop57
140
1.0
102
RTVSPost2010PropOp57
 70
     0
  0
XRECORD
  5
4CD
102
{ACAD_REACTORS
330
4CC
102
}
330
4CC
100
AcDbXrecord
280
     1
102
RTVSPost2010Prop28
280
     0
102
RTVSPost2010PropOp28
 70
     1
102
RTVSPost2010Prop29
280
     1
102
RTVSPost2010PropOp29
 70
     1
102
RTVSPost2010Prop30
280
     1
102
RTVSPost2010PropOp30
 70
     1
102
RTVSPost2010Prop31
280
     0
102
RTVSPost2010PropOp31
 70
     1
102
RTVSPost2010Prop32
280
     0
102
RTVSPost2010PropOp32
 70
     1
102
RTVSPost2010Prop33
280
     0
102
RTVSPost2010PropOp33
 70
     1
102
RTVSPost2010Prop34
280
     0
102
RTVSPost2010PropOp34
 70
     1
102
RTVSPost2010Prop35
280
     0
102
RTVSPost2010PropOp35
 70
     1
102
RTVSPost2010Prop36
280
     0
102
RTVSPost2010PropOp36
 70
     1
102
RTVSPost2010Prop37
 90
       50
102
RTVSPost2010PropOp37
 70
     1
102
RTVSPost2010Prop38
140
0.0
102
RTVSPost2010PropOp38
 70
     1
102
RTVSPost2010Prop39
140
1.0
102
RTVSPost2010PropOp39
 70
     1
102
RTVSPost2010Prop40
 90
        0
102
RTVSPost2010PropOp40
 70
     1
102
RTVSPost2010Prop41ColorIndex
 90
       18
102
RTVSPost2010Prop41ColorRGB
 90
        0
102
RTVSPost2010PropOp41
 70
     1
102
RTVSPost2010Prop42
 90
       50
102
RTVSPost2010PropOp42
 70
     1
102
RTVSPost2010Prop43
 90
        3
102
RTVSPost2010PropOp43
 70
     1
102
RTVSPost2010Prop44ColorIndex
 90
        5
102
RTVSPost2010Prop44ColorRGB
 90
      255
102
RTVSPost2010PropOp44
 70
     1
102
RTVSPost2010Prop45
280
     0
102
RTVSPost2010PropOp45
 70
     1
102
RTVSPost2010Prop46
 90
       50
102
RTVSPost2010PropOp46
 70
     1
102
RTVSPost2010Prop47
 90
       50
102
RTVSPost2010PropOp47
 70
     1
102
RTVSPost2010Prop48
 90
       50
102
RTVSPost2010PropOp48
 70
     1
102
RTVSPost2010Prop49
280
     0
102
RTVSPost2010PropOp49
 70
     1
102
RTVSPost2010Prop50
 90
       50
102
RTVSPost2010PropOp50
 70
     1
102
RTVSPost2010Prop51ColorIndex
 90
      256
102
RTVSPost2010Prop51ColorRGB
 90
-16777216
102
RTVSPost2010PropOp51
 70
     0
102
RTVSPost2010Prop52
140
1.0
102
RTVSPost2010PropOp52
 70
     0
102
RTVSPost2010Prop53
 90
        2
102
RTVSPost2010PropOp53
 70
     1
102
RTVSPost2010Prop54
  1
strokes_ogs.tif
102
RTVSPost2010PropOp54
 70
     1
102
RTVSPost2010Prop55
280
     0
102
RTVSPost2010PropOp55
 70
     1
102
RTVSPost2010Prop56
140
1.0
102
RTVSPost2010PropOp56
 70
     1
102
RTVSPost2010Prop57
140
1.0
102
RTVSPost2010PropOp57
 70
     1
  0
XRECORD
  5
4EB
102
{ACAD_REACTORS
330
4EA
102
}
330
4EA
100
AcDbXrecord
280
     1
102
RTVSPost2010Prop28
280
     0
102
RTVSPost2010PropOp28
 70
     1
102
RTVSPost2010Prop29
280
     1
102
RTVSPost2010PropOp29
 70
     1
102
RTVSPost2010Prop30
280
     1
102
RTVSPost2010PropOp30
 70
     1
102
RTVSPost2010Prop31
280
     0
102
RTVSPost2010PropOp31
 70
     1
102
RTVSPost2010Prop32
280
     0
102
RTVSPost2010PropOp32
 70
     1
102
RTVSPost2010Prop33
280
     0
102
RTVSPost2010PropOp33
 70
     1
102
RTVSPost2010Prop34
280
     0
102
RTVSPost2010PropOp34
 70
     1
102
RTVSPost2010Prop35
280
     0
102
RTVSPost2010PropOp35
 70
     1
102
RTVSPost2010Prop36
280
     0
102
RTVSPost2010PropOp36
 70
     1
102
RTVSPost2010Prop37
 90
       50
102
RTVSPost2010PropOp37
 70
     1
102
RTVSPost2010Prop38
140
0.0
102
RTVSPost2010PropOp38
 70
     1
102
RTVSPost2010Prop39
140
1.0
102
RTVSPost2010PropOp39
 70
     1
102
RTVSPost2010Prop40
 90
        0
102
RTVSPost2010PropOp40
 70
     1
102
RTVSPost2010Prop41ColorIndex
 90
       18
102
RTVSPost2010Prop41ColorRGB
 90
        0
102
RTVSPost2010PropOp41
 70
     1
102
RTVSPost2010Prop42
 90
       50
102
RTVSPost2010PropOp42
 70
     1
102
RTVSPost2010Prop43
 90
        3
102
RTVSPost2010PropOp43
 70
     1
102
RTVSPost2010Prop44ColorIndex
 90
        5
102
RTVSPost2010Prop44ColorRGB
 90
      255
102
RTVSPost2010PropOp44
 70
     1
102
RTVSPost2010Prop45
280
     0
102
RTVSPost2010PropOp45
 70
     1
102
RTVSPost2010Prop46
 90
       50
102
RTVSPost2010PropOp46
 70
     1
102
RTVSPost2010Prop47
 90
       50
102
RTVSPost2010PropOp47
 70
     1
102
RTVSPost2010Prop48
 90
       50
102
RTVSPost2010PropOp48
 70
     1
102
RTVSPost2010Prop49
280
     0
102
RTVSPost2010PropOp49
 70
     1
102
RTVSPost2010Prop50
 90
       50
102
RTVSPost2010PropOp50
 70
     1
102
RTVSPost2010Prop51ColorIndex
 90
      256
102
RTVSPost2010Prop51ColorRGB
 90
-16777216
102
RTVSPost2010PropOp51
 70
     0
102
RTVSPost2010Prop52
140
1.0
102
RTVSPost2010PropOp52
 70
     0
102
RTVSPost2010Prop53
 90
        2
102
RTVSPost2010PropOp53
 70
     1
102
RTVSPost2010Prop54
  1
strokes_ogs.tif
102
RTVSPost2010PropOp54
 70
     1
102
RTVSPost2010Prop55
280
     0
102
RTVSPost2010PropOp55
 70
     1
102
RTVSPost2010Prop56
140
1.0
102
RTVSPost2010PropOp56
 70
     1
102
RTVSPost2010Prop57
140
1.0
102
RTVSPost2010PropOp57
 70
     1
  0
XRECORD
  5
4E9
102
{ACAD_REACTORS
330
4E8
102
}
330
4E8
100
AcDbXrecord
280
     1
102
RTVSPost2010Prop28
280
     0
102
RTVSPost2010PropOp28
 70
     1
102
RTVSPost2010Prop29
280
     1
102
RTVSPost2010PropOp29
 70
     1
102
RTVSPost2010Prop30
280
     1
102
RTVSPost2010PropOp30
 70
     1
102
RTVSPost2010Prop31
280
     0
102
RTVSPost2010PropOp31
 70
     1
102
RTVSPost2010Prop32
280
     0
102
RTVSPost2010PropOp32
 70
     1
102
RTVSPost2010Prop33
280
     0
102
RTVSPost2010PropOp33
 70
     1
102
RTVSPost2010Prop34
280
     0
102
RTVSPost2010PropOp34
 70
     1
102
RTVSPost2010Prop35
280
     0
102
RTVSPost2010PropOp35
 70
     1
102
RTVSPost2010Prop36
280
     0
102
RTVSPost2010PropOp36
 70
     1
102
RTVSPost2010Prop37
 90
       50
102
RTVSPost2010PropOp37
 70
     1
102
RTVSPost2010Prop38
140
0.0
102
RTVSPost2010PropOp38
 70
     1
102
RTVSPost2010Prop39
140
1.0
102
RTVSPost2010PropOp39
 70
     1
102
RTVSPost2010Prop40
 90
        0
102
RTVSPost2010PropOp40
 70
     1
102
RTVSPost2010Prop41ColorIndex
 90
       18
102
RTVSPost2010Prop41ColorRGB
 90
        0
102
RTVSPost2010PropOp41
 70
     1
102
RTVSPost2010Prop42
 90
       50
102
RTVSPost2010PropOp42
 70
     1
102
RTVSPost2010Prop43
 90
        3
102
RTVSPost2010PropOp43
 70
     1
102
RTVSPost2010Prop44ColorIndex
 90
        5
102
RTVSPost2010Prop44ColorRGB
 90
      255
102
RTVSPost2010PropOp44
 70
     1
102
RTVSPost2010Prop45
280
     0
102
RTVSPost2010PropOp45
 70
     1
102
RTVSPost2010Prop46
 90
       50
102
RTVSPost2010PropOp46
 70
     1
102
RTVSPost2010Prop47
 90
       50
102
RTVSPost2010PropOp47
 70
     1
102
RTVSPost2010Prop48
 90
       50
102
RTVSPost2010PropOp48
 70
     1
102
RTVSPost2010Prop49
280
     0
102
RTVSPost2010PropOp49
 70
     1
102
RTVSPost2010Prop50
 90
       50
102
RTVSPost2010PropOp50
 70
     1
102
RTVSPost2010Prop51ColorIndex
 90
      256
102
RTVSPost2010Prop51ColorRGB
 90
-16777216
102
RTVSPost2010PropOp51
 70
     0
102
RTVSPost2010Prop52
140
1.0
102
RTVSPost2010PropOp52
 70
     0
102
RTVSPost2010Prop53
 90
        2
102
RTVSPost2010PropOp53
 70
     1
102
RTVSPost2010Prop54
  1
strokes_ogs.tif
102
RTVSPost2010PropOp54
 70
     1
102
RTVSPost2010Prop55
280
     0
102
RTVSPost2010PropOp55
 70
     1
102
RTVSPost2010Prop56
140
1.0
102
RTVSPost2010PropOp56
 70
     1
102
RTVSPost2010Prop57
140
1.0
102
RTVSPost2010PropOp57
 70
     1
  0
XRECORD
  5
4E3
102
{ACAD_REACTORS
330
4E2
102
}
330
4E2
100
AcDbXrecord
280
     1
102
RTVSPost2010Prop28
280
     0
102
RTVSPost2010PropOp28
 70
     1
102
RTVSPost2010Prop29
280
     1
102
RTVSPost2010PropOp29
 70
     1
102
RTVSPost2010Prop30
280
     1
102
RTVSPost2010PropOp30
 70
     1
102
RTVSPost2010Prop31
280
     0
102
RTVSPost2010PropOp31
 70
     1
102
RTVSPost2010Prop32
280
     0
102
RTVSPost2010PropOp32
 70
     1
102
RTVSPost2010Prop33
280
     0
102
RTVSPost2010PropOp33
 70
     1
102
RTVSPost2010Prop34
280
     0
102
RTVSPost2010PropOp34
 70
     1
102
RTVSPost2010Prop35
280
     0
102
RTVSPost2010PropOp35
 70
     1
102
RTVSPost2010Prop36
280
     0
102
RTVSPost2010PropOp36
 70
     1
102
RTVSPost2010Prop37
 90
       50
102
RTVSPost2010PropOp37
 70
     1
102
RTVSPost2010Prop38
140
0.0
102
RTVSPost2010PropOp38
 70
     1
102
RTVSPost2010Prop39
140
1.0
102
RTVSPost2010PropOp39
 70
     1
102
RTVSPost2010Prop40
 90
        0
102
RTVSPost2010PropOp40
 70
     1
102
RTVSPost2010Prop41ColorIndex
 90
       18
102
RTVSPost2010Prop41ColorRGB
 90
        0
102
RTVSPost2010PropOp41
 70
     1
102
RTVSPost2010Prop42
 90
       50
102
RTVSPost2010PropOp42
 70
     1
102
RTVSPost2010Prop43
 90
        3
102
RTVSPost2010PropOp43
 70
     1
102
RTVSPost2010Prop44ColorIndex
 90
        5
102
RTVSPost2010Prop44ColorRGB
 90
      255
102
RTVSPost2010PropOp44
 70
     1
102
RTVSPost2010Prop45
280
     0
102
RTVSPost2010PropOp45
 70
     1
102
RTVSPost2010Prop46
 90
       50
102
RTVSPost2010PropOp46
 70
     1
102
RTVSPost2010Prop47
 90
       50
102
RTVSPost2010PropOp47
 70
     1
102
RTVSPost2010Prop48
 90
       50
102
RTVSPost2010PropOp48
 70
     1
102
RTVSPost2010Prop49
280
     0
102
RTVSPost2010PropOp49
 70
     1
102
RTVSPost2010Prop50
 90
       50
102
RTVSPost2010PropOp50
 70
     1
102
RTVSPost2010Prop51ColorIndex
 90
      256
102
RTVSPost2010Prop51ColorRGB
 90
-16777216
102
RTVSPost2010PropOp51
 70
     0
102
RTVSPost2010Prop52
140
1.0
102
RTVSPost2010PropOp52
 70
     0
102
RTVSPost2010Prop53
 90
        2
102
RTVSPost2010PropOp53
 70
     1
102
RTVSPost2010Prop54
  1
strokes_ogs.tif
102
RTVSPost2010PropOp54
 70
     1
102
RTVSPost2010Prop55
280
     0
102
RTVSPost2010PropOp55
 70
     1
102
RTVSPost2010Prop56
140
1.0
102
RTVSPost2010PropOp56
 70
     1
102
RTVSPost2010Prop57
140
1.0
102
RTVSPost2010PropOp57
 70
     1
  0
XRECORD
  5
4E5
102
{ACAD_REACTORS
330
4E4
102
}
330
4E4
100
AcDbXrecord
280
     1
102
RTVSPost2010Prop28
280
     0
102
RTVSPost2010PropOp28
 70
     1
102
RTVSPost2010Prop29
280
     1
102
RTVSPost2010PropOp29
 70
     1
102
RTVSPost2010Prop30
280
     1
102
RTVSPost2010PropOp30
 70
     1
102
RTVSPost2010Prop31
280
     0
102
RTVSPost2010PropOp31
 70
     1
102
RTVSPost2010Prop32
280
     0
102
RTVSPost2010PropOp32
 70
     1
102
RTVSPost2010Prop33
280
     0
102
RTVSPost2010PropOp33
 70
     1
102
RTVSPost2010Prop34
280
     0
102
RTVSPost2010PropOp34
 70
     1
102
RTVSPost2010Prop35
280
     0
102
RTVSPost2010PropOp35
 70
     1
102
RTVSPost2010Prop36
280
     0
102
RTVSPost2010PropOp36
 70
     1
102
RTVSPost2010Prop37
 90
       50
102
RTVSPost2010PropOp37
 70
     1
102
RTVSPost2010Prop38
140
0.0
102
RTVSPost2010PropOp38
 70
     1
102
RTVSPost2010Prop39
140
1.0
102
RTVSPost2010PropOp39
 70
     1
102
RTVSPost2010Prop40
 90
        0
102
RTVSPost2010PropOp40
 70
     1
102
RTVSPost2010Prop41ColorIndex
 90
       18
102
RTVSPost2010Prop41ColorRGB
 90
        0
102
RTVSPost2010PropOp41
 70
     1
102
RTVSPost2010Prop42
 90
       50
102
RTVSPost2010PropOp42
 70
     1
102
RTVSPost2010Prop43
 90
        3
102
RTVSPost2010PropOp43
 70
     1
102
RTVSPost2010Prop44ColorIndex
 90
        5
102
RTVSPost2010Prop44ColorRGB
 90
      255
102
RTVSPost2010PropOp44
 70
     1
102
RTVSPost2010Prop45
280
     0
102
RTVSPost2010PropOp45
 70
     1
102
RTVSPost2010Prop46
 90
       50
102
RTVSPost2010PropOp46
 70
     1
102
RTVSPost2010Prop47
 90
       50
102
RTVSPost2010PropOp47
 70
     1
102
RTVSPost2010Prop48
 90
       50
102
RTVSPost2010PropOp48
 70
     1
102
RTVSPost2010Prop49
280
     0
102
RTVSPost2010PropOp49
 70
     1
102
RTVSPost2010Prop50
 90
       50
102
RTVSPost2010PropOp50
 70
     1
102
RTVSPost2010Prop51ColorIndex
 90
      256
102
RTVSPost2010Prop51ColorRGB
 90
-16777216
102
RTVSPost2010PropOp51
 70
     0
102
RTVSPost2010Prop52
140
1.0
102
RTVSPost2010PropOp52
 70
     0
102
RTVSPost2010Prop53
 90
        2
102
RTVSPost2010PropOp53
 70
     1
102
RTVSPost2010Prop54
  1
strokes_ogs.tif
102
RTVSPost2010PropOp54
 70
     1
102
RTVSPost2010Prop55
280
     0
102
RTVSPost2010PropOp55
 70
     1
102
RTVSPost2010Prop56
140
1.0
102
RTVSPost2010PropOp56
 70
     1
102
RTVSPost2010Prop57
140
1.0
102
RTVSPost2010PropOp57
 70
     1
  0
XRECORD
  5
4D5
102
{ACAD_REACTORS
330
4D4
102
}
330
4D4
100
AcDbXrecord
280
     1
102
RTVSPost2010Prop28
280
     0
102
RTVSPost2010PropOp28
 70
     1
102
RTVSPost2010Prop29
280
     1
102
RTVSPost2010PropOp29
 70
     1
102
RTVSPost2010Prop30
280
     1
102
RTVSPost2010PropOp30
 70
     1
102
RTVSPost2010Prop31
280
     0
102
RTVSPost2010PropOp31
 70
     1
102
RTVSPost2010Prop32
280
     0
102
RTVSPost2010PropOp32
 70
     1
102
RTVSPost2010Prop33
280
     0
102
RTVSPost2010PropOp33
 70
     1
102
RTVSPost2010Prop34
280
     0
102
RTVSPost2010PropOp34
 70
     1
102
RTVSPost2010Prop35
280
     0
102
RTVSPost2010PropOp35
 70
     1
102
RTVSPost2010Prop36
280
     0
102
RTVSPost2010PropOp36
 70
     1
102
RTVSPost2010Prop37
 90
       50
102
RTVSPost2010PropOp37
 70
     1
102
RTVSPost2010Prop38
140
0.0
102
RTVSPost2010PropOp38
 70
     1
102
RTVSPost2010Prop39
140
1.0
102
RTVSPost2010PropOp39
 70
     1
102
RTVSPost2010Prop40
 90
        0
102
RTVSPost2010PropOp40
 70
     1
102
RTVSPost2010Prop41ColorIndex
 90
       18
102
RTVSPost2010Prop41ColorRGB
 90
        0
102
RTVSPost2010PropOp41
 70
     1
102
RTVSPost2010Prop42
 90
       50
102
RTVSPost2010PropOp42
 70
     1
102
RTVSPost2010Prop43
 90
        3
102
RTVSPost2010PropOp43
 70
     1
102
RTVSPost2010Prop44ColorIndex
 90
        5
102
RTVSPost2010Prop44ColorRGB
 90
      255
102
RTVSPost2010PropOp44
 70
     1
102
RTVSPost2010Prop45
280
     0
102
RTVSPost2010PropOp45
 70
     1
102
RTVSPost2010Prop46
 90
       50
102
RTVSPost2010PropOp46
 70
     1
102
RTVSPost2010Prop47
 90
       50
102
RTVSPost2010PropOp47
 70
     1
102
RTVSPost2010Prop48
 90
       50
102
RTVSPost2010PropOp48
 70
     1
102
RTVSPost2010Prop49
280
     0
102
RTVSPost2010PropOp49
 70
     1
102
RTVSPost2010Prop50
 90
       50
102
RTVSPost2010PropOp50
 70
     1
102
RTVSPost2010Prop51ColorIndex
 90
      256
102
RTVSPost2010Prop51ColorRGB
 90
-16777216
102
RTVSPost2010PropOp51
 70
     0
102
RTVSPost2010Prop52
140
1.0
102
RTVSPost2010PropOp52
 70
     0
102
RTVSPost2010Prop53
 90
        2
102
RTVSPost2010PropOp53
 70
     1
102
RTVSPost2010Prop54
  1
strokes_ogs.tif
102
RTVSPost2010PropOp54
 70
     1
102
RTVSPost2010Prop55
280
     0
102
RTVSPost2010PropOp55
 70
     1
102
RTVSPost2010Prop56
140
1.0
102
RTVSPost2010PropOp56
 70
     1
102
RTVSPost2010Prop57
140
1.0
102
RTVSPost2010PropOp57
 70
     1
  0
XRECORD
  5
4C7
102
{ACAD_REACTORS
330
4C6
102
}
330
4C6
100
AcDbXrecord
280
     1
102
RTVSPost2010Prop28
280
     0
102
RTVSPost2010PropOp28
 70
     1
102
RTVSPost2010Prop29
280
     1
102
RTVSPost2010PropOp29
 70
     1
102
RTVSPost2010Prop30
280
     1
102
RTVSPost2010PropOp30
 70
     1
102
RTVSPost2010Prop31
280
     0
102
RTVSPost2010PropOp31
 70
     1
102
RTVSPost2010Prop32
280
     0
102
RTVSPost2010PropOp32
 70
     1
102
RTVSPost2010Prop33
280
     0
102
RTVSPost2010PropOp33
 70
     1
102
RTVSPost2010Prop34
280
     0
102
RTVSPost2010PropOp34
 70
     1
102
RTVSPost2010Prop35
280
     0
102
RTVSPost2010PropOp35
 70
     1
102
RTVSPost2010Prop36
280
     0
102
RTVSPost2010PropOp36
 70
     1
102
RTVSPost2010Prop37
 90
       50
102
RTVSPost2010PropOp37
 70
     1
102
RTVSPost2010Prop38
140
0.0
102
RTVSPost2010PropOp38
 70
     1
102
RTVSPost2010Prop39
140
1.0
102
RTVSPost2010PropOp39
 70
     1
102
RTVSPost2010Prop40
 90
        0
102
RTVSPost2010PropOp40
 70
     1
102
RTVSPost2010Prop41ColorIndex
 90
       18
102
RTVSPost2010Prop41ColorRGB
 90
        0
102
RTVSPost2010PropOp41
 70
     1
102
RTVSPost2010Prop42
 90
       50
102
RTVSPost2010PropOp42
 70
     1
102
RTVSPost2010Prop43
 90
        3
102
RTVSPost2010PropOp43
 70
     1
102
RTVSPost2010Prop44ColorIndex
 90
        5
102
RTVSPost2010Prop44ColorRGB
 90
      255
102
RTVSPost2010PropOp44
 70
     1
102
RTVSPost2010Prop45
280
     0
102
RTVSPost2010PropOp45
 70
     1
102
RTVSPost2010Prop46
 90
       50
102
RTVSPost2010PropOp46
 70
     1
102
RTVSPost2010Prop47
 90
       50
102
RTVSPost2010PropOp47
 70
     1
102
RTVSPost2010Prop48
 90
       50
102
RTVSPost2010PropOp48
 70
     1
102
RTVSPost2010Prop49
280
     0
102
RTVSPost2010PropOp49
 70
     1
102
RTVSPost2010Prop50
 90
       50
102
RTVSPost2010PropOp50
 70
     1
102
RTVSPost2010Prop51ColorIndex
 90
      256
102
RTVSPost2010Prop51ColorRGB
 90
-16777216
102
RTVSPost2010PropOp51
 70
     0
102
RTVSPost2010Prop52
140
1.0
102
RTVSPost2010PropOp52
 70
     0
102
RTVSPost2010Prop53
 90
        2
102
RTVSPost2010PropOp53
 70
     1
102
RTVSPost2010Prop54
  1
strokes_ogs.tif
102
RTVSPost2010PropOp54
 70
     1
102
RTVSPost2010Prop55
280
     0
102
RTVSPost2010PropOp55
 70
     1
102
RTVSPost2010Prop56
140
1.0
102
RTVSPost2010PropOp56
 70
     1
102
RTVSPost2010Prop57
140
1.0
102
RTVSPost2010PropOp57
 70
     1
  0
XRECORD
  5
4E7
102
{ACAD_REACTORS
330
4E6
102
}
330
4E6
100
AcDbXrecord
280
     1
102
RTVSPost2010Prop28
280
     0
102
RTVSPost2010PropOp28
 70
     1
102
RTVSPost2010Prop29
280
     1
102
RTVSPost2010PropOp29
 70
     1
102
RTVSPost2010Prop30
280
     1
102
RTVSPost2010PropOp30
 70
     1
102
RTVSPost2010Prop31
280
     0
102
RTVSPost2010PropOp31
 70
     1
102
RTVSPost2010Prop32
280
     0
102
RTVSPost2010PropOp32
 70
     1
102
RTVSPost2010Prop33
280
     0
102
RTVSPost2010PropOp33
 70
     1
102
RTVSPost2010Prop34
280
     0
102
RTVSPost2010PropOp34
 70
     1
102
RTVSPost2010Prop35
280
     0
102
RTVSPost2010PropOp35
 70
     1
102
RTVSPost2010Prop36
280
     0
102
RTVSPost2010PropOp36
 70
     1
102
RTVSPost2010Prop37
 90
       50
102
RTVSPost2010PropOp37
 70
     1
102
RTVSPost2010Prop38
140
0.0
102
RTVSPost2010PropOp38
 70
     1
102
RTVSPost2010Prop39
140
1.0
102
RTVSPost2010PropOp39
 70
     1
102
RTVSPost2010Prop40
 90
        0
102
RTVSPost2010PropOp40
 70
     1
102
RTVSPost2010Prop41ColorIndex
 90
       18
102
RTVSPost2010Prop41ColorRGB
 90
        0
102
RTVSPost2010PropOp41
 70
     1
102
RTVSPost2010Prop42
 90
       50
102
RTVSPost2010PropOp42
 70
     1
102
RTVSPost2010Prop43
 90
        3
102
RTVSPost2010PropOp43
 70
     1
102
RTVSPost2010Prop44ColorIndex
 90
        5
102
RTVSPost2010Prop44ColorRGB
 90
      255
102
RTVSPost2010PropOp44
 70
     1
102
RTVSPost2010Prop45
280
     0
102
RTVSPost2010PropOp45
 70
     1
102
RTVSPost2010Prop46
 90
       50
102
RTVSPost2010PropOp46
 70
     1
102
RTVSPost2010Prop47
 90
       50
102
RTVSPost2010PropOp47
 70
     1
102
RTVSPost2010Prop48
 90
       50
102
RTVSPost2010PropOp48
 70
     1
102
RTVSPost2010Prop49
280
     0
102
RTVSPost2010PropOp49
 70
     1
102
RTVSPost2010Prop50
 90
       50
102
RTVSPost2010PropOp50
 70
     1
102
RTVSPost2010Prop51ColorIndex
 90
      256
102
RTVSPost2010Prop51ColorRGB
 90
-16777216
102
RTVSPost2010PropOp51
 70
     0
102
RTVSPost2010Prop52
140
1.0
102
RTVSPost2010PropOp52
 70
     0
102
RTVSPost2010Prop53
 90
        2
102
RTVSPost2010PropOp53
 70
     1
102
RTVSPost2010Prop54
  1
strokes_ogs.tif
102
RTVSPost2010PropOp54
 70
     1
102
RTVSPost2010Prop55
280
     0
102
RTVSPost2010PropOp55
 70
     1
102
RTVSPost2010Prop56
140
1.0
102
RTVSPost2010PropOp56
 70
     1
102
RTVSPost2010Prop57
140
1.0
102
RTVSPost2010PropOp57
 70
     1
  0
ENDSEC
  0
EOF
