  0
SECTION
  2
HEADER
  9
$ACADVER
  1
AC1021
  9
$ACADMAINTVER
 70
     1
  9
$DWGCODEPAGE
  3
ANSI_1252
  9
$INSBASE
 10
0.0
 20
0.0
 30
0.0
  9
$EXTMIN
 10
-74.08064470022491
 20
-27.26714369667599
 30
0.0
  9
$EXTMAX
 10
0.7487664402744372
 20
33.4853550702388
 30
0.0
  9
$LIMMIN
 10
0.0
 20
0.0
  9
$LIMMAX
 10
420.0
 20
297.0
  9
$ORTHOMODE
 70
     0
  9
$REGENMODE
 70
     1
  9
$FILLMODE
 70
     1
  9
$QTEXTMODE
 70
     0
  9
$MIRRTEXT
 70
     1
  9
$LTSCALE
 40
1.0
  9
$ATTMODE
 70
     1
  9
$TEXTSIZE
 40
1.0
  9
$TRACEWID
 40
1.0
  9
$TEXTSTYLE
  7
Standard
  9
$CLAYER
  8
0
  9
$CELTYPE
  6
ByLayer
  9
$CECOLOR
 62
   256
  9
$CELTSCALE
 40
1.0
  9
$DISPSILH
 70
     0
  9
$DIMSCALE
 40
1.0
  9
$DIMASZ
 40
2.5
  9
$DIMEXO
 40
0.625
  9
$DIMDLI
 40
3.75
  9
$DIMRND
 40
0.0
  9
$DIMDLE
 40
0.0
  9
$DIMEXE
 40
1.25
  9
$DIMTP
 40
0.0
  9
$DIMTM
 40
0.0
  9
$DIMTXT
 40
2.5
  9
$DIMCEN
 40
2.5
  9
$DIMTSZ
 40
0.0
  9
$DIMTOL
 70
     0
  9
$DIMLIM
 70
     0
  9
$DIMTIH
 70
     0
  9
$DIMTOH
 70
     0
  9
$DIMSE1
 70
     0
  9
$DIMSE2
 70
     0
  9
$DIMTAD
 70
     1
  9
$DIMZIN
 70
     8
  9
$DIMBLK
  1

  9
$DIMASO
 70
     1
  9
$DIMSHO
 70
     1
  9
$DIMPOST
  1

  9
$DIMAPOST
  1

  9
$DIMALT
 70
     0
  9
$DIMALTD
 70
     3
  9
$DIMALTF
 40
0.03937007874016
  9
$DIMLFAC
 40
1.0
  9
$DIMTOFL
 70
     1
  9
$DIMTVP
 40
0.0
  9
$DIMTIX
 70
     0
  9
$DIMSOXD
 70
     0
  9
$DIMSAH
 70
     0
  9
$DIMBLK1
  1

  9
$DIMBLK2
  1

  9
$DIMSTYLE
  2
ISO-25
  9
$DIMCLRD
 70
     0
  9
$DIMCLRE
 70
     0
  9
$DIMCLRT
 70
     0
  9
$DIMTFAC
 40
1.0
  9
$DIMGAP
 40
0.625
  9
$DIMJUST
 70
     0
  9
$DIMSD1
 70
     0
  9
$DIMSD2
 70
     0
  9
$DIMTOLJ
 70
     0
  9
$DIMTZIN
 70
     8
  9
$DIMALTZ
 70
     0
  9
$DIMALTTZ
 70
     0
  9
$DIMUPT
 70
     0
  9
$DIMDEC
 70
     2
  9
$DIMTDEC
 70
     2
  9
$DIMALTU
 70
     2
  9
$DIMALTTD
 70
     3
  9
$DIMTXSTY
  7
Standard
  9
$DIMAUNIT
 70
     0
  9
$DIMADEC
 70
     0
  9
$DIMALTRND
 40
0.0
  9
$DIMAZIN
 70
     0
  9
$DIMDSEP
 70
    44
  9
$DIMATFIT
 70
     3
  9
$DIMFRAC
 70
     0
  9
$DIMLDRBLK
  1

  9
$DIMLUNIT
 70
     2
  9
$DIMLWD
 70
    -2
  9
$DIMLWE
 70
    -2
  9
$DIMTMOVE
 70
     0
  9
$DIMFXL
 40
1.0
  9
$DIMFXLON
 70
     0
  9
$DIMJOGANG
 40
0.7853981633974483
  9
$DIMTFILL
 70
     0
  9
$DIMTFILLCLR
 70
     0
  9
$DIMARCSYM
 70
     0
  9
$DIMLTYPE
  6

  9
$DIMLTEX1
  6

  9
$DIMLTEX2
  6

  9
$LUNITS
 70
     2
  9
$LUPREC
 70
     4
  9
$SKETCHINC
 40
1.0
  9
$FILLETRAD
 40
10.0
  9
$AUNITS
 70
     0
  9
$AUPREC
 70
     0
  9
$MENU
  1
.
  9
$ELEVATION
 40
0.0
  9
$PELEVATION
 40
0.0
  9
$THICKNESS
 40
0.0
  9
$LIMCHECK
 70
     0
  9
$CHAMFERA
 40
10.0
  9
$CHAMFERB
 40
10.0
  9
$CHAMFERC
 40
20.0
  9
$CHAMFERD
 40
0.0
  9
$SKPOLY
 70
     0
  9
$TDCREATE
 40
2456456.703893078
  9
$TDUCREATE
 40
2456456.662226412
  9
$TDUPDATE
 40
2456456.70389309
  9
$TDUUPDATE
 40
2456456.662226424
  9
$TDINDWG
 40
0.0000000116
  9
$TDUSRTIMER
 40
0.0000000116
  9
$USRTIMER
 70
     1
  9
$ANGBASE
 50
0.0
  9
$ANGDIR
 70
     0
  9
$PDMODE
 70
     0
  9
$PDSIZE
 40
0.0
  9
$PLINEWID
 40
0.0
  9
$SPLFRAME
 70
     0
  9
$SPLINETYPE
 70
     6
  9
$SPLINESEGS
 70
     8
  9
$HANDSEED
  5
235
  9
$SURFTAB1
 70
     6
  9
$SURFTAB2
 70
     6
  9
$SURFTYPE
 70
     6
  9
$SURFU
 70
     6
  9
$SURFV
 70
     6
  9
$UCSBASE
  2

  9
$UCSNAME
  2

  9
$UCSORG
 10
0.0
 20
0.0
 30
0.0
  9
$UCSXDIR
 10
1.0
 20
0.0
 30
0.0
  9
$UCSYDIR
 10
0.0
 20
1.0
 30
0.0
  9
$UCSORTHOREF
  2

  9
$UCSORTHOVIEW
 70
     0
  9
$UCSORGTOP
 10
0.0
 20
0.0
 30
0.0
  9
$UCSORGBOTTOM
 10
0.0
 20
0.0
 30
0.0
  9
$UCSORGLEFT
 10
0.0
 20
0.0
 30
0.0
  9
$UCSORGRIGHT
 10
0.0
 20
0.0
 30
0.0
  9
$UCSORGFRONT
 10
0.0
 20
0.0
 30
0.0
  9
$UCSORGBACK
 10
0.0
 20
0.0
 30
0.0
  9
$PUCSBASE
  2

  9
$PUCSNAME
  2

  9
$PUCSORG
 10
0.0
 20
0.0
 30
0.0
  9
$PUCSXDIR
 10
1.0
 20
0.0
 30
0.0
  9
$PUCSYDIR
 10
0.0
 20
1.0
 30
0.0
  9
$PUCSORTHOREF
  2

  9
$PUCSORTHOVIEW
 70
     0
  9
$PUCSORGTOP
 10
0.0
 20
0.0
 30
0.0
  9
$PUCSORGBOTTOM
 10
0.0
 20
0.0
 30
0.0
  9
$PUCSORGLEFT
 10
0.0
 20
0.0
 30
0.0
  9
$PUCSORGRIGHT
 10
0.0
 20
0.0
 30
0.0
  9
$PUCSORGFRONT
 10
0.0
 20
0.0
 30
0.0
  9
$PUCSORGBACK
 10
0.0
 20
0.0
 30
0.0
  9
$USERI1
 70
     0
  9
$USERI2
 70
     0
  9
$USERI3
 70
     0
  9
$USERI4
 70
     0
  9
$USERI5
 70
     0
  9
$USERR1
 40
0.0
  9
$USERR2
 40
0.0
  9
$USERR3
 40
0.0
  9
$USERR4
 40
0.0
  9
$USERR5
 40
0.0
  9
$WORLDVIEW
 70
     1
  9
$SHADEDGE
 70
     3
  9
$SHADEDIF
 70
    70
  9
$TILEMODE
 70
     1
  9
$MAXACTVP
 70
    64
  9
$PINSBASE
 10
0.0
 20
0.0
 30
0.0
  9
$PLIMCHECK
 70
     0
  9
$PEXTMIN
 10
1.000000000000000E+20
 20
1.000000000000000E+20
 30
1.000000000000000E+20
  9
$PEXTMAX
 10
-1.000000000000000E+20
 20
-1.000000000000000E+20
 30
-1.000000000000000E+20
  9
$PLIMMIN
 10
0.0
 20
0.0
  9
$PLIMMAX
 10
420.0
 20
297.0
  9
$UNITMODE
 70
     0
  9
$VISRETAIN
 70
     1
  9
$PLINEGEN
 70
     0
  9
$PSLTSCALE
 70
     1
  9
$TREEDEPTH
 70
  3020
  9
$CMLSTYLE
  2
Standard
  9
$CMLJUST
 70
     0
  9
$CMLSCALE
 40
20.0
  9
$PROXYGRAPHICS
 70
     1
  9
$MEASUREMENT
 70
     1
  9
$CELWEIGHT
370
    -1
  9
$ENDCAPS
280
     0
  9
$JOINSTYLE
280
     0
  9
$LWDISPLAY
290
     0
  9
$INSUNITS
 70
     4
  9
$HYPERLINKBASE
  1

  9
$STYLESHEET
  1

  9
$XEDIT
290
     1
  9
$CEPSNTYPE
380
     0
  9
$PSTYLEMODE
290
     1
  9
$FINGERPRINTGUID
  2
{F79D2172-DF5C-4D3B-B936-63E9E6F0AAAB}
  9
$VERSIONGUID
  2
{FAEB1C32-E019-11D5-929B-00C0DF256EC4}
  9
$EXTNAMES
290
     1
  9
$PSVPSCALE
 40
0.0
  9
$OLESTARTUP
290
     0
  9
$SORTENTS
280
   127
  9
$INDEXCTL
280
     0
  9
$HIDETEXT
280
     1
  9
$XCLIPFRAME
290
     0
  9
$HALOGAP
280
     0
  9
$OBSCOLOR
 70
   257
  9
$OBSLTYPE
280
     0
  9
$INTERSECTIONDISPLAY
280
     0
  9
$INTERSECTIONCOLOR
 70
   257
  9
$DIMASSOC
280
     2
  9
$PROJECTNAME
  1

  9
$CAMERADISPLAY
290
     0
  9
$LENSLENGTH
 40
50.0
  9
$CAMERAHEIGHT
 40
0.0
  9
$STEPSPERSEC
 40
2.0
  9
$STEPSIZE
 40
6.0
  9
$3DDWFPREC
 40
2.0
  9
$PSOLWIDTH
 40
5.0
  9
$PSOLHEIGHT
 40
80.0
  9
$LOFTANG1
 40
1.570796326794897
  9
$LOFTANG2
 40
1.570796326794897
  9
$LOFTMAG1
 40
0.0
  9
$LOFTMAG2
 40
0.0
  9
$LOFTPARAM
 70
     7
  9
$LOFTNORMALS
280
     1
  9
$LATITUDE
 40
37.795
  9
$LONGITUDE
 40
-122.394
  9
$NORTHDIRECTION
 40
0.0
  9
$TIMEZONE
 70
 -8000
  9
$LIGHTGLYPHDISPLAY
280
     1
  9
$TILEMODELIGHTSYNCH
280
     1
  9
$SOLIDHIST
280
     1
  9
$SHOWHIST
280
     1
  9
$DWFFRAME
280
     2
  9
$DGNFRAME
280
     2
  9
$REALWORLDSCALE
290
     1
  9
$INTERFERECOLOR
 62
   256
  9
$CSHADOW
280
     0
  9
$SHADOWPLANELOCATION
 40
0.0
  0
ENDSEC
  0
SECTION
  2
CLASSES
  0
CLASS
  1
ACDBDICTIONARYWDFLT
  2
AcDbDictionaryWithDefault
  3
ObjectDBX Classes
 90
        0
 91
        3
280
     0
281
     0
  0
CLASS
  1
VISUALSTYLE
  2
AcDbVisualStyle
  3
ObjectDBX Classes
 90
     4095
 91
        3
280
     0
281
     0
  0
ENDSEC
  0
SECTION
  2
TABLES
  0
TABLE
  2
VPORT
  5
8
330
0
100
AcDbSymbolTable
 70
     1
  0
VPORT
  5
29
330
8
100
AcDbSymbolTableRecord
100
AcDbViewportTableRecord
  2
*Active
 70
     0
 10
0.0
 20
0.0
 11
1.0
 21
1.0
 12
344.1869158878504
 22
148.5
 13
0.0
 23
0.0
 14
10.0
 24
10.0
 15
10.0
 25
10.0
 16
0.0
 26
0.0
 36
1.0
 17
0.0
 27
0.0
 37
0.0
 40
297.0
 41
1.972972972850329
 42
50.0
 43
0.0
 44
0.0
 50
0.0
 51
0.0
 71
     0
 72
   100
 73
     1
 74
     3
 75
     0
 76
     0
 77
     0
 78
     0
281
     0
 65
     1
110
0.0
120
0.0
130
0.0
111
1.0
121
0.0
131
0.0
112
0.0
122
1.0
132
0.0
 79
     0
146
0.0
 60
     3
 61
     5
292
     1
282
     1
141
0.0
142
0.0
 63
   256
  0
ENDTAB
  0
TABLE
  2
LTYPE
  5
5
330
0
100
AcDbSymbolTable
 70
     9
  0
LTYPE
  5
14
330
5
100
AcDbSymbolTableRecord
100
AcDbLinetypeTableRecord
  2
ByBlock
 70
     0
  3

 72
    65
 73
     0
 40
0.0
  0
LTYPE
  5
15
330
5
100
AcDbSymbolTableRecord
100
AcDbLinetypeTableRecord
  2
ByLayer
 70
     0
  3

 72
    65
 73
     0
 40
0.0
  0
LTYPE
  5
16
330
5
100
AcDbSymbolTableRecord
100
AcDbLinetypeTableRecord
  2
Continuous
 70
     0
  3
Solid line
 72
    65
 73
     0
 40
0.0
  0
LTYPE
  5
3B
330
5
100
AcDbSymbolTableRecord
100
AcDbLinetypeTableRecord
  2
DOT
 70
     0
  3
____    ____    
 72
    65
 73
     4
 40
16.0
 49
4.0
 74
     0
 49
-4.0
 74
     0
 49
4.0
 74
     0
 49
-4.0
 74
     0
  0
LTYPE
  5
3C
330
5
100
AcDbSymbolTableRecord
100
AcDbLinetypeTableRecord
  2
HIDDEN
 70
     0
  3
__  __  __  __  
 72
    65
 73
     8
 40
16.0
 49
2.0
 74
     0
 49
-2.0
 74
     0
 49
2.0
 74
     0
 49
-2.0
 74
     0
 49
2.0
 74
     0
 49
-2.0
 74
     0
 49
2.0
 74
     0
 49
-2.0
 74
     0
  0
LTYPE
  5
3D
330
5
100
AcDbSymbolTableRecord
100
AcDbLinetypeTableRecord
  2
DASHED
 70
     0
  3
________        
 72
    65
 73
     2
 40
16.0
 49
8.0
 74
     0
 49
-8.0
 74
     0
  0
LTYPE
  5
3E
330
5
100
AcDbSymbolTableRecord
100
AcDbLinetypeTableRecord
  2
DASHDOT
 70
     0
  3
____________    
 72
    65
 73
     2
 40
16.0
 49
12.0
 74
     0
 49
-4.0
 74
     0
  0
LTYPE
  5
3F
330
5
100
AcDbSymbolTableRecord
100
AcDbLinetypeTableRecord
  2
BORDER
 70
     0
  3
_____________ _ 
 72
    65
 73
     4
 40
16.0
 49
13.0
 74
     0
 49
-1.0
 74
     0
 49
1.0
 74
     0
 49
-1.0
 74
     0
  0
LTYPE
  5
40
330
5
100
AcDbSymbolTableRecord
100
AcDbLinetypeTableRecord
  2
CENTER
 70
     0
  3
_________  ___  
 72
    65
 73
     4
 40
16.0
 49
9.0
 74
     0
 49
-2.0
 74
     0
 49
3.0
 74
     0
 49
-2.0
 74
     0
  0
LTYPE
  5
41
330
5
100
AcDbSymbolTableRecord
100
AcDbLinetypeTableRecord
  2
PHANTOM
 70
     0
  3
_______   ___   
 72
    65
 73
     4
 40
16.0
 49
7.0
 74
     0
 49
-3.0
 74
     0
 49
3.0
 74
     0
 49
-3.0
 74
     0
  0
LTYPE
  5
42
330
5
100
AcDbSymbolTableRecord
100
AcDbLinetypeTableRecord
  2
DIVIDE
 70
     0
  3
_______  __ __  
 72
    65
 73
     6
 40
16.0
 49
7.0
 74
     0
 49
-2.0
 74
     0
 49
2.0
 74
     0
 49
-1.0
 74
     0
 49
2.0
 74
     0
 49
-2.0
 74
     0
  0
ENDTAB
  0
TABLE
  2
LAYER
  5
2
330
0
100
AcDbSymbolTable
 70
     3
  0
LAYER
  5
10
330
2
100
AcDbSymbolTableRecord
100
AcDbLayerTableRecord
  2
0
 70
     0
 62
     7
  6
Continuous
370
    -3
390
F
347
0
  0
LAYER
  5
6E
330
2
100
AcDbSymbolTableRecord
100
AcDbLayerTableRecord
  2
1
 70
     0
 62
     7
420
 16777215
  6
Continuous
370
    -3
390
F
347
0
  0
LAYER
  5
1F1
330
2
100
AcDbSymbolTableRecord
100
AcDbLayerTableRecord
  2
GEN_LAYER
 70
     0
 62
     7
420
 16777215
  6
Continuous
370
    -3
390
F
347
0
  0
ENDTAB
  0
TABLE
  2
STYLE
  5
3
330
0
100
AcDbSymbolTable
 70
     1
  0
STYLE
  5
11
330
3
100
AcDbSymbolTableRecord
100
AcDbTextStyleTableRecord
  2
Standard
 70
     0
 40
0.0
 41
1.0
 50
0.0
 71
     0
 42
2.5
  3
txt
  4

  0
ENDTAB
  0
TABLE
  2
VIEW
  5
6
330
0
100
AcDbSymbolTable
 70
     0
  0
ENDTAB
  0
TABLE
  2
UCS
  5
7
330
0
100
AcDbSymbolTable
 70
     0
  0
ENDTAB
  0
TABLE
  2
APPID
  5
9
330
0
100
AcDbSymbolTable
 70
     1
  0
APPID
  5
12
330
9
100
AcDbSymbolTableRecord
100
AcDbRegAppTableRecord
  2
ACAD
 70
     0
  0
ENDTAB
  0
TABLE
  2
DIMSTYLE
  5
A
330
0
100
AcDbSymbolTable
 70
     1
100
AcDbDimStyleTable
  0
DIMSTYLE
105
27
330
A
100
AcDbSymbolTableRecord
100
AcDbDimStyleTableRecord
  2
ISO-25
 70
     0
 41
2.5
 42
0.625
 43
3.75
 44
1.25
 73
     0
 74
     0
 77
     1
 78
     8
140
2.5
141
2.5
143
0.03937007874016
147
0.625
171
     3
172
     1
271
     2
272
     2
274
     3
278
    44
283
     0
284
     8
340
11
  0
ENDTAB
  0
TABLE
  2
BLOCK_RECORD
  5
1
330
0
100
AcDbSymbolTable
 70
     8
  0
BLOCK_RECORD
  5
1F
330
1
100
AcDbSymbolTableRecord
100
AcDbBlockTableRecord
  2
*Model_Space
340
22
 70
     0
280
     1
281
     0
  0
BLOCK_RECORD
  5
1B
330
1
100
AcDbSymbolTableRecord
100
AcDbBlockTableRecord
  2
*Paper_Space
340
1E
 70
     0
280
     1
281
     0
  0
BLOCK_RECORD
  5
23
330
1
100
AcDbSymbolTableRecord
100
AcDbBlockTableRecord
  2
*Paper_Space0
340
26
 70
     0
280
     1
281
     0
  0
BLOCK_RECORD
  5
43
330
1
100
AcDbSymbolTableRecord
100
AcDbBlockTableRecord
  2
GEN_BLOCK
340
0
102
{BLKREFS
331
46
102
}
 70
     0
280
     1
281
     0
  0
BLOCK_RECORD
  5
6F
330
1
100
AcDbSymbolTableRecord
100
AcDbBlockTableRecord
  2
GEN_BLOCK00000
340
0
102
{BLKREFS
331
72
102
}
 70
     0
280
     1
281
     0
  0
BLOCK_RECORD
  5
137
330
1
100
AcDbSymbolTableRecord
100
AcDbBlockTableRecord
  2
GEN_BLOCK00001
340
0
102
{BLKREFS
331
13A
102
}
 70
     0
280
     1
281
     0
  0
BLOCK_RECORD
  5
153
330
1
100
AcDbSymbolTableRecord
100
AcDbBlockTableRecord
  2
GEN_BLOCK00002
340
0
102
{BLKREFS
331
156
102
}
 70
     0
280
     1
281
     0
  0
BLOCK_RECORD
  5
1CD
330
1
100
AcDbSymbolTableRecord
100
AcDbBlockTableRecord
  2
GEN_BLOCK00003
340
0
102
{BLKREFS
331
1D0
102
}
 70
     0
280
     1
281
     0
  0
BLOCK_RECORD
  5
1F2
330
1
100
AcDbSymbolTableRecord
100
AcDbBlockTableRecord
  2
GEN_BLOCK00004
340
0
102
{BLKREFS
331
1F5
102
}
 70
     0
280
     1
281
     0
  0
BLOCK_RECORD
  5
20D
330
1
100
AcDbSymbolTableRecord
100
AcDbBlockTableRecord
  2
GEN_BLOCK00005
340
0
102
{BLKREFS
331
210
102
}
 70
     0
280
     1
281
     0
  0
ENDTAB
  0
ENDSEC
  0
SECTION
  2
BLOCKS
  0
BLOCK
  5
20
330
1F
100
AcDbEntity
  8
0
100
AcDbBlockBegin
  2
*Model_Space
 70
     0
 71
     0
 10
0.0
 20
0.0
 30
0.0
  3
*Model_Space
  1

  0
ENDBLK
  5
21
330
1F
100
AcDbEntity
  8
0
100
AcDbBlockEnd
  0
BLOCK
  5
1C
330
1B
100
AcDbEntity
 67
     1
  8
0
100
AcDbBlockBegin
  2
*Paper_Space
 70
     0
 71
     0
 10
0.0
 20
0.0
 30
0.0
  3
*Paper_Space
  1

  0
ENDBLK
  5
1D
330
1B
100
AcDbEntity
 67
     1
  8
0
100
AcDbBlockEnd
  0
BLOCK
  5
24
330
23
100
AcDbEntity
  8
0
100
AcDbBlockBegin
  2
*Paper_Space0
 70
     0
 71
     0
 10
0.0
 20
0.0
 30
0.0
  3
*Paper_Space0
  1

  0
ENDBLK
  5
25
330
23
100
AcDbEntity
  8
0
100
AcDbBlockEnd
  0
BLOCK
  5
44
330
43
100
AcDbEntity
  8
0
100
AcDbBlockBegin
  2
GEN_BLOCK
 70
     0
 71
     0
 10
0.0
 20
0.0
 30
0.0
  3
GEN_BLOCK
  1

  0
ARC
  5
47
330
43
100
AcDbEntity
  8
0
  6
Continuous
 62
     3
100
AcDbCircle
 10
5.731258561889728
 20
17.65223530007326
 30
0.0
 40
8.177165026246895
100
AcDbArc
 50
277.0209269307649
 51
298.8194993480197
  0
ARC
  5
48
330
43
100
AcDbEntity
  8
0
  6
Continuous
 62
     3
100
AcDbCircle
 10
4.625553616775068
 20
18.75561977178099
 30
0.0
 40
9.318469936955477
100
AcDbArc
 50
242.5288287345225
 51
261.630744986693
  0
ARC
  5
49
330
43
100
AcDbEntity
  8
0
  6
Continuous
 62
     3
100
AcDbCircle
 10
3.49999939433172
 20
10.25000058068905
 30
0.0
 40
0.75
100
AcDbArc
 50
252.0797868606149
 51
270.0
  0
ARC
  5
4A
330
43
100
AcDbEntity
  8
0
  6
Continuous
 62
     3
100
AcDbCircle
 10
3.49999939433172
 20
10.25000058068905
 30
0.0
 40
0.75
100
AcDbArc
 50
270.0
 51
0.0
  0
LINE
  5
4B
330
43
100
AcDbEntity
  8
0
  6
Continuous
 62
     3
100
AcDbLine
 10
4.249999394331716
 20
10.25000058068905
 30
0.0
 11
4.249999394331724
 21
11.30000058068905
 31
0.0
  0
ARC
  5
4C
330
43
100
AcDbEntity
  8
0
  6
Continuous
 62
     3
100
AcDbCircle
 10
3.849999394331721
 20
11.30000058068905
 30
0.0
 40
0.4
100
AcDbArc
 50
0.0
 51
90.0
  0
LINE
  5
4D
330
43
100
AcDbEntity
  8
0
  6
Continuous
 62
     3
100
AcDbLine
 10
3.849999394331718
 20
11.70000058068905
 30
0.0
 11
3.049999394331717
 21
11.70000058068905
 31
0.0
  0
ARC
  5
4E
330
43
100
AcDbEntity
  8
0
  6
Continuous
 62
     3
100
AcDbCircle
 10
3.049999394331714
 20
12.45000058068905
 30
0.0
 40
0.75
100
AcDbArc
 50
180.0
 51
270.0
  0
LINE
  5
4F
330
43
100
AcDbEntity
  8
0
  6
Continuous
 62
     3
100
AcDbLine
 10
2.299999394331717
 20
12.45000058068905
 30
0.0
 11
2.299999394331721
 21
12.85000058068904
 31
0.0
  0
ARC
  5
50
330
43
100
AcDbEntity
  8
0
  6
Continuous
 62
     3
100
AcDbCircle
 10
3.049999394331717
 20
12.85000058068905
 30
0.0
 40
0.75
100
AcDbArc
 50
90.0
 51
180.0
  0
LINE
  5
51
330
43
100
AcDbEntity
  8
0
  6
Continuous
 62
     3
100
AcDbLine
 10
3.049999394331717
 20
13.60000058068905
 30
0.0
 11
6.949999394331719
 21
13.60000058068904
 31
0.0
  0
ARC
  5
52
330
43
100
AcDbEntity
  8
0
  6
Continuous
 62
     3
100
AcDbCircle
 10
6.949999394331723
 20
12.85000058068905
 30
0.0
 40
0.75
100
AcDbArc
 50
0.0
 51
90.0
  0
ARC
  5
53
330
43
100
AcDbEntity
  8
0
  6
Continuous
 62
     3
100
AcDbCircle
 10
6.949999394331723
 20
12.85000058068905
 30
0.0
 40
0.75
100
AcDbArc
 50
0.0
 51
90.0
  0
LINE
  5
54
330
43
100
AcDbEntity
  8
0
  6
Continuous
 62
     3
100
AcDbLine
 10
7.699999394331721
 20
12.85000058068905
 30
0.0
 11
7.699999394331726
 21
12.45000058068905
 31
0.0
  0
ARC
  5
55
330
43
100
AcDbEntity
  8
0
  6
Continuous
 62
     3
100
AcDbCircle
 10
6.949999394331719
 20
12.45000058068905
 30
0.0
 40
0.75
100
AcDbArc
 50
270.0
 51
0.0
  0
LINE
  5
56
330
43
100
AcDbEntity
  8
0
  6
Continuous
 62
     3
100
AcDbLine
 10
6.949999394331723
 20
11.70000058068905
 30
0.0
 11
6.149999394331715
 21
11.70000058068905
 31
0.0
  0
ARC
  5
57
330
43
100
AcDbEntity
  8
0
  6
Continuous
 62
     3
100
AcDbCircle
 10
6.149999394331719
 20
11.30000058068905
 30
0.0
 40
0.4
100
AcDbArc
 50
90.0
 51
180.0
  0
LINE
  5
58
330
43
100
AcDbEntity
  8
0
  6
Continuous
 62
     3
100
AcDbLine
 10
5.74999939433172
 20
11.30000058068905
 30
0.0
 11
5.74999939433172
 21
10.25000058068905
 31
0.0
  0
ARC
  5
59
330
43
100
AcDbEntity
  8
0
  6
Continuous
 62
     3
100
AcDbCircle
 10
6.49999939433172
 20
10.25000058068905
 30
0.0
 40
0.75
100
AcDbArc
 50
180.0
 51
270.0
  0
LINE
  5
5A
330
43
100
AcDbEntity
  8
0
  6
Continuous
 62
     3
100
AcDbLine
 10
6.499999394331724
 20
9.500000580689047
 30
0.0
 11
6.730768625100954
 21
9.53638614548599
 31
0.0
  0
ARC
  5
5B
330
43
100
AcDbEntity
  8
0
  6
Continuous
 62
     3
100
AcDbCircle
 10
9.749999394331718
 20
10.25000058068905
 30
0.0
 40
0.25
100
AcDbArc
 50
90.0
 51
118.4979393479
  0
ARC
  5
5C
330
43
100
AcDbEntity
  8
0
  6
Continuous
 62
     3
100
AcDbCircle
 10
9.749999394331718
 20
10.25000058068905
 30
0.0
 40
0.25
100
AcDbArc
 50
0.0
 51
90.0
  0
ARC
  5
5D
330
43
100
AcDbEntity
  8
0
  6
Continuous
 62
     3
100
AcDbCircle
 10
9.749999394331718
 20
10.25000058068905
 30
0.0
 40
0.25
100
AcDbArc
 50
305.0568016610941
 51
0.0
  0
ARC
  5
5E
330
43
100
AcDbEntity
  8
0
  6
Continuous
 62
     3
100
AcDbCircle
 10
5.000583231822869
 20
17.0185781779449
 30
0.0
 40
8.51862846715127
100
AcDbArc
 50
277.9632131752916
 51
305.0568016610933
  0
ARC
  5
5F
330
43
100
AcDbEntity
  8
0
  6
Continuous
 62
     3
100
AcDbCircle
 10
6.249999394331716
 20
8.08691435302555
 30
0.0
 40
0.5
100
AcDbArc
 50
97.96321317529153
 51
180.0
  0
LINE
  5
60
330
43
100
AcDbEntity
  8
0
  6
Continuous
 62
     3
100
AcDbLine
 10
5.74999939433172
 20
8.08691435302555
 30
0.0
 11
5.74999939433172
 21
7.617010433359441
 31
0.0
  0
ARC
  5
61
330
43
100
AcDbEntity
  8
0
  6
Continuous
 62
     3
100
AcDbCircle
 10
5.249999394331724
 20
7.617010433359441
 30
0.0
 40
0.5
100
AcDbArc
 50
292.1062713386102
 51
0.0
  0
LINE
  5
62
330
43
100
AcDbEntity
  8
0
  6
Continuous
 62
     3
100
AcDbLine
 10
5.438162231605105
 20
7.153766710607336
 30
0.0
 11
3.188591873941775
 21
6.240024072867261
 31
0.0
  0
ARC
  5
63
330
43
100
AcDbEntity
  8
0
  6
Continuous
 62
     3
100
AcDbCircle
 10
3.499999394331724
 20
0.5000005806890471
 30
0.0
 40
0.5
100
AcDbArc
 50
270.0
 51
350.7906041440177
  0
ARC
  5
64
330
43
100
AcDbEntity
  8
0
  6
Continuous
 62
     3
100
AcDbCircle
 10
3.499999394331724
 20
0.5000005806890471
 30
0.0
 40
0.5
100
AcDbArc
 50
170.7906041440177
 51
270.0
  0
ARC
  5
65
330
43
100
AcDbEntity
  8
0
  6
Continuous
 62
     3
100
AcDbCircle
 10
-5.877545920157573
 20
2.020409694940833
 30
0.0
 40
9.0
100
AcDbArc
 50
350.7906041440177
 51
28.13404027203346
  0
ARC
  5
66
330
43
100
AcDbEntity
  8
0
  6
Continuous
 62
     3
100
AcDbCircle
 10
2.49999939433172
 20
6.500000580689047
 30
0.0
 40
0.5
100
AcDbArc
 50
112.1062713386115
 51
208.1340402720331
  0
ARC
  5
67
330
43
100
AcDbEntity
  8
0
  6
Continuous
 62
     3
100
AcDbCircle
 10
2.49999939433172
 20
6.500000580689047
 30
0.0
 40
0.5
100
AcDbArc
 50
112.1062713386115
 51
208.1340402720331
  0
LINE
  5
68
330
43
100
AcDbEntity
  8
0
  6
Continuous
 62
     3
100
AcDbLine
 10
2.311836557058328
 20
6.963244303441153
 30
0.0
 11
3.938162231605105
 21
7.623834049666451
 31
0.0
  0
ARC
  5
69
330
43
100
AcDbEntity
  8
0
  6
Continuous
 62
     3
100
AcDbCircle
 10
3.749999394331724
 20
8.087077772418557
 30
0.0
 40
0.5
100
AcDbArc
 50
292.1062713386102
 51
82.02929623151132
  0
ARC
  5
6A
330
43
100
AcDbEntity
  8
0
  6
Continuous
 62
     3
100
AcDbCircle
 10
0.24999939433172
 20
10.25000058068905
 30
0.0
 40
0.25
100
AcDbArc
 50
62.77730554164348
 51
90.0
  0
ARC
  5
6B
330
43
100
AcDbEntity
  8
0
  6
Continuous
 62
     3
100
AcDbCircle
 10
0.24999939433172
 20
10.25000058068905
 30
0.0
 40
0.25
100
AcDbArc
 50
90.0
 51
234.9365756032143
  0
ARC
  5
6C
330
43
100
AcDbEntity
  8
0
  6
Continuous
 62
     3
100
AcDbCircle
 10
5.000583231822869
 20
17.0185781779449
 30
0.0
 40
8.51862846715127
100
AcDbArc
 50
234.9365756032153
 51
262.0292962315111
  0
ARC
  5
6D
330
43
100
AcDbEntity
  8
0
  6
Continuous
 62
     3
100
AcDbCircle
 10
-5.877545920157573
 20
2.020409694940833
 30
0.0
 40
10.0
100
AcDbArc
 50
350.7906041440177
 51
24.95848332420258
  0
ENDBLK
  5
45
330
43
100
AcDbEntity
  8
0
100
AcDbBlockEnd
  0
BLOCK
  5
70
330
6F
100
AcDbEntity
  8
0
100
AcDbBlockBegin
  2
GEN_BLOCK00000
 70
     0
 71
     0
 10
0.0
 20
0.0
 30
0.0
  3
GEN_BLOCK00000
  1

  0
LINE
  5
73
330
6F
100
AcDbEntity
  8
1
  6
Continuous
 62
     3
100
AcDbLine
 10
39.77325830168181
 20
0.0000000745112629
 30
0.0
 11
38.0762020268341
 21
0.0000000745112629
 31
0.0
  0
LINE
  5
74
330
6F
100
AcDbEntity
  8
1
  6
Continuous
 62
     3
100
AcDbLine
 10
38.0762020268341
 20
0.0000000745112629
 30
0.0
 11
34.8262020268341
 21
3.250000074511263
 31
0.0
  0
LINE
  5
75
330
6F
100
AcDbEntity
  8
1
  6
Continuous
 62
     3
100
AcDbLine
 10
34.8262020268341
 20
3.250000074511263
 30
0.0
 11
32.82325830168181
 21
3.250000074511263
 31
0.0
  0
ARC
  5
76
330
6F
100
AcDbEntity
  8
1
  6
Continuous
 62
     3
100
AcDbCircle
 10
32.82325830168181
 20
3.700000074511262
 30
0.0
 40
0.4500000000000002
100
AcDbArc
 50
90.0
 51
270.0
  0
LINE
  5
77
330
6F
100
AcDbEntity
  8
1
  6
Continuous
 62
     3
100
AcDbLine
 10
32.82325830168181
 20
4.150000074511262
 30
0.0
 11
33.9262020268341
 21
4.150000074511262
 31
0.0
  0
LINE
  5
78
330
6F
100
AcDbEntity
  8
1
  6
Continuous
 62
     3
100
AcDbLine
 10
33.9262020268341
 20
4.150000074511262
 30
0.0
 11
31.52681169227509
 21
6.549390409070277
 31
0.0
  0
LINE
  5
79
330
6F
100
AcDbEntity
  8
1
  6
Continuous
 62
     3
100
AcDbLine
 10
30.67325830168181
 20
6.195837018477
 30
0.0
 11
30.67325830168181
 21
0.0000000745112629
 31
0.0
  0
LINE
  5
7A
330
6F
100
AcDbEntity
  8
1
  6
Continuous
 62
     3
100
AcDbLine
 10
30.67325830168181
 20
0.0000000745112629
 30
0.0
 11
26.67325830168181
 21
0.0000000745112629
 31
0.0
  0
LINE
  5
7B
330
6F
100
AcDbEntity
  8
1
  6
Continuous
 62
     3
100
AcDbLine
 10
26.67325830168181
 20
0.0000000745112629
 30
0.0
 11
26.67325830168181
 21
17.93933825851247
 31
0.0
  0
ARC
  5
7C
330
6F
100
AcDbEntity
  8
1
  6
Continuous
 62
     3
100
AcDbCircle
 10
28.67325830168181
 20
-14.99999992548874
 30
0.0
 40
33.0
100
AcDbArc
 50
93.47460079307221
 51
146.3324770991667
  0
ARC
  5
7D
330
6F
100
AcDbEntity
  8
1
  6
Continuous
 62
     3
100
AcDbCircle
 10
0.6598911574611037
 20
3.65966075138153
 30
0.0
 40
0.6598931574906949
100
AcDbArc
 50
148.1303009689751
 51
326.3324770991662
  0
ARC
  5
7E
330
6F
100
AcDbEntity
  8
1
  6
Continuous
 62
     3
100
AcDbCircle
 10
31.17325830168181
 20
6.195837018477
 30
0.0
 40
0.5
100
AcDbArc
 50
45.0
 51
180.0
  0
LINE
  5
7F
330
6F
100
AcDbEntity
  8
1
  6
Continuous
 62
     3
100
AcDbLine
 10
39.77325830168181
 20
0.0000000745112629
 30
0.0
 11
32.56151225279833
 21
7.21174612339475
 31
0.0
  0
ARC
  5
80
330
6F
100
AcDbEntity
  8
1
  6
Continuous
 62
     3
100
AcDbCircle
 10
32.9150656433916
 20
7.565299513988023
 30
0.0
 40
0.5
100
AcDbArc
 50
93.27315408323363
 51
224.9999999999999
  0
ARC
  5
81
330
6F
100
AcDbEntity
  8
1
  6
Continuous
 62
     3
100
AcDbCircle
 10
64.67325830168181
 20
9.381536022223678
 30
0.0
 40
0.5
100
AcDbArc
 50
0.0
 51
93.27315408323393
  0
LINE
  5
82
330
6F
100
AcDbEntity
  8
1
  6
Continuous
 62
     3
100
AcDbLine
 10
65.17325830168181
 20
9.381536022223678
 30
0.0
 11
65.17325830168181
 21
1.000000074511263
 31
0.0
  0
ARC
  5
83
330
6F
100
AcDbEntity
  8
1
  6
Continuous
 62
     3
100
AcDbCircle
 10
65.67325830168181
 20
1.000000074511263
 30
0.0
 40
0.5
100
AcDbArc
 50
180.0
 51
270.0
  0
LINE
  5
84
330
6F
100
AcDbEntity
  8
1
  6
Continuous
 62
     3
100
AcDbLine
 10
65.67325830168181
 20
0.5000000745112629
 30
0.0
 11
70.92325830168181
 21
0.5000000745112629
 31
0.0
  0
LINE
  5
85
330
6F
100
AcDbEntity
  8
1
  6
Continuous
 62
     3
100
AcDbLine
 10
32.88651751941118
 20
8.064483853302868
 30
0.0
 11
64.64471017770138
 21
9.880720361538522
 31
0.0
  0
LINE
  5
86
330
6F
100
AcDbEntity
  8
1
  6
Continuous
 62
     3
100
AcDbLine
 10
71.17325830168181
 20
0.7500000745112629
 30
0.0
 11
71.17325830168181
 21
4.250000074511263
 31
0.0
  0
LINE
  5
87
330
6F
100
AcDbEntity
  8
1
  6
Continuous
 62
     3
100
AcDbLine
 10
70.92325830168181
 20
4.500000074511263
 30
0.0
 11
69.92325830168181
 21
4.500000074511263
 31
0.0
  0
LINE
  5
88
330
6F
100
AcDbEntity
  8
1
  6
Continuous
 62
     3
100
AcDbLine
 10
69.67325830168181
 20
4.250000074511263
 30
0.0
 11
69.67325830168181
 21
2.250000074511263
 31
0.0
  0
LINE
  5
89
330
6F
100
AcDbEntity
  8
1
  6
Continuous
 62
     3
100
AcDbLine
 10
69.42325830168181
 20
2.000000074511263
 30
0.0
 11
66.92325830168181
 21
2.000000074511263
 31
0.0
  0
LINE
  5
8A
330
6F
100
AcDbEntity
  8
1
  6
Continuous
 62
     3
100
AcDbLine
 10
66.67325830168181
 20
2.250000074511263
 30
0.0
 11
66.67325830168181
 21
11.75000007451126
 31
0.0
  0
LINE
  5
8B
330
6F
100
AcDbEntity
  8
1
  6
Continuous
 62
     3
100
AcDbLine
 10
66.92325830168181
 20
12.00000007451126
 30
0.0
 11
69.42325830168181
 21
12.00000007451126
 31
0.0
  0
LINE
  5
8C
330
6F
100
AcDbEntity
  8
1
  6
Continuous
 62
     3
100
AcDbLine
 10
69.67325830168181
 20
11.75000007451126
 30
0.0
 11
69.67325830168181
 21
9.750000074511263
 31
0.0
  0
LINE
  5
8D
330
6F
100
AcDbEntity
  8
1
  6
Continuous
 62
     3
100
AcDbLine
 10
69.92325830168181
 20
9.500000074511263
 30
0.0
 11
70.92325830168181
 21
9.500000074511263
 31
0.0
  0
LINE
  5
8E
330
6F
100
AcDbEntity
  8
1
  6
Continuous
 62
     3
100
AcDbLine
 10
71.17325830168181
 20
9.750000074511263
 30
0.0
 11
71.17325830168181
 21
13.75000007451126
 31
0.0
  0
ARC
  5
8F
330
6F
100
AcDbEntity
  8
1
  6
Continuous
 62
     3
100
AcDbCircle
 10
70.92325830168181
 20
0.7500000745112629
 30
0.0
 40
0.25
100
AcDbArc
 50
270.0
 51
0.0
  0
ARC
  5
90
330
6F
100
AcDbEntity
  8
1
  6
Continuous
 62
     3
100
AcDbCircle
 10
70.92325830168181
 20
4.250000074511263
 30
0.0
 40
0.25
100
AcDbArc
 50
0.0
 51
90.0
  0
ARC
  5
91
330
6F
100
AcDbEntity
  8
1
  6
Continuous
 62
     3
100
AcDbCircle
 10
69.92325830168181
 20
4.250000074511263
 30
0.0
 40
0.25
100
AcDbArc
 50
90.0
 51
180.0
  0
ARC
  5
92
330
6F
100
AcDbEntity
  8
1
  6
Continuous
 62
     3
100
AcDbCircle
 10
69.42325830168181
 20
2.250000074511263
 30
0.0
 40
0.25
100
AcDbArc
 50
270.0
 51
0.0
  0
ARC
  5
93
330
6F
100
AcDbEntity
  8
1
  6
Continuous
 62
     3
100
AcDbCircle
 10
66.92325830168181
 20
2.250000074511263
 30
0.0
 40
0.25
100
AcDbArc
 50
180.0
 51
270.0
  0
ARC
  5
94
330
6F
100
AcDbEntity
  8
1
  6
Continuous
 62
     3
100
AcDbCircle
 10
66.92325830168181
 20
11.75000007451126
 30
0.0
 40
0.25
100
AcDbArc
 50
90.0
 51
180.0
  0
ARC
  5
95
330
6F
100
AcDbEntity
  8
1
  6
Continuous
 62
     3
100
AcDbCircle
 10
69.42325830168181
 20
11.75000007451126
 30
0.0
 40
0.25
100
AcDbArc
 50
0.0
 51
90.0
  0
ARC
  5
96
330
6F
100
AcDbEntity
  8
1
  6
Continuous
 62
     3
100
AcDbCircle
 10
69.92325830168181
 20
9.750000074511263
 30
0.0
 40
0.25
100
AcDbArc
 50
180.0
 51
270.0
  0
ARC
  5
97
330
6F
100
AcDbEntity
  8
1
  6
Continuous
 62
     3
100
AcDbCircle
 10
70.92325830168181
 20
9.750000074511263
 30
0.0
 40
0.25
100
AcDbArc
 50
270.0
 51
0.0
  0
ARC
  5
98
330
6F
100
AcDbEntity
  8
1
  6
Continuous
 62
     3
100
AcDbCircle
 10
30.17325830168181
 20
20.49647877310896
 30
0.0
 40
0.5
100
AcDbArc
 50
0.0
 51
90.8070094930711
  0
LINE
  5
99
330
6F
100
AcDbEntity
  8
1
  6
Continuous
 62
     3
100
AcDbLine
 10
30.67325830168181
 20
20.49647877310896
 30
0.0
 11
30.67325830168181
 21
11.00000007451126
 31
0.0
  0
ARC
  5
9A
330
6F
100
AcDbEntity
  8
1
  6
Continuous
 62
     3
100
AcDbCircle
 10
31.67325830168181
 20
11.00000007451126
 30
0.0
 40
1.0
100
AcDbArc
 50
180.0
 51
273.2731540832337
  0
LINE
  5
9B
330
6F
100
AcDbEntity
  8
1
  6
Continuous
 62
     3
100
AcDbLine
 10
31.73035454964266
 20
10.00163139588157
 30
0.0
 11
54.64767409340953
 21
11.3122624155414
 31
0.0
  0
LINE
  5
9C
330
6F
100
AcDbEntity
  8
1
  6
Continuous
 62
     3
100
AcDbLine
 10
54.64767409340953
 20
11.3122624155414
 30
0.0
 11
53.67325830168181
 21
13.00000007451126
 31
0.0
  0
LINE
  5
9D
330
6F
100
AcDbEntity
  8
1
  6
Continuous
 62
     3
100
AcDbLine
 10
53.67325830168181
 20
13.00000007451126
 30
0.0
 11
54.57325830168182
 21
13.90000007451127
 31
0.0
  0
LINE
  5
9E
330
6F
100
AcDbEntity
  8
1
  6
Continuous
 62
     3
100
AcDbLine
 10
54.57325830168182
 20
13.90000007451127
 30
0.0
 11
55.47325830168182
 21
13.00000007451126
 31
0.0
  0
LINE
  5
9F
330
6F
100
AcDbEntity
  8
1
  6
Continuous
 62
     3
100
AcDbLine
 10
55.47325830168182
 20
13.00000007451126
 30
0.0
 11
56.37325830168182
 21
13.90000007451127
 31
0.0
  0
LINE
  5
A0
330
6F
100
AcDbEntity
  8
1
  6
Continuous
 62
     3
100
AcDbLine
 10
56.37325830168182
 20
13.90000007451127
 30
0.0
 11
57.27325830168182
 21
13.00000007451126
 31
0.0
  0
LINE
  5
A1
330
6F
100
AcDbEntity
  8
1
  6
Continuous
 62
     3
100
AcDbLine
 10
57.27325830168182
 20
13.00000007451126
 30
0.0
 11
58.17325830168183
 21
13.90000007451127
 31
0.0
  0
LINE
  5
A2
330
6F
100
AcDbEntity
  8
1
  6
Continuous
 62
     3
100
AcDbLine
 10
58.17325830168183
 20
13.90000007451127
 30
0.0
 11
59.07325830168183
 21
13.00000007451126
 31
0.0
  0
LINE
  5
A3
330
6F
100
AcDbEntity
  8
1
  6
Continuous
 62
     3
100
AcDbLine
 10
59.07325830168183
 20
13.00000007451126
 30
0.0
 11
62.10419840935766
 21
13.00000007451126
 31
0.0
  0
LINE
  5
A4
330
6F
100
AcDbEntity
  8
1
  6
Continuous
 62
     3
100
AcDbLine
 10
62.10419840935766
 20
13.00000007451126
 30
0.0
 11
61.70005322092493
 21
13.70000007451127
 31
0.0
  0
ARC
  5
A5
330
6F
100
AcDbEntity
  8
1
  6
Continuous
 62
     3
100
AcDbCircle
 10
61.87325830168182
 20
13.80000007451126
 30
0.0
 40
0.2
100
AcDbArc
 50
90.0
 51
209.9999999999991
  0
LINE
  5
A6
330
6F
100
AcDbEntity
  8
1
  6
Continuous
 62
     3
100
AcDbLine
 10
61.87325830168182
 20
14.00000007451126
 30
0.0
 11
70.92325830168181
 21
14.00000007451126
 31
0.0
  0
ARC
  5
A7
330
6F
100
AcDbEntity
  8
1
  6
Continuous
 62
     3
100
AcDbCircle
 10
70.92325830168181
 20
13.75000007451126
 30
0.0
 40
0.25
100
AcDbArc
 50
0.0
 51
90.0
  0
LINE
  5
A8
330
6F
100
AcDbEntity
  8
1
  6
Continuous
 62
     3
100
AcDbLine
 10
29.40930835509637
 20
20.72764945888201
 30
0.0
 11
29.66761000017141
 21
20.98595110395704
 31
0.0
  0
LINE
  5
A9
330
6F
100
AcDbEntity
  8
1
  6
Continuous
 62
     3
100
AcDbLine
 10
29.66761000017141
 20
20.98595110395704
 30
0.0
 11
29.91167398748729
 21
20.74188711664116
 31
0.0
  0
LINE
  5
AA
330
6F
100
AcDbEntity
  8
1
  6
Continuous
 62
     3
100
AcDbLine
 10
29.91167398748729
 20
20.74188711664116
 30
0.0
 11
30.16621604816069
 21
20.99642917731456
 31
0.0
  0
LINE
  5
AB
330
6F
100
AcDbEntity
  8
1
  6
Continuous
 62
     3
100
AcDbLine
 10
0.1506052261249664
 20
4.088416698977529
 30
0.0
 11
0.0994762108734619
 21
4.008077264974389
 31
0.0
  0
LINE
  5
AC
330
6F
100
AcDbEntity
  8
1
  6
Continuous
 62
     3
100
AcDbLine
 10
28.90723042374333
 20
20.70635308814659
 30
0.0
 11
29.16187575344432
 21
20.96826001008339
 31
0.0
  0
LINE
  5
AD
330
6F
100
AcDbEntity
  8
1
  6
Continuous
 62
     3
100
AcDbLine
 10
29.16187575344432
 20
20.96826001008339
 30
0.0
 11
29.4093462937692
 21
20.72765080103195
 31
0.0
  0
LINE
  5
AE
330
6F
100
AcDbEntity
  8
1
  6
Continuous
 62
     3
100
AcDbLine
 10
28.40550144655779
 20
20.67800140370623
 30
0.0
 11
28.65644014483359
 21
20.94346185161625
 31
0.0
  0
LINE
  5
AF
330
6F
100
AcDbEntity
  8
1
  6
Continuous
 62
     3
100
AcDbLine
 10
28.65644014483359
 20
20.94346185161625
 30
0.0
 11
28.90726833980214
 21
20.70635496344581
 31
0.0
  0
LINE
  5
B0
330
6F
100
AcDbEntity
  8
1
  6
Continuous
 62
     3
100
AcDbLine
 10
27.90422056150906
 20
20.64260000764604
 30
0.0
 11
28.15140304471172
 21
20.91156152849001
 31
0.0
  0
LINE
  5
B1
330
6F
100
AcDbEntity
  8
1
  6
Continuous
 62
     3
100
AcDbLine
 10
28.15140304471172
 20
20.91156152849001
 30
0.0
 11
28.40553933251064
 21
20.67800381178419
 31
0.0
  0
LINE
  5
B2
330
6F
100
AcDbEntity
  8
1
  6
Continuous
 62
     3
100
AcDbLine
 10
27.40348681802671
 20
20.60015589502244
 30
0.0
 11
27.64686424470887
 21
20.87256534397476
 31
0.0
  0
LINE
  5
B3
330
6F
100
AcDbEntity
  8
1
  6
Continuous
 62
     3
100
AcDbLine
 10
27.64686424470887
 20
20.87256534397476
 30
0.0
 11
27.90425840986996
 21
20.64260294802691
 31
0.0
  0
LINE
  5
B4
330
6F
100
AcDbEntity
  8
1
  6
Continuous
 62
     3
100
AcDbLine
 10
26.90339915742916
 20
20.55067745248108
 30
0.0
 11
27.14292343799474
 21
20.8264810034308
 31
0.0
  0
LINE
  5
B5
330
6F
100
AcDbEntity
  8
1
  6
Continuous
 62
     3
100
AcDbLine
 10
27.14292343799474
 20
20.8264810034308
 30
0.0
 11
27.40352462131711
 21
20.60015936712523
 31
0.0
  0
LINE
  5
B6
330
6F
100
AcDbEntity
  8
1
  6
Continuous
 62
     3
100
AcDbLine
 10
26.40405639337357
 20
20.49417445659962
 30
0.0
 11
26.63968019957993
 21
20.77331761278613
 31
0.0
  0
LINE
  5
B7
330
6F
100
AcDbEntity
  8
1
  6
Continuous
 62
     3
100
AcDbLine
 10
26.63968019957993
 20
20.77331761278613
 30
0.0
 11
26.9034369081794
 21
20.55068145561972
 31
0.0
  0
LINE
  5
B8
330
6F
100
AcDbEntity
  8
1
  6
Continuous
 62
     3
100
AcDbLine
 10
25.90555719233103
 20
20.43065807195602
 30
0.0
 11
26.13723396664067
 21
20.71308567673716
 31
0.0
  0
LINE
  5
B9
330
6F
100
AcDbEntity
  8
1
  6
Continuous
 62
     3
100
AcDbLine
 10
26.13723396664067
 20
20.71308567673716
 30
0.0
 11
26.40409408412438
 21
20.49417898998313
 31
0.0
  0
LINE
  5
BA
330
6F
100
AcDbEntity
  8
1
  6
Continuous
 62
     3
100
AcDbLine
 10
25.40800005409072
 20
20.36014084892242
 30
0.0
 11
25.63568401887073
 21
20.64579709667308
 31
0.0
  0
LINE
  5
BB
330
6F
100
AcDbEntity
  8
1
  6
Continuous
 62
     3
100
AcDbLine
 10
25.63568401887073
 20
20.64579709667308
 30
0.0
 11
25.90559481563499
 21
20.43066313468861
 31
0.0
  0
LINE
  5
BC
330
6F
100
AcDbEntity
  8
1
  6
Continuous
 62
     3
100
AcDbLine
 10
24.91148329229716
 20
20.28263672118537
 30
0.0
 11
25.13512945886453
 21
20.57146516832424
 31
0.0
  0
LINE
  5
BD
330
6F
100
AcDbEntity
  8
1
  6
Continuous
 62
     3
100
AcDbLine
 10
25.13512945886453
 20
20.57146516832424
 30
0.0
 11
25.40803760251375
 21
20.36014644000376
 31
0.0
  0
LINE
  5
BE
330
6F
100
AcDbEntity
  8
1
  6
Continuous
 62
     3
100
AcDbLine
 10
24.41610501502406
 20
20.19816100299257
 30
0.0
 11
24.63566919253513
 21
20.49010457913498
 31
0.0
  0
LINE
  5
BF
330
6F
100
AcDbEntity
  8
1
  6
Continuous
 62
     3
100
AcDbLine
 10
24.63566919253513
 20
20.49010457913498
 30
0.0
 11
24.91152075841995
 21
20.2826428395107
 31
0.0
  0
LINE
  5
C0
330
6F
100
AcDbEntity
  8
1
  6
Continuous
 62
     3
100
AcDbLine
 10
23.92196310538896
 20
20.10673038612691
 30
0.0
 11
24.13740190957118
 21
20.40173140536154
 31
0.0
  0
LINE
  5
C1
330
6F
100
AcDbEntity
  8
1
  6
Continuous
 62
     3
100
AcDbLine
 10
24.13740190957118
 20
20.40173140536154
 30
0.0
 11
24.4161423914436
 21
20.19816764735295
 31
0.0
  0
LINE
  5
C2
330
6F
100
AcDbEntity
  8
1
  6
Continuous
 62
     3
100
AcDbLine
 10
23.42915520221222
 20
20.0083629366083
 30
0.0
 11
23.64042606393659
 21
20.30636310889546
 31
0.0
  0
LINE
  5
C3
330
6F
100
AcDbEntity
  8
1
  6
Continuous
 62
     3
100
AcDbLine
 10
23.64042606393659
 20
20.30636310889546
 30
0.0
 11
23.92200038471994
 21
20.10673755520946
 31
0.0
  0
LINE
  5
C4
330
6F
100
AcDbEntity
  8
1
  6
Continuous
 62
     3
100
AcDbLine
 10
22.93777868072429
 20
19.90307809112393
 30
0.0
 11
23.14483985441668
 21
20.20401853381329
 31
0.0
  0
LINE
  5
C5
330
6F
100
AcDbEntity
  8
1
  6
Continuous
 62
     3
100
AcDbLine
 10
23.14483985441668
 20
20.20401853381329
 30
0.0
 11
23.42919237708851
 21
20.00837062899646
 31
0.0
  0
LINE
  5
C6
330
6F
100
AcDbEntity
  8
1
  6
Continuous
 62
     3
100
AcDbLine
 10
22.44793063332506
 20
19.79089665318777
 30
0.0
 11
22.65074120521488
 21
20.09471790265309
 31
0.0
  0
LINE
  5
C7
330
6F
100
AcDbEntity
  8
1
  6
Continuous
 62
     3
100
AcDbLine
 10
22.65074120521488
 20
20.09471790265309
 30
0.0
 11
22.9378157438004
 21
19.90308630529775
 31
0.0
  0
LINE
  5
C8
330
6F
100
AcDbEntity
  8
1
  6
Continuous
 62
     3
100
AcDbLine
 10
21.9597078503992
 20
19.6718407890299
 30
0.0
 11
22.15822774660359
 21
19.97848281241864
 31
0.0
  0
LINE
  5
C9
330
6F
100
AcDbEntity
  8
1
  6
Continuous
 62
     3
100
AcDbLine
 10
22.15822774660359
 20
19.97848281241864
 30
0.0
 11
22.44796757727762
 21
19.79090538752418
 31
0.0
  0
LINE
  5
CA
330
6F
100
AcDbEntity
  8
1
  6
Continuous
 62
     3
100
AcDbLine
 10
21.47320680119098
 20
19.54593402321666
 30
0.0
 11
21.66739679563318
 21
19.85533623031202
 31
0.0
  0
LINE
  5
CB
330
6F
100
AcDbEntity
  8
1
  6
Continuous
 62
     3
100
AcDbLine
 10
21.66739679563318
 20
19.85533623031202
 30
0.0
 11
21.95974466792833
 21
19.67185004180306
 31
0.0
  0
LINE
  5
CC
330
6F
100
AcDbEntity
  8
1
  6
Continuous
 62
     3
100
AcDbLine
 10
20.98852361474272
 20
19.41320123400234
 30
0.0
 11
21.17834533690282
 21
19.72530248919546
 31
0.0
  0
LINE
  5
CD
330
6F
100
AcDbEntity
  8
1
  6
Continuous
 62
     3
100
AcDbLine
 10
21.17834533690282
 20
19.72530248919546
 30
0.0
 11
21.47324348502183
 21
19.54594379259829
 31
0.0
  0
LINE
  5
CE
330
6F
100
AcDbEntity
  8
1
  6
Continuous
 62
     3
100
AcDbLine
 10
20.50575406090037
 20
19.27366864841346
 30
0.0
 11
20.69117000339707
 21
19.58840728278332
 31
0.0
  0
LINE
  5
CF
330
6F
100
AcDbEntity
  8
1
  6
Continuous
 62
     3
100
AcDbLine
 10
20.69117000339707
 20
19.58840728278332
 30
0.0
 11
20.98856015762681
 21
19.41321151806209
 31
0.0
  0
LINE
  5
D0
330
6F
100
AcDbEntity
  8
1
  6
Continuous
 62
     3
100
AcDbLine
 10
20.02499353139014
 20
19.12736383706645
 30
0.0
 11
20.20596705739187
 21
19.44467766056527
 31
0.0
  0
LINE
  5
D1
330
6F
100
AcDbEntity
  8
1
  6
Continuous
 62
     3
100
AcDbLine
 10
20.20596705739187
 20
19.44467766056527
 30
0.0
 11
20.50579045561712
 21
19.27367944511927
 31
0.0
  0
LINE
  5
D2
330
6F
100
AcDbEntity
  8
1
  6
Continuous
 62
     3
100
AcDbLine
 10
19.54633702096969
 20
18.97431570871994
 30
0.0
 11
19.72283237143389
 21
19.29414202246141
 31
0.0
  0
LINE
  5
D3
330
6F
100
AcDbEntity
  8
1
  6
Continuous
 62
     3
100
AcDbLine
 10
19.72283237143389
 20
19.29414202246141
 30
0.0
 11
20.02502977074819
 21
19.12737514428497
 31
0.0
  0
LINE
  5
D4
330
6F
100
AcDbEntity
  8
1
  6
Continuous
 62
     3
100
AcDbLine
 10
19.06987910865797
 20
18.81455450456255
 30
0.0
 11
19.24186140939671
 21
19.13683011321073
 31
0.0
  0
LINE
  5
D5
330
6F
100
AcDbEntity
  8
1
  6
Continuous
 62
     3
100
AcDbLine
 10
19.24186140939671
 20
19.13683011321073
 30
0.0
 11
19.54637309780843
 21
18.97432752421693
 31
0.0
  0
LINE
  5
D6
330
6F
100
AcDbEntity
  8
1
  6
Continuous
 62
     3
100
AcDbLine
 10
18.59571393904706
 20
18.64811179223756
 30
0.0
 11
18.76314920761796
 21
18.97277301649375
 31
0.0
  0
LINE
  5
D7
330
6F
100
AcDbEntity
  8
1
  6
Continuous
 62
     3
100
AcDbLine
 10
18.76314920761796
 20
18.97277301649375
 30
0.0
 11
19.06991501584888
 21
18.81456682600339
 31
0.0
  0
LINE
  5
D8
330
6F
100
AcDbEntity
  8
1
  6
Continuous
 62
     3
100
AcDbLine
 10
18.12393520369984
 20
18.47502045960523
 30
0.0
 11
18.28679035612079
 21
18.80200314879058
 31
0.0
  0
LINE
  5
D9
330
6F
100
AcDbEntity
  8
1
  6
Continuous
 62
     3
100
AcDbLine
 10
18.28679035612079
 20
18.80200314879058
 30
0.0
 11
18.59574966949513
 21
18.64812461718759
 31
0.0
  0
LINE
  5
DA
330
6F
100
AcDbEntity
  8
1
  6
Continuous
 62
     3
100
AcDbLine
 10
17.65463612263732
 20
18.2953147082445
 30
0.0
 11
17.81287897992355
 21
18.62455425297573
 31
0.0
  0
LINE
  5
DB
330
6F
100
AcDbEntity
  8
1
  6
Continuous
 62
     3
100
AcDbLine
 10
17.81287897992355
 20
18.62455425297573
 30
0.0
 11
18.12397075034502
 21
18.47503378553034
 31
0.0
  0
LINE
  5
DC
330
6F
100
AcDbEntity
  8
1
  6
Continuous
 62
     3
100
AcDbLine
 10
17.18790942591895
 20
18.109030046695
 30
0.0
 11
17.34150872044147
 21
18.44046139165068
 31
0.0
  0
LINE
  5
DD
330
6F
100
AcDbEntity
  8
1
  6
Continuous
 62
     3
100
AcDbLine
 10
17.34150872044147
 20
18.44046139165068
 30
0.0
 11
17.65467147845582
 21
18.2953285325116
 31
0.0
  0
LINE
  5
DE
330
6F
100
AcDbEntity
  8
1
  6
Continuous
 62
     3
100
AcDbLine
 10
16.72384733531991
 20
17.91620328344079
 30
0.0
 11
16.87277271698365
 21
18.24976094021581
 31
0.0
  0
LINE
  5
DF
330
6F
100
AcDbEntity
  8
1
  6
Continuous
 62
     3
100
AcDbLine
 10
16.87277271698365
 20
18.24976094021581
 30
0.0
 11
17.18794458392474
 21
18.10904436657252
 31
0.0
  0
LINE
  5
E0
330
6F
100
AcDbEntity
  8
1
  6
Continuous
 62
     3
100
AcDbLine
 10
16.26254154610872
 20
17.71687251963727
 30
0.0
 11
16.40676358834958
 21
18.05249057968293
 31
0.0
  0
LINE
  5
E1
330
6F
100
AcDbEntity
  8
1
  6
Continuous
 62
     3
100
AcDbLine
 10
16.40676358834958
 20
18.05249057968293
 30
0.0
 11
16.72388228856602
 21
17.91621809609921
 31
0.0
  0
LINE
  5
E2
330
6F
100
AcDbEntity
  8
1
  6
Continuous
 62
     3
100
AcDbLine
 10
15.80408320892897
 20
17.5110771415827
 30
0.0
 11
15.94357341452822
 21
17.8486892892297
 31
0.0
  0
LINE
  5
E3
330
6F
100
AcDbEntity
  8
1
  6
Continuous
 62
     3
100
AcDbLine
 10
15.94357341452822
 20
17.8486892892297
 30
0.0
 11
16.26257628768865
 21
17.71688782214972
 31
0.0
  0
LINE
  5
E4
330
6F
100
AcDbEntity
  8
1
  6
Continuous
 62
     3
100
AcDbLine
 10
15.34856291178855
 20
17.29885781293576
 30
0.0
 11
15.48329371850375
 21
17.63839733849768
 31
0.0
  0
LINE
  5
E5
330
6F
100
AcDbEntity
  8
1
  6
Continuous
 62
     3
100
AcDbLine
 10
15.48329371850375
 20
17.63839733849768
 30
0.0
 11
15.80411773197802
 21
17.51109293092552
 31
0.0
  0
LINE
  5
E6
330
6F
100
AcDbEntity
  8
1
  6
Continuous
 62
     3
100
AcDbLine
 10
14.89607066216021
 20
17.08025646668068
 30
0.0
 11
15.02601544817122
 21
17.42165627963536
 31
0.0
  0
LINE
  5
E7
330
6F
100
AcDbEntity
  8
1
  6
Continuous
 62
     3
100
AcDbLine
 10
15.02601544817122
 20
17.42165627963536
 30
0.0
 11
15.34859720948524
 21
17.29887408598909
 31
0.0
  0
LINE
  5
E8
330
6F
100
AcDbEntity
  8
1
  6
Continuous
 62
     3
100
AcDbLine
 10
14.44669586919667
 20
16.8553162968416
 30
0.0
 11
14.57182895836601
 21
17.19850893908772
 31
0.0
  0
LINE
  5
E9
330
6F
100
AcDbEntity
  8
1
  6
Continuous
 62
     3
100
AcDbLine
 10
14.57182895836601
 20
17.19850893908772
 30
0.0
 11
14.89610472772756
 21
17.08027322022908
 31
0.0
  0
LINE
  5
EA
330
6F
100
AcDbEntity
  8
1
  6
Continuous
 62
     3
100
AcDbLine
 10
14.00052732606409
 20
16.62408174994775
 30
0.0
 11
14.12082399301029
 21
16.96899940913407
 31
0.0
  0
LINE
  5
EB
330
6F
100
AcDbEntity
  8
1
  6
Continuous
 62
     3
100
AcDbLine
 10
14.12082399301029
 20
16.96899940913407
 30
0.0
 11
14.44672969590358
 21
16.85533352757469
 31
0.0
  0
LINE
  5
EC
330
6F
100
AcDbEntity
  8
1
  6
Continuous
 62
     3
100
AcDbLine
 10
13.55765319239714
 20
16.38659851625115
 30
0.0
 11
13.67308966738031
 21
16.73317303917572
 31
0.0
  0
LINE
  5
ED
330
6F
100
AcDbEntity
  8
1
  6
Continuous
 62
     3
100
AcDbLine
 10
13.67308966738031
 20
16.73317303917572
 30
0.0
 11
14.00056090722664
 21
16.62409945446087
 31
0.0
  0
LINE
  5
EE
330
6F
100
AcDbEntity
  8
1
  6
Continuous
 62
     3
100
AcDbLine
 10
13.11816097687931
 20
16.14291352069854
 30
0.0
 11
13.2287144504979
 21
16.49107642677527
 31
0.0
  0
LINE
  5
EF
330
6F
100
AcDbEntity
  8
1
  6
Continuous
 62
     3
100
AcDbLine
 10
13.2287144504979
 20
16.49107642677527
 30
0.0
 11
13.55768652137994
 21
16.38661669104602
 31
0.0
  0
LINE
  5
F0
330
6F
100
AcDbEntity
  8
1
  6
Continuous
 62
     3
100
AcDbLine
 10
12.68213751995185
 20
15.89307491365935
 30
0.0
 11
12.7877861476496
 21
16.24275740844929
 31
0.0
  0
LINE
  5
F1
330
6F
100
AcDbEntity
  8
1
  6
Continuous
 62
     3
100
AcDbLine
 10
12.7877861476496
 20
16.24275740844929
 30
0.0
 11
13.11819404709679
 21
16.14293216218394
 31
0.0
  0
LINE
  5
F2
330
6F
100
AcDbEntity
  8
1
  6
Continuous
 62
     3
100
AcDbLine
 10
12.24966897665475
 20
15.63713206141156
 30
0.0
 11
12.350391883037
 21
15.98826505021615
 31
0.0
  0
LINE
  5
F3
330
6F
100
AcDbEntity
  8
1
  6
Continuous
 62
     3
100
AcDbLine
 10
12.350391883037
 20
15.98826505021615
 30
0.0
 11
12.68217032486959
 21
15.89309401815187
 31
0.0
  0
LINE
  5
F4
330
6F
100
AcDbEntity
  8
1
  6
Continuous
 62
     3
100
AcDbLine
 10
11.8208407996031
 20
15.37513553638725
 30
0.0
 11
11.91661808256163
 21
15.72764963790096
 31
0.0
  0
LINE
  5
F5
330
6F
100
AcDbEntity
  8
1
  6
Continuous
 62
     3
100
AcDbLine
 10
11.91661808256163
 20
15.72764963790096
 30
0.0
 11
12.24970150979074
 21
15.63715162513629
 31
0.0
  0
LINE
  5
F6
330
6F
100
AcDbEntity
  8
1
  6
Continuous
 62
     3
100
AcDbLine
 10
11.3957377221023
 20
15.10713710717992
 30
0.0
 11
11.48655045674784
 21
15.46096266719945
 31
0.0
  0
LINE
  5
F7
330
6F
100
AcDbEntity
  8
1
  6
Continuous
 62
     3
100
AcDbLine
 10
11.48655045674784
 20
15.46096266719945
 30
0.0
 11
11.82087305452902
 21
15.37515555547855
 31
0.0
  0
LINE
  5
F8
330
6F
100
AcDbEntity
  8
1
  6
Continuous
 62
     3
100
AcDbLine
 10
10.97444374140537
 20
14.83318972831531
 30
0.0
 11
11.06027398380701
 21
15.18825683350278
 31
0.0
  0
LINE
  5
F9
330
6F
100
AcDbEntity
  8
1
  6
Continuous
 62
     3
100
AcDbLine
 10
11.06027398380701
 20
15.18825683350278
 30
0.0
 11
11.39576969244482
 21
15.10715757768215
 31
0.0
  0
LINE
  5
FA
330
6F
100
AcDbEntity
  8
1
  6
Continuous
 62
     3
100
AcDbLine
 10
10.55704210211572
 20
14.55334752978806
 30
0.0
 11
10.63787289284652
 21
14.90958602148536
 31
0.0
  0
LINE
  5
FB
330
6F
100
AcDbEntity
  8
1
  6
Continuous
 62
     3
100
AcDbLine
 10
10.63787289284652
 20
14.90958602148536
 30
0.0
 11
10.97447542084738
 21
14.83321064618366
 31
0.0
  0
LINE
  5
FC
330
6F
100
AcDbEntity
  8
1
  6
Continuous
 62
     3
100
AcDbLine
 10
10.14361527973863
 20
14.26766580636594
 30
0.0
 11
10.21943064722666
 21
14.62500529445757
 31
0.0
  0
LINE
  5
FD
330
6F
100
AcDbEntity
  8
1
  6
Continuous
 62
     3
100
AcDbLine
 10
10.21943064722666
 20
14.62500529445757
 30
0.0
 11
10.55707348439761
 21
14.5533688908893
 31
0.0
  0
LINE
  5
FE
330
6F
100
AcDbEntity
  8
1
  6
Continuous
 62
     3
100
AcDbLine
 10
9.734244964384672
 20
13.97620100666407
 30
0.0
 11
9.805029928068862
 21
14.33457088348571
 31
0.0
  0
LINE
  5
FF
330
6F
100
AcDbEntity
  8
1
  6
Continuous
 62
     3
100
AcDbLine
 10
9.805029928068862
 20
14.33457088348571
 30
0.0
 11
10.14364635865948
 21
14.26768760647927
 31
0.0
  0
LINE
  5
100
330
6F
100
AcDbEntity
  8
1
  6
Continuous
 62
     3
100
AcDbLine
 10
9.329012044628342
 20
13.67901072199107
 30
0.0
 11
9.394752617918599
 21
14.03834017628114
 31
0.0
  0
LINE
  5
101
330
6F
100
AcDbEntity
  8
1
  6
Continuous
 62
     3
100
AcDbLine
 10
9.394752617918599
 20
14.03834017628114
 30
0.0
 11
9.734275733803514
 21
13.97622324148197
 31
0.0
  0
LINE
  5
102
330
6F
100
AcDbEntity
  8
1
  6
Continuous
 62
     3
100
AcDbLine
 10
8.92799659152513
 20
13.37615367496942
 30
0.0
 11
8.988679784565875
 21
13.73637170586086
 31
0.0
  0
LINE
  5
103
330
6F
100
AcDbEntity
  8
1
  6
Continuous
 62
     3
100
AcDbLine
 10
8.988679784565875
 20
13.73637170586086
 30
0.0
 11
9.32904249846537
 21
13.67903338712009
 31
0.0
  0
LINE
  5
104
330
6F
100
AcDbEntity
  8
1
  6
Continuous
 62
     3
100
AcDbLine
 10
8.531277842789962
 20
13.06768970793233
 30
0.0
 11
8.586891665026954
 21
13.42872513898187
 31
0.0
  0
LINE
  5
105
330
6F
100
AcDbEntity
  8
1
  6
Continuous
 62
     3
100
AcDbLine
 10
8.586891665026954
 20
13.42872513898187
 30
0.0
 11
8.928026723762883
 21
13.3761767659311
 31
0.0
  0
LINE
  5
106
330
6F
100
AcDbEntity
  8
1
  6
Continuous
 62
     3
100
AcDbLine
 10
8.13893418714052
 20
12.75367977109931
 30
0.0
 11
8.189467649689988
 21
13.11546126435137
 31
0.0
  0
LINE
  5
107
330
6F
100
AcDbEntity
  8
1
  6
Continuous
 62
     3
100
AcDbLine
 10
8.189467649689988
 20
13.11546126435137
 30
0.0
 11
8.531307647474534
 21
13.06771322016406
 31
0.0
  0
LINE
  5
108
330
6F
100
AcDbEntity
  8
1
  6
Continuous
 62
     3
100
AcDbLine
 10
7.751043148808108
 20
12.43418591053286
 30
0.0
 11
7.796486266628165
 21
12.79664198061546
 31
0.0
  0
LINE
  5
109
330
6F
100
AcDbEntity
  8
1
  6
Continuous
 62
     3
100
AcDbLine
 10
7.796486266628165
 20
12.79664198061546
 30
0.0
 11
8.138963658382707
 21
12.75370369995524
 31
0.0
  0
LINE
  5
10A
330
6F
100
AcDbEntity
  8
1
  6
Continuous
 62
     3
100
AcDbLine
 10
7.367681372219494
 20
12.10927125587862
 30
0.0
 11
7.408025166083064
 21
12.47233028412834
 31
0.0
  0
LINE
  5
10B
330
6F
100
AcDbEntity
  8
1
  6
Continuous
 62
     3
100
AcDbLine
 10
7.408025166083064
 20
12.47233028412834
 30
0.0
 11
7.751072280784626
 21
12.43421025128483
 31
0.0
  0
LINE
  5
10C
330
6F
100
AcDbEntity
  8
1
  6
Continuous
 62
     3
100
AcDbLine
 10
6.988924606852549
 20
11.77900000789144
 30
0.0
 11
7.024161105121578
 21
12.14259025650472
 31
0.0
  0
LINE
  5
10D
330
6F
100
AcDbEntity
  8
1
  6
Continuous
 62
     3
100
AcDbLine
 10
7.024161105121578
 20
12.14259025650472
 30
0.0
 11
7.367710159174081
 21
12.10929600371709
 31
0.0
  0
LINE
  5
10E
330
6F
100
AcDbEntity
  8
1
  6
Continuous
 62
     3
100
AcDbLine
 10
6.614847692268597
 20
11.44343742574974
 30
0.0
 11
6.644969932469266
 21
11.8074870519578
 31
0.0
  0
LINE
  5
10F
330
6F
100
AcDbEntity
  8
1
  6
Continuous
 62
     3
100
AcDbLine
 10
6.644969932469266
 20
11.8074870519578
 30
0.0
 11
6.988953043097098
 21
11.7790251579264
 31
0.0
  0
LINE
  5
110
330
6F
100
AcDbEntity
  8
1
  6
Continuous
 62
     3
100
AcDbLine
 10
6.245524543324805
 20
11.1026498141608
 30
0.0
 11
6.270526573523171
 21
11.46708688442519
 31
0.0
  0
LINE
  5
111
330
6F
100
AcDbEntity
  8
1
  6
Continuous
 62
     3
100
AcDbLine
 10
6.270526573523171
 20
11.46708688442519
 30
0.0
 11
6.61487577218432
 21
11.44346297301173
 31
0.0
  0
LINE
  5
112
330
6F
100
AcDbEntity
  8
1
  6
Continuous
 62
     3
100
AcDbLine
 10
5.881028135569068
 20
10.75670451025944
 30
0.0
 11
5.900905015547153
 21
11.12145701448561
 31
0.0
  0
LINE
  5
113
330
6F
100
AcDbEntity
  8
1
  6
Continuous
 62
     3
100
AcDbLine
 10
5.900905015547153
 20
11.12145701448561
 30
0.0
 11
6.245552261363315
 21
11.10267575360188
 31
0.0
  0
LINE
  5
114
330
6F
100
AcDbEntity
  8
1
  6
Continuous
 62
     3
100
AcDbLine
 10
5.521430490820563
 20
10.40566987030266
 30
0.0
 11
5.536178293052558
 21
10.77066573606863
 31
0.0
  0
LINE
  5
115
330
6F
100
AcDbEntity
  8
1
  6
Continuous
 62
     3
100
AcDbLine
 10
5.536178293052558
 20
10.77066573606863
 30
0.0
 11
5.881055486253487
 21
10.75673083675414
 31
0.0
  0
LINE
  5
116
330
6F
100
AcDbEntity
  8
1
  6
Continuous
 62
     3
100
AcDbLine
 10
5.166802662938835
 20
10.049615256163
 30
0.0
 11
5.176418473367093
 21
10.41478236296034
 31
0.0
  0
LINE
  5
117
330
6F
100
AcDbEntity
  8
1
  6
Continuous
 62
     3
100
AcDbLine
 10
5.176418473367093
 20
10.41478236296034
 30
0.0
 11
5.521457468746604
 21
10.40569657864908
 31
0.0
  0
LINE
  5
118
330
6F
100
AcDbEntity
  8
1
  6
Continuous
 62
     3
100
AcDbLine
 10
4.817214723784019
 20
9.688611021623103
 30
0.0
 11
4.821696642394855
 21
10.05387721510738
 31
0.0
  0
LINE
  5
119
330
6F
100
AcDbEntity
  8
1
  6
Continuous
 62
     3
100
AcDbLine
 10
4.821696642394855
 20
10.05387721510738
 30
0.0
 11
5.166829262775849
 21
10.04964234108377
 31
0.0
  0
LINE
  5
11A
330
6F
100
AcDbEntity
  8
1
  6
Continuous
 62
     3
100
AcDbLine
 10
4.472735749371154
 20
9.32272849847433
 30
0.0
 11
4.472082890570292
 21
9.688021604722337
 31
0.0
  0
LINE
  5
11B
330
6F
100
AcDbEntity
  8
1
  6
Continuous
 62
     3
100
AcDbLine
 10
4.472082890570292
 20
9.688021604722337
 30
0.0
 11
4.817240940276065
 21
9.688638477766432
 31
0.0
  0
LINE
  5
11C
330
6F
100
AcDbEntity
  8
1
  6
Continuous
 62
     3
100
AcDbLine
 10
4.133433806221291
 20
8.952039982422125
 30
0.0
 11
4.127646299008859
 21
9.317287822192874
 31
0.0
  0
LINE
  5
11D
330
6F
100
AcDbEntity
  8
1
  6
Continuous
 62
     3
100
AcDbLine
 10
4.127646299008859
 20
9.317287822192874
 30
0.0
 11
4.472761577338062
 21
9.322756320415088
 31
0.0
  0
LINE
  5
11E
330
6F
100
AcDbEntity
  8
1
  6
Continuous
 62
     3
100
AcDbLine
 10
3.799375937912075
 20
8.576618718800912
 30
0.0
 11
3.788454925857067
 21
8.941749121797741
 31
0.0
  0
LINE
  5
11F
330
6F
100
AcDbEntity
  8
1
  6
Continuous
 62
     3
100
AcDbLine
 10
3.788454925857067
 20
8.941749121797741
 30
0.0
 11
4.133459240559645
 21
8.9520681646629
 31
0.0
  0
LINE
  5
120
330
6F
100
AcDbEntity
  8
1
  6
Continuous
 62
     3
100
AcDbLine
 10
3.470628151830326
 20
8.196538888101355
 30
0.0
 11
3.454575792844722
 21
8.561479707232252
 31
0.0
  0
LINE
  5
121
330
6F
100
AcDbEntity
  8
1
  6
Continuous
 62
     3
100
AcDbLine
 10
3.454575792844722
 20
8.561479707232252
 30
0.0
 11
3.799400973596221
 21
8.5766472557731
 31
0.0
  0
LINE
  5
122
330
6F
100
AcDbEntity
  8
1
  6
Continuous
 62
     3
100
AcDbLine
 10
3.147255406129588
 20
7.811875591312834
 30
0.0
 11
3.126074872041869
 21
8.176554716946164
 31
0.0
  0
LINE
  5
123
330
6F
100
AcDbEntity
  8
1
  6
Continuous
 62
     3
100
AcDbLine
 10
3.126074872041869
 20
8.176554716946164
 30
0.0
 11
3.470652783913408
 21
8.196567774166258
 31
0.0
  0
LINE
  5
124
330
6F
100
AcDbEntity
  8
1
  6
Continuous
 62
     3
100
AcDbLine
 10
2.829321596894772
 20
7.422704835084044
 30
0.0
 11
2.803017072823266
 21
7.787050209296897
 31
0.0
  0
LINE
  5
125
330
6F
100
AcDbEntity
  8
1
  6
Continuous
 62
     3
100
AcDbLine
 10
2.803017072823266
 20
7.787050209296897
 30
0.0
 11
3.147279629744475
 21
7.811904820762781
 31
0.0
  0
LINE
  5
126
330
6F
100
AcDbEntity
  8
1
  6
Continuous
 62
     3
100
AcDbLine
 10
2.516889545516804
 20
7.02910351670463
 30
0.0
 11
2.485466229042743
 21
7.393043147520928
 31
0.0
  0
LINE
  5
127
330
6F
100
AcDbEntity
  8
1
  6
Continuous
 62
     3
100
AcDbLine
 10
2.485466229042743
 20
7.393043147520928
 30
0.0
 11
2.829345407255062
 21
7.422734402143504
 31
0.0
  0
LINE
  5
128
330
6F
100
AcDbEntity
  8
1
  6
Continuous
 62
     3
100
AcDbLine
 10
2.210020986279602
 20
6.631149408910858
 30
0.0
 11
2.17348508642003
 21
6.99461138452644
 31
0.0
  0
LINE
  5
129
330
6F
100
AcDbEntity
  8
1
  6
Continuous
 62
     3
100
AcDbLine
 10
2.17348508642003
 20
6.99461138452644
 30
0.0
 11
2.516912937917752
 21
7.029133415531373
 31
0.0
  0
LINE
  5
12A
330
6F
100
AcDbEntity
  8
1
  6
Continuous
 62
     3
100
AcDbLine
 10
1.90877655416179
 20
6.228921144518281
 30
0.0
 11
1.867135290142784
 21
6.59183364751016
 31
0.0
  0
LINE
  5
12B
330
6F
100
AcDbEntity
  8
1
  6
Continuous
 62
     3
100
AcDbLine
 10
1.867135290142784
 20
6.59183364751016
 30
0.0
 11
2.210043956099028
 21
6.631179633597093
 31
0.0
  0
LINE
  5
12C
330
6F
100
AcDbEntity
  8
1
  6
Continuous
 62
     3
100
AcDbLine
 10
1.613215772855668
 20
5.822498200884482
 30
0.0
 11
1.566477372685867
 21
6.184789522401431
 31
0.0
  0
LINE
  5
12D
330
6F
100
AcDbEntity
  8
1
  6
Continuous
 62
     3
100
AcDbLine
 10
1.566477372685867
 20
6.184789522401431
 30
0.0
 11
1.908799096861031
 21
6.228951689091833
 31
0.0
  0
LINE
  5
12E
330
6F
100
AcDbEntity
  8
1
  6
Continuous
 62
     3
100
AcDbLine
 10
1.323397043005798
 20
5.411960884204913
 30
0.0
 11
1.271570741850596
 21
5.773559438136616
 31
0.0
  0
LINE
  5
12F
330
6F
100
AcDbEntity
  8
1
  6
Continuous
 62
     3
100
AcDbLine
 10
1.271570741850596
 20
5.773559438136616
 30
0.0
 11
1.613237883980446
 21
5.822529059309961
 31
0.0
  0
LINE
  5
130
330
6F
100
AcDbEntity
  8
1
  6
Continuous
 62
     3
100
AcDbLine
 10
1.039377630669463
 20
4.997390313644999
 30
0.0
 11
0.9824736690261773
 21
5.358224650766935
 31
0.0
  0
LINE
  5
131
330
6F
100
AcDbEntity
  8
1
  6
Continuous
 62
     3
100
AcDbLine
 10
0.9824736690261773
 20
5.358224650766935
 30
0.0
 11
1.323418718187128
 21
5.411992050384921
 31
0.0
  0
LINE
  5
132
330
6F
100
AcDbEntity
  8
1
  6
Continuous
 62
     3
100
AcDbLine
 10
0.7612136560012885
 20
4.578868405311574
 30
0.0
 11
0.6992432776757624
 21
4.938867227402866
 31
0.0
  0
LINE
  5
133
330
6F
100
AcDbEntity
  8
1
  6
Continuous
 62
     3
100
AcDbLine
 10
0.6992432776757624
 20
4.938867227402866
 30
0.0
 11
1.039398865624477
 21
4.99742178142133
 31
0.0
  0
LINE
  5
134
330
6F
100
AcDbEntity
  8
1
  6
Continuous
 62
     3
100
AcDbLine
 10
0.4889600821643114
 20
4.156477856066864
 30
0.0
 11
0.42193553204919
 21
4.51557002999828
 31
0.0
  0
LINE
  5
135
330
6F
100
AcDbEntity
  8
1
  6
Continuous
 62
     3
100
AcDbLine
 10
0.42193553204919
 20
4.51557002999828
 30
0.0
 11
0.7612344465341181
 21
4.578900168466429
 31
0.0
  0
LINE
  5
136
330
6F
100
AcDbEntity
  8
1
  6
Continuous
 62
     3
100
AcDbLine
 10
0.1506052261249664
 20
4.088416698977529
 30
0.0
 11
0.4889804241669111
 21
4.156509908324072
 31
0.0
  0
ENDBLK
  5
71
330
6F
100
AcDbEntity
  8
0
100
AcDbBlockEnd
  0
BLOCK
  5
138
330
137
100
AcDbEntity
  8
0
100
AcDbBlockBegin
  2
GEN_BLOCK00001
 70
     0
 71
     0
 10
0.0
 20
0.0
 30
0.0
  3
GEN_BLOCK00001
  1

  0
LINE
  5
13B
330
137
100
AcDbEntity
  8
1
  6
Continuous
 62
     3
100
AcDbLine
 10
3.722649939547946
 20
14.99999955283572
 30
0.0
 11
5.300000208737572
 21
14.99999955283572
 31
0.0
  0
LINE
  5
13C
330
137
100
AcDbEntity
  8
1
  6
Continuous
 62
     3
100
AcDbLine
 10
7.800000208737572
 20
12.49999955283572
 30
0.0
 11
7.800000208737572
 21
0.2499995528357246
 31
0.0
  0
LINE
  5
13D
330
137
100
AcDbEntity
  8
1
  6
Continuous
 62
     3
100
AcDbLine
 10
7.550000208737572
 20
-0.0000004471642754
 30
0.0
 11
4.550000208737572
 21
-0.0000004471642754
 31
0.0
  0
LINE
  5
13E
330
137
100
AcDbEntity
  8
1
  6
Continuous
 62
     3
100
AcDbLine
 10
4.300000208737572
 20
0.2499995528357246
 30
0.0
 11
4.300000208737572
 21
5.249999552835725
 31
0.0
  0
LINE
  5
13F
330
137
100
AcDbEntity
  8
1
  6
Continuous
 62
     3
100
AcDbLine
 10
4.200000208737571
 20
5.349999552835726
 30
0.0
 11
2.600000208737573
 21
5.349999552835726
 31
0.0
  0
LINE
  5
140
330
137
100
AcDbEntity
  8
1
  6
Continuous
 62
     3
100
AcDbLine
 10
2.500000208737571
 20
5.249999552835725
 30
0.0
 11
2.500000208737571
 21
3.199999552835724
 31
0.0
  0
LINE
  5
141
330
137
100
AcDbEntity
  8
1
  6
Continuous
 62
     3
100
AcDbLine
 10
2.000000208737571
 20
2.699999552835724
 30
0.0
 11
0.5000002087375712
 21
2.699999552835724
 31
0.0
  0
LINE
  5
142
330
137
100
AcDbEntity
  8
1
  6
Continuous
 62
     3
100
AcDbLine
 10
0.0000002087375712
 20
3.199999552835724
 30
0.0
 11
0.0000002087375712
 21
11.49999955283572
 31
0.0
  0
LINE
  5
143
330
137
100
AcDbEntity
  8
1
  6
Continuous
 62
     3
100
AcDbLine
 10
0.5000002087375712
 20
11.99999955283572
 30
0.0
 11
2.000000208737571
 21
11.99999955283572
 31
0.0
  0
LINE
  5
144
330
137
100
AcDbEntity
  8
1
  6
Continuous
 62
     3
100
AcDbLine
 10
2.500000208737571
 20
11.49999955283572
 30
0.0
 11
2.500000208737571
 21
9.749999552835725
 31
0.0
  0
LINE
  5
145
330
137
100
AcDbEntity
  8
1
  6
Continuous
 62
     3
100
AcDbLine
 10
2.600000208737573
 20
9.649999552835723
 30
0.0
 11
4.200000208737571
 21
9.649999552835723
 31
0.0
  0
LINE
  5
146
330
137
100
AcDbEntity
  8
1
  6
Continuous
 62
     3
100
AcDbLine
 10
4.300000208737572
 20
9.749999552835725
 30
0.0
 11
4.300000208737572
 21
13.99999955283572
 31
0.0
  0
LINE
  5
147
330
137
100
AcDbEntity
  8
1
  6
Continuous
 62
     3
100
AcDbLine
 10
4.300000208737572
 20
13.99999955283572
 30
0.0
 11
3.722649939547946
 21
14.99999955283572
 31
0.0
  0
ARC
  5
148
330
137
100
AcDbEntity
  8
1
  6
Continuous
 62
     3
100
AcDbCircle
 10
5.300000208737572
 20
12.49999955283572
 30
0.0
 40
2.5
100
AcDbArc
 50
0.0
 51
90.0
  0
ARC
  5
149
330
137
100
AcDbEntity
  8
1
  6
Continuous
 62
     3
100
AcDbCircle
 10
2.000000208737571
 20
11.49999955283572
 30
0.0
 40
0.5
100
AcDbArc
 50
0.0
 51
90.0
  0
ARC
  5
14A
330
137
100
AcDbEntity
  8
1
  6
Continuous
 62
     3
100
AcDbCircle
 10
0.5000002087375712
 20
11.49999955283572
 30
0.0
 40
0.5
100
AcDbArc
 50
90.0
 51
180.0
  0
ARC
  5
14B
330
137
100
AcDbEntity
  8
1
  6
Continuous
 62
     3
100
AcDbCircle
 10
0.5000002087375712
 20
3.199999552835724
 30
0.0
 40
0.5
100
AcDbArc
 50
180.0
 51
270.0
  0
ARC
  5
14C
330
137
100
AcDbEntity
  8
1
  6
Continuous
 62
     3
100
AcDbCircle
 10
2.000000208737571
 20
3.199999552835724
 30
0.0
 40
0.5
100
AcDbArc
 50
270.0
 51
0.0
  0
ARC
  5
14D
330
137
100
AcDbEntity
  8
1
  6
Continuous
 62
     3
100
AcDbCircle
 10
2.600000208737573
 20
9.749999552835725
 30
0.0
 40
0.1
100
AcDbArc
 50
180.0
 51
270.0
  0
ARC
  5
14E
330
137
100
AcDbEntity
  8
1
  6
Continuous
 62
     3
100
AcDbCircle
 10
4.200000208737571
 20
9.749999552835725
 30
0.0
 40
0.1
100
AcDbArc
 50
270.0
 51
0.0
  0
ARC
  5
14F
330
137
100
AcDbEntity
  8
1
  6
Continuous
 62
     3
100
AcDbCircle
 10
2.600000208737573
 20
5.249999552835725
 30
0.0
 40
0.1
100
AcDbArc
 50
90.0
 51
180.0
  0
ARC
  5
150
330
137
100
AcDbEntity
  8
1
  6
Continuous
 62
     3
100
AcDbCircle
 10
4.200000208737571
 20
5.249999552835725
 30
0.0
 40
0.1
100
AcDbArc
 50
0.0
 51
90.0
  0
ARC
  5
151
330
137
100
AcDbEntity
  8
1
  6
Continuous
 62
     3
100
AcDbCircle
 10
4.550000208737572
 20
0.2499995528357246
 30
0.0
 40
0.25
100
AcDbArc
 50
180.0
 51
270.0
  0
ARC
  5
152
330
137
100
AcDbEntity
  8
1
  6
Continuous
 62
     3
100
AcDbCircle
 10
7.550000208737572
 20
0.2499995528357246
 30
0.0
 40
0.25
100
AcDbArc
 50
270.0
 51
0.0
  0
ENDBLK
  5
139
330
137
100
AcDbEntity
  8
0
100
AcDbBlockEnd
  0
BLOCK
  5
154
330
153
100
AcDbEntity
  8
0
100
AcDbBlockBegin
  2
GEN_BLOCK00002
 70
     0
 71
     0
 10
0.0
 20
0.0
 30
0.0
  3
GEN_BLOCK00002
  1

  0
LINE
  5
157
330
153
100
AcDbEntity
  8
0
  6
Continuous
 62
     3
100
AcDbLine
 10
32.05610741598604
 20
6.30000007451126
 30
0.0
 11
33.54055135248761
 21
6.30000007451126
 31
0.0
  0
LINE
  5
158
330
153
100
AcDbEntity
  8
0
  6
Continuous
 62
     3
100
AcDbLine
 10
33.54055135248761
 20
7.50000007451127
 30
0.0
 11
31.3632870929585
 21
7.500000074511263
 31
0.0
  0
LINE
  5
159
330
153
100
AcDbEntity
  8
0
  6
Continuous
 62
     3
100
AcDbLine
 10
24.2618787819261
 20
7.500000074511263
 30
0.0
 11
20.62501758654585
 21
7.500000074511263
 31
0.0
  0
LINE
  5
15A
330
153
100
AcDbEntity
  8
0
  6
Continuous
 62
     3
100
AcDbLine
 10
31.62309471409382
 20
6.05000007451126
 30
0.0
 11
28.274463152794
 21
0.2500000745112629
 31
0.0
  0
LINE
  5
15B
330
153
100
AcDbEntity
  8
0
  6
Continuous
 62
     3
100
AcDbLine
 10
27.84145045090177
 20
0.0000000745112629
 30
0.0
 11
24.08867370116921
 21
0.0000000745112629
 31
0.0
  0
LINE
  5
15C
330
153
100
AcDbEntity
  8
0
  6
Continuous
 62
     3
100
AcDbLine
 10
23.91546862041233
 20
0.3000000745112601
 30
0.0
 11
25.07016915879157
 21
2.30000007451126
 31
0.0
  0
LINE
  5
15D
330
153
100
AcDbEntity
  8
0
  6
Continuous
 62
     3
100
AcDbLine
 10
25.24337423954846
 20
2.400000074511262
 30
0.0
 11
25.93619456257602
 21
2.400000074511262
 31
0.0
  0
LINE
  5
15E
330
153
100
AcDbEntity
  8
0
  6
Continuous
 62
     3
100
AcDbLine
 10
26.10939964333291
 20
2.100000074511264
 30
0.0
 11
25.58978440106225
 21
1.200000074511266
 31
0.0
  0
LINE
  5
15F
330
153
100
AcDbEntity
  8
0
  6
Continuous
 62
     3
100
AcDbLine
 10
25.58978440106225
 20
1.200000074511266
 30
0.0
 11
27.43730526246904
 21
1.200000074511259
 31
0.0
  0
LINE
  5
160
330
153
100
AcDbEntity
  8
0
  6
Continuous
 62
     3
100
AcDbLine
 10
27.43730526246904
 20
1.200000074511259
 30
0.0
 11
28.5920058008483
 21
3.200000074511266
 31
0.0
  0
LINE
  5
161
330
153
100
AcDbEntity
  8
0
  6
Continuous
 62
     3
100
AcDbLine
 10
28.5920058008483
 20
3.200000074511266
 30
0.0
 11
27.43730526246904
 21
5.200000074511266
 31
0.0
  0
LINE
  5
162
330
153
100
AcDbEntity
  8
0
  6
Continuous
 62
     3
100
AcDbLine
 10
27.43730526246904
 20
5.200000074511266
 30
0.0
 11
25.58978440106225
 21
5.200000074511266
 31
0.0
  0
LINE
  5
163
330
153
100
AcDbEntity
  8
0
  6
Continuous
 62
     3
100
AcDbLine
 10
25.58978440106225
 20
5.200000074511266
 30
0.0
 11
26.10939964333291
 21
4.30000007451126
 31
0.0
  0
LINE
  5
164
330
153
100
AcDbEntity
  8
0
  6
Continuous
 62
     3
100
AcDbLine
 10
25.93619456257602
 20
4.000000074511263
 30
0.0
 11
25.24337423954846
 21
4.000000074511263
 31
0.0
  0
LINE
  5
165
330
153
100
AcDbEntity
  8
0
  6
Continuous
 62
     3
100
AcDbLine
 10
25.07016915879157
 20
4.100000074511264
 30
0.0
 11
23.9443361338718
 21
6.05000007451126
 31
0.0
  0
LINE
  5
166
330
153
100
AcDbEntity
  8
0
  6
Continuous
 62
     3
100
AcDbLine
 10
24.2618787819261
 20
7.500000074511263
 30
0.0
 11
24.69489148381832
 21
6.750000074511263
 31
0.0
  0
LINE
  5
167
330
153
100
AcDbEntity
  8
0
  6
Continuous
 62
     3
100
AcDbLine
 10
25.12790418571053
 20
6.500000074511263
 30
0.0
 11
28.07239055857762
 21
6.500000074511263
 31
0.0
  0
LINE
  5
168
330
153
100
AcDbEntity
  8
0
  6
Continuous
 62
     3
100
AcDbLine
 10
30.64159925647147
 20
6.750000074511263
 30
0.0
 11
31.07461195836369
 21
7.500000074511263
 31
0.0
  0
ARC
  5
169
330
153
100
AcDbEntity
  8
0
  6
Continuous
 62
     3
100
AcDbCircle
 10
27.84145045090177
 20
0.5000000745112629
 30
0.0
 40
0.5
100
AcDbArc
 50
270.0
 51
330.0
  0
ARC
  5
16A
330
153
100
AcDbEntity
  8
0
  6
Continuous
 62
     3
100
AcDbCircle
 10
32.05610741598604
 20
5.80000007451126
 30
0.0
 40
0.5
100
AcDbArc
 50
90.0
 51
150.0
  0
ARC
  5
16B
330
153
100
AcDbEntity
  8
0
  6
Continuous
 62
     3
100
AcDbCircle
 10
25.12790418571053
 20
7.000000074511263
 30
0.0
 40
0.5
100
AcDbArc
 50
210.0
 51
270.0
  0
ARC
  5
16C
330
153
100
AcDbEntity
  8
0
  6
Continuous
 62
     3
100
AcDbCircle
 10
24.08867370116921
 20
0.2000000745112658
 30
0.0
 40
0.2
100
AcDbArc
 50
150.0000000000001
 51
270.0
  0
ARC
  5
16D
330
153
100
AcDbEntity
  8
0
  6
Continuous
 62
     3
100
AcDbCircle
 10
25.24337423954846
 20
2.200000074511266
 30
0.0
 40
0.2
100
AcDbArc
 50
90.0
 51
150.0000000000001
  0
ARC
  5
16E
330
153
100
AcDbEntity
  8
0
  6
Continuous
 62
     3
100
AcDbCircle
 10
25.93619456257602
 20
2.200000074511266
 30
0.0
 40
0.2
100
AcDbArc
 50
330.0000000000001
 51
90.0
  0
ARC
  5
16F
330
153
100
AcDbEntity
  8
0
  6
Continuous
 62
     3
100
AcDbCircle
 10
25.24337423954846
 20
4.200000074511259
 30
0.0
 40
0.2
100
AcDbArc
 50
210.0
 51
270.0
  0
ARC
  5
170
330
153
100
AcDbEntity
  8
0
  6
Continuous
 62
     3
100
AcDbCircle
 10
25.93619456257602
 20
4.200000074511259
 30
0.0
 40
0.2
100
AcDbArc
 50
270.0
 51
30.00000000000003
  0
LINE
  5
171
330
153
100
AcDbEntity
  8
0
  6
Continuous
 62
     1
100
AcDbLine
 10
28.07239055857762
 20
6.500000074511263
 30
0.0
 11
29.28482612387585
 21
4.400000074511262
 31
0.0
  0
LINE
  5
172
330
153
100
AcDbEntity
  8
0
  6
Continuous
 62
     1
100
AcDbLine
 10
29.28482612387585
 20
4.400000074511262
 30
0.0
 11
30.93027439106628
 21
7.250000074511263
 31
0.0
  0
LINE
  5
173
330
153
100
AcDbEntity
  8
0
  6
Continuous
 62
     1
100
AcDbLine
 10
23.79999856657439
 20
6.30000007451126
 30
0.0
 11
25.07016915879157
 21
4.100000074511257
 31
0.0
  0
LINE
  5
174
330
153
100
AcDbEntity
  8
0
  6
Continuous
 62
     1
100
AcDbLine
 10
18.49999856657439
 20
8.600000074511257
 30
0.0
 11
18.49999856657439
 21
7.500000074511263
 31
0.0
  0
LINE
  5
175
330
153
100
AcDbEntity
  8
0
  6
Continuous
 62
     1
100
AcDbLine
 10
18.49999856657439
 20
7.500000074511263
 30
0.0
 11
24.2618787819261
 21
7.500000074511263
 31
0.0
  0
LINE
  5
176
330
153
100
AcDbEntity
  8
0
  6
Continuous
 62
     1
100
AcDbLine
 10
17.79999856657439
 20
6.30000007451126
 30
0.0
 11
23.79999856657439
 21
6.30000007451126
 31
0.0
  0
LINE
  5
177
330
153
100
AcDbEntity
  8
0
  6
Continuous
 62
     1
100
AcDbLine
 10
33.54055135248761
 20
6.30000007451126
 30
0.0
 11
36.49999856657439
 21
6.30000007451126
 31
0.0
  0
LINE
  5
178
330
153
100
AcDbEntity
  8
0
  6
Continuous
 62
     1
100
AcDbLine
 10
33.54055135248761
 20
7.50000007451127
 30
0.0
 11
57.45059414248932
 21
7.500000074511263
 31
0.0
  0
ARC
  5
179
330
153
100
AcDbEntity
  8
0
  6
Continuous
 62
     1
100
AcDbCircle
 10
14.89999856657439
 20
34.55000007451125
 30
0.0
 40
4.140000000000001
100
AcDbArc
 50
237.8998385757974
 51
294.172346649351
  0
LINE
  5
17A
330
153
100
AcDbEntity
  8
0
  6
Continuous
 62
     1
100
AcDbLine
 10
12.69999856657439
 20
31.04292151821971
 30
0.0
 11
12.69999856657439
 21
30.40000007451125
 31
0.0
  0
ARC
  5
17B
330
153
100
AcDbEntity
  8
0
  6
Continuous
 62
     1
100
AcDbCircle
 10
12.09999856657439
 20
30.40000007451125
 30
0.0
 40
0.5999999999999996
100
AcDbArc
 50
180.0
 51
0.0
  0
LINE
  5
17C
330
153
100
AcDbEntity
  8
0
  6
Continuous
 62
     1
100
AcDbLine
 10
11.49999856657439
 20
30.40000007451125
 30
0.0
 11
11.49999856657439
 21
35.88284278698588
 31
0.0
  0
LINE
  5
17D
330
153
100
AcDbEntity
  8
0
  6
Continuous
 62
     1
100
AcDbLine
 10
11.49999856657439
 20
35.88284278698588
 30
0.0
 11
18.65857721033708
 21
43.04142143074856
 31
0.0
  0
ARC
  5
17E
330
153
100
AcDbEntity
  8
0
  6
Continuous
 62
     1
100
AcDbCircle
 10
18.79999856657439
 20
42.90000007451125
 30
0.0
 40
0.2
100
AcDbArc
 50
352.4999999999984
 51
135.0000000000004
  0
ARC
  5
17F
330
153
100
AcDbEntity
  8
0
  6
Continuous
 62
     1
100
AcDbCircle
 10
18.79999856657439
 20
42.90000007451125
 30
0.0
 40
0.2
100
AcDbArc
 50
0.0
 51
135.0000000000002
  0
LINE
  5
180
330
153
100
AcDbEntity
  8
0
  6
Continuous
 62
     1
100
AcDbLine
 10
18.99999856657439
 20
42.90000007451125
 30
0.0
 11
18.49999856657439
 21
41.00764417120934
 31
0.0
  0
LINE
  5
181
330
153
100
AcDbEntity
  8
0
  6
Continuous
 62
     1
100
AcDbLine
 10
18.49999856657439
 20
41.00764417120934
 30
0.0
 11
18.49999856657439
 21
38.50000007451126
 31
0.0
  0
ARC
  5
182
330
153
100
AcDbEntity
  8
0
  6
Continuous
 62
     1
100
AcDbCircle
 10
18.29999856657439
 20
38.50000007451126
 30
0.0
 40
0.2
100
AcDbArc
 50
224.9999999999998
 51
0.0
  0
LINE
  5
183
330
153
100
AcDbEntity
  8
0
  6
Continuous
 62
     1
100
AcDbLine
 10
18.15857721033708
 20
38.35857871827395
 30
0.0
 11
16.91568399152363
 21
39.6014719370874
 31
0.0
  0
LINE
  5
184
330
153
100
AcDbEntity
  8
0
  6
Continuous
 62
     1
100
AcDbLine
 10
16.91568399152363
 20
39.6014719370874
 30
0.0
 11
15.24999856657439
 21
37.93578651213816
 31
0.0
  0
LINE
  5
185
330
153
100
AcDbEntity
  8
0
  6
Continuous
 62
     1
100
AcDbLine
 10
15.24999856657439
 20
37.93578651213816
 30
0.0
 11
15.24999856657439
 21
34.55000007451125
 31
0.0
  0
ARC
  5
186
330
153
100
AcDbEntity
  8
0
  6
Continuous
 62
     1
100
AcDbCircle
 10
14.89999856657439
 20
34.55000007451125
 30
0.0
 40
0.3499999999999996
100
AcDbArc
 50
180.0
 51
0.0
  0
LINE
  5
187
330
153
100
AcDbEntity
  8
0
  6
Continuous
 62
     1
100
AcDbLine
 10
14.54999856657439
 20
34.55000007451125
 30
0.0
 11
14.54999856657439
 21
36.02867973095161
 31
0.0
  0
LINE
  5
188
330
153
100
AcDbEntity
  8
0
  6
Continuous
 62
     1
100
AcDbLine
 10
13.69644517598112
 20
36.38223312154489
 30
0.0
 11
12.84644517598112
 21
35.53223312154489
 31
0.0
  0
LINE
  5
189
330
153
100
AcDbEntity
  8
0
  6
Continuous
 62
     1
100
AcDbLine
 10
12.69999856657439
 20
35.17867973095161
 30
0.0
 11
12.69999856657439
 21
32.73823298131191
 31
0.0
  0
ARC
  5
18A
330
153
100
AcDbEntity
  8
0
  6
Continuous
 62
     1
100
AcDbCircle
 10
14.89999856657439
 20
34.55000007451125
 30
0.0
 40
2.85
100
AcDbArc
 50
219.4724968964416
 51
307.8636463617305
  0
LINE
  5
18B
330
153
100
AcDbEntity
  8
0
  6
Continuous
 62
     1
100
AcDbLine
 10
16.64928413502798
 20
32.30000007451126
 30
0.0
 11
18.49999856657439
 21
32.30000007451126
 31
0.0
  0
LINE
  5
18C
330
153
100
AcDbEntity
  8
0
  6
Continuous
 62
     1
100
AcDbLine
 10
17.29999856657439
 20
30.31684522263069
 30
0.0
 11
17.29999856657439
 21
22.03153540446585
 31
0.0
  0
LINE
  5
18D
330
153
100
AcDbEntity
  8
0
  6
Continuous
 62
     1
100
AcDbLine
 10
16.04999856657439
 20
19.86647189500475
 30
0.0
 11
1.249998566574391
 21
11.32168791099829
 31
0.0
  0
LINE
  5
18E
330
153
100
AcDbEntity
  8
0
  6
Continuous
 62
     1
100
AcDbLine
 10
-0.0000014334256093
 20
9.156624401537194
 30
0.0
 11
-0.0000014334256093
 21
6.900000074511262
 31
0.0
  0
ARC
  5
18F
330
153
100
AcDbEntity
  8
0
  6
Continuous
 62
     1
100
AcDbCircle
 10
0.5999985665743921
 20
6.900000074511262
 30
0.0
 40
0.6000000000000014
100
AcDbArc
 50
270.0
 51
0.0
  0
LINE
  5
190
330
153
100
AcDbEntity
  8
0
  6
Continuous
 62
     1
100
AcDbLine
 10
0.5999985665743921
 20
6.30000007451126
 30
0.0
 11
0.5999985665743921
 21
6.30000007451126
 31
0.0
  0
ARC
  5
191
330
153
100
AcDbEntity
  8
0
  6
Continuous
 62
     1
100
AcDbCircle
 10
0.5999985665743921
 20
6.900000074511262
 30
0.0
 40
0.6000000000000014
100
AcDbArc
 50
180.0
 51
270.0
  0
ARC
  5
192
330
153
100
AcDbEntity
  8
0
  6
Continuous
 62
     1
100
AcDbCircle
 10
0.5999985665743921
 20
6.900000074511262
 30
0.0
 40
0.6000000000000014
100
AcDbArc
 50
180.0
 51
0.0
  0
LINE
  5
193
330
153
100
AcDbEntity
  8
0
  6
Continuous
 62
     1
100
AcDbLine
 10
1.199998566574394
 20
6.900000074511262
 30
0.0
 11
1.199998566574394
 21
9.32982948229408
 31
0.0
  0
LINE
  5
194
330
153
100
AcDbEntity
  8
0
  6
Continuous
 62
     1
100
AcDbLine
 10
1.699998566574394
 20
10.19585488607852
 30
0.0
 11
6.843428706167181
 21
13.16541566173046
 31
0.0
  0
LINE
  5
195
330
153
100
AcDbEntity
  8
0
  6
Continuous
 62
     1
100
AcDbLine
 10
9.575479513736056
 20
12.43336485416157
 30
0.0
 11
10.69170818970892
 21
10.50000007451126
 31
0.0
  0
LINE
  5
196
330
153
100
AcDbEntity
  8
0
  6
Continuous
 62
     1
100
AcDbLine
 10
13.11657932030534
 20
9.100000074511257
 30
0.0
 11
16.79999856657439
 21
9.100000074511257
 31
0.0
  0
LINE
  5
197
330
153
100
AcDbEntity
  8
0
  6
Continuous
 62
     1
100
AcDbLine
 10
17.29999856657439
 20
8.600000074511257
 30
0.0
 11
17.29999856657439
 21
6.80000007451126
 31
0.0
  0
LINE
  5
198
330
153
100
AcDbEntity
  8
0
  6
Continuous
 62
     1
100
AcDbLine
 10
16.79999856657439
 20
10.30000007451126
 30
0.0
 11
13.05884429338638
 21
10.30000007451126
 31
0.0
  0
LINE
  5
199
330
153
100
AcDbEntity
  8
0
  6
Continuous
 62
     1
100
AcDbLine
 10
11.75980618770972
 20
11.05000007451126
 30
0.0
 11
10.61470999827739
 21
13.03336485416158
 31
0.0
  0
LINE
  5
19A
330
153
100
AcDbEntity
  8
0
  6
Continuous
 62
     1
100
AcDbLine
 10
11.34676080584627
 20
15.76541566173046
 30
0.0
 11
16.64999856657439
 21
18.82724141046343
 31
0.0
  0
LINE
  5
19B
330
153
100
AcDbEntity
  8
0
  6
Continuous
 62
     1
100
AcDbLine
 10
18.49999856657439
 20
32.30000007451126
 30
0.0
 11
18.49999856657439
 21
22.03153540446585
 31
0.0
  0
ARC
  5
19C
330
153
100
AcDbEntity
  8
0
  6
Continuous
 62
     1
100
AcDbCircle
 10
16.79999856657439
 20
30.31684522263069
 30
0.0
 40
0.5
100
AcDbArc
 50
0.0
 51
114.172346649351
  0
ARC
  5
19D
330
153
100
AcDbEntity
  8
0
  6
Continuous
 62
     1
100
AcDbCircle
 10
16.79999856657439
 20
8.600000074511257
 30
0.0
 40
0.5
100
AcDbArc
 50
0.0
 51
90.0
  0
ARC
  5
19E
330
153
100
AcDbEntity
  8
0
  6
Continuous
 62
     1
100
AcDbCircle
 10
2.499998566574391
 20
9.156624401537194
 30
0.0
 40
2.5
100
AcDbArc
 50
120.0
 51
180.0
  0
ARC
  5
19F
330
153
100
AcDbEntity
  8
0
  6
Continuous
 62
     1
100
AcDbCircle
 10
14.79999856657439
 20
22.03153540446585
 30
0.0
 40
2.5
100
AcDbArc
 50
300.0
 51
0.0
  0
ARC
  5
1A0
330
153
100
AcDbEntity
  8
0
  6
Continuous
 62
     1
100
AcDbCircle
 10
7.843428706167181
 20
11.43336485416157
 30
0.0
 40
2.0
100
AcDbArc
 50
30.00000000000003
 51
120.0
  0
ARC
  5
1A1
330
153
100
AcDbEntity
  8
0
  6
Continuous
 62
     1
100
AcDbCircle
 10
12.34676080584627
 20
14.03336485416158
 30
0.0
 40
2.0
100
AcDbArc
 50
120.0
 51
210.0
  0
ARC
  5
1A2
330
153
100
AcDbEntity
  8
0
  6
Continuous
 62
     1
100
AcDbCircle
 10
13.11657932030534
 20
11.90000007451126
 30
0.0
 40
2.8
100
AcDbArc
 50
210.0000000000001
 51
270.0
  0
ARC
  5
1A3
330
153
100
AcDbEntity
  8
0
  6
Continuous
 62
     1
100
AcDbCircle
 10
2.199998566574394
 20
9.32982948229408
 30
0.0
 40
1.0
100
AcDbArc
 50
120.0
 51
180.0
  0
ARC
  5
1A4
330
153
100
AcDbEntity
  8
0
  6
Continuous
 62
     1
100
AcDbCircle
 10
13.05884429338638
 20
11.80000007451126
 30
0.0
 40
1.5
100
AcDbArc
 50
210.0000000000001
 51
270.0
  0
ARC
  5
1A5
330
153
100
AcDbEntity
  8
0
  6
Continuous
 62
     1
100
AcDbCircle
 10
14.79999856657439
 20
22.03153540446585
 30
0.0
 40
3.7
100
AcDbArc
 50
300.0
 51
0.0
  0
ARC
  5
1A6
330
153
100
AcDbEntity
  8
0
  6
Continuous
 62
     1
100
AcDbCircle
 10
14.04999856657439
 20
36.02867973095161
 30
0.0
 40
0.5
100
AcDbArc
 50
0.0
 51
135.0000000000001
  0
ARC
  5
1A7
330
153
100
AcDbEntity
  8
0
  6
Continuous
 62
     1
100
AcDbCircle
 10
13.19999856657439
 20
35.17867973095161
 30
0.0
 40
0.5
100
AcDbArc
 50
135.0000000000001
 51
180.0
  0
ARC
  5
1A8
330
153
100
AcDbEntity
  8
0
  6
Continuous
 62
     1
100
AcDbCircle
 10
57.97499856657439
 20
7.475000074511264
 30
0.0
 40
0.5249999999999984
100
AcDbArc
 50
0.0
 51
177.2705973632215
  0
LINE
  5
1A9
330
153
100
AcDbEntity
  8
0
  6
Continuous
 62
     1
100
AcDbLine
 10
58.49999856657439
 20
7.475000074511264
 30
0.0
 11
58.49999856657439
 21
4.200000074511259
 31
0.0
  0
LINE
  5
1AA
330
153
100
AcDbEntity
  8
0
  6
Continuous
 62
     1
100
AcDbLine
 10
57.49999856657439
 20
3.200000074511259
 30
0.0
 11
56.09999856657439
 21
3.200000074511259
 31
0.0
  0
ARC
  5
1AB
330
153
100
AcDbEntity
  8
0
  6
Continuous
 62
     1
100
AcDbCircle
 10
56.09999856657439
 20
3.700000074511259
 30
0.0
 40
0.5
100
AcDbArc
 50
90.0
 51
270.0
  0
LINE
  5
1AC
330
153
100
AcDbEntity
  8
0
  6
Continuous
 62
     1
100
AcDbLine
 10
56.09999856657439
 20
4.200000074511259
 30
0.0
 11
56.3999985665744
 21
4.200000074511266
 31
0.0
  0
ARC
  5
1AD
330
153
100
AcDbEntity
  8
0
  6
Continuous
 62
     1
100
AcDbCircle
 10
56.3999985665744
 20
5.250000074511263
 30
0.0
 40
1.049999999999997
100
AcDbArc
 50
270.0
 51
90.0
  0
LINE
  5
1AE
330
153
100
AcDbEntity
  8
0
  6
Continuous
 62
     1
100
AcDbLine
 10
56.3999985665744
 20
6.30000007451126
 30
0.0
 11
52.49999856657439
 21
6.30000007451126
 31
0.0
  0
ARC
  5
1AF
330
153
100
AcDbEntity
  8
0
  6
Continuous
 62
     1
100
AcDbCircle
 10
52.49999856657439
 20
5.250000074511256
 30
0.0
 40
1.050000000000004
100
AcDbArc
 50
90.0
 51
270.0
  0
LINE
  5
1B0
330
153
100
AcDbEntity
  8
0
  6
Continuous
 62
     1
100
AcDbLine
 10
52.49999856657439
 20
4.200000074511252
 30
0.0
 11
52.79999856657439
 21
4.200000074511259
 31
0.0
  0
ARC
  5
1B1
330
153
100
AcDbEntity
  8
0
  6
Continuous
 62
     1
100
AcDbCircle
 10
52.79999856657439
 20
3.700000074511259
 30
0.0
 40
0.5
100
AcDbArc
 50
270.0
 51
90.0
  0
LINE
  5
1B2
330
153
100
AcDbEntity
  8
0
  6
Continuous
 62
     1
100
AcDbLine
 10
52.79999856657439
 20
3.200000074511259
 30
0.0
 11
51.39999856657439
 21
3.200000074511259
 31
0.0
  0
LINE
  5
1B3
330
153
100
AcDbEntity
  8
0
  6
Continuous
 62
     1
100
AcDbLine
 10
50.39999856657439
 20
4.200000074511259
 30
0.0
 11
50.39999856657439
 21
5.30000007451126
 31
0.0
  0
LINE
  5
1B4
330
153
100
AcDbEntity
  8
0
  6
Continuous
 62
     1
100
AcDbLine
 10
49.39999856657439
 20
6.30000007451126
 30
0.0
 11
48.89999856657439
 21
6.30000007451126
 31
0.0
  0
LINE
  5
1B5
330
153
100
AcDbEntity
  8
0
  6
Continuous
 62
     1
100
AcDbLine
 10
47.89999856657439
 20
5.30000007451126
 30
0.0
 11
47.89999856657439
 21
4.200000074511252
 31
0.0
  0
LINE
  5
1B6
330
153
100
AcDbEntity
  8
0
  6
Continuous
 62
     1
100
AcDbLine
 10
46.89999856657439
 20
3.200000074511252
 30
0.0
 11
45.49999856657439
 21
3.200000074511252
 31
0.0
  0
ARC
  5
1B7
330
153
100
AcDbEntity
  8
0
  6
Continuous
 62
     1
100
AcDbCircle
 10
45.49999856657439
 20
3.700000074511259
 30
0.0
 40
0.5000000000000036
100
AcDbArc
 50
90.0
 51
270.0
  0
LINE
  5
1B8
330
153
100
AcDbEntity
  8
0
  6
Continuous
 62
     1
100
AcDbLine
 10
45.49999856657439
 20
4.200000074511259
 30
0.0
 11
45.79999856657439
 21
4.200000074511259
 31
0.0
  0
ARC
  5
1B9
330
153
100
AcDbEntity
  8
0
  6
Continuous
 62
     1
100
AcDbCircle
 10
45.79999856657439
 20
5.250000074511263
 30
0.0
 40
1.050000000000001
100
AcDbArc
 50
270.0
 51
90.0
  0
LINE
  5
1BA
330
153
100
AcDbEntity
  8
0
  6
Continuous
 62
     1
100
AcDbLine
 10
45.79999856657439
 20
6.30000007451126
 30
0.0
 11
41.89999856657439
 21
6.30000007451126
 31
0.0
  0
ARC
  5
1BB
330
153
100
AcDbEntity
  8
0
  6
Continuous
 62
     1
100
AcDbCircle
 10
41.89999856657439
 20
5.250000074511256
 30
0.0
 40
1.050000000000001
100
AcDbArc
 50
90.0
 51
270.0
  0
LINE
  5
1BC
330
153
100
AcDbEntity
  8
0
  6
Continuous
 62
     1
100
AcDbLine
 10
41.89999856657439
 20
4.200000074511259
 30
0.0
 11
42.19999856657439
 21
4.200000074511259
 31
0.0
  0
ARC
  5
1BD
330
153
100
AcDbEntity
  8
0
  6
Continuous
 62
     1
100
AcDbCircle
 10
42.19999856657439
 20
3.700000074511266
 30
0.0
 40
0.4999999999999964
100
AcDbArc
 50
270.0
 51
90.0
  0
LINE
  5
1BE
330
153
100
AcDbEntity
  8
0
  6
Continuous
 62
     1
100
AcDbLine
 10
42.19999856657439
 20
3.200000074511266
 30
0.0
 11
40.79999856657439
 21
3.200000074511259
 31
0.0
  0
LINE
  5
1BF
330
153
100
AcDbEntity
  8
0
  6
Continuous
 62
     1
100
AcDbLine
 10
39.79999856657439
 20
4.200000074511259
 30
0.0
 11
39.79999856657439
 21
5.30000007451126
 31
0.0
  0
ARC
  5
1C0
330
153
100
AcDbEntity
  8
0
  6
Continuous
 62
     1
100
AcDbCircle
 10
40.79999856657439
 20
4.200000074511259
 30
0.0
 40
1.0
100
AcDbArc
 50
180.0
 51
270.0
  0
ARC
  5
1C1
330
153
100
AcDbEntity
  8
0
  6
Continuous
 62
     1
100
AcDbCircle
 10
46.89999856657439
 20
4.200000074511252
 30
0.0
 40
1.0
100
AcDbArc
 50
270.0
 51
0.0
  0
ARC
  5
1C2
330
153
100
AcDbEntity
  8
0
  6
Continuous
 62
     1
100
AcDbCircle
 10
48.89999856657439
 20
5.30000007451126
 30
0.0
 40
1.0
100
AcDbArc
 50
90.0
 51
180.0
  0
ARC
  5
1C3
330
153
100
AcDbEntity
  8
0
  6
Continuous
 62
     1
100
AcDbCircle
 10
49.39999856657439
 20
5.30000007451126
 30
0.0
 40
1.0
100
AcDbArc
 50
0.0
 51
90.0
  0
ARC
  5
1C4
330
153
100
AcDbEntity
  8
0
  6
Continuous
 62
     1
100
AcDbCircle
 10
51.39999856657439
 20
4.200000074511259
 30
0.0
 40
1.0
100
AcDbArc
 50
180.0
 51
270.0
  0
ARC
  5
1C5
330
153
100
AcDbEntity
  8
0
  6
Continuous
 62
     1
100
AcDbCircle
 10
57.49999856657439
 20
4.200000074511259
 30
0.0
 40
1.0
100
AcDbArc
 50
270.0
 51
0.0
  0
LINE
  5
1C6
330
153
100
AcDbEntity
  8
0
  6
Continuous
 62
     1
100
AcDbLine
 10
36.49999856657439
 20
6.30000007451126
 30
0.0
 11
36.79999856657439
 21
6.600000074511257
 31
0.0
  0
LINE
  5
1C7
330
153
100
AcDbEntity
  8
0
  6
Continuous
 62
     1
100
AcDbLine
 10
36.79999856657439
 20
6.600000074511257
 30
0.0
 11
37.09999856657438
 21
6.30000007451126
 31
0.0
  0
LINE
  5
1C8
330
153
100
AcDbEntity
  8
0
  6
Continuous
 62
     1
100
AcDbLine
 10
37.09999856657438
 20
6.30000007451126
 30
0.0
 11
38.79999856657439
 21
6.30000007451126
 31
0.0
  0
ARC
  5
1C9
330
153
100
AcDbEntity
  8
0
  6
Continuous
 62
     1
100
AcDbCircle
 10
38.79999856657439
 20
5.30000007451126
 30
0.0
 40
1.0
100
AcDbArc
 50
0.0
 51
90.0
  0
ARC
  5
1CA
330
153
100
AcDbEntity
  8
0
  6
Continuous
 62
     1
100
AcDbCircle
 10
16.79999856657439
 20
8.600000074511257
 30
0.0
 40
1.7
100
AcDbArc
 50
0.0
 51
90.0
  0
ARC
  5
1CB
330
153
100
AcDbEntity
  8
0
  6
Continuous
 62
     1
100
AcDbCircle
 10
17.79999856657439
 20
6.80000007451126
 30
0.0
 40
0.5
100
AcDbArc
 50
180.0
 51
270.0
  0
ARC
  5
1CC
330
153
100
AcDbEntity
  8
0
  6
Continuous
 62
     3
100
AcDbCircle
 10
31.3632870929585
 20
7.000000074511263
 30
0.0
 40
0.5
100
AcDbArc
 50
90.0
 51
149.9999999999999
  0
ENDBLK
  5
155
330
153
100
AcDbEntity
  8
0
100
AcDbBlockEnd
  0
BLOCK
  5
1CE
330
1CD
100
AcDbEntity
  8
0
100
AcDbBlockBegin
  2
GEN_BLOCK00003
 70
     0
 71
     0
 10
0.0
 20
0.0
 30
0.0
  3
GEN_BLOCK00003
  1

  0
LINE
  5
1D1
330
1CD
100
AcDbEntity
  8
1
  6
Continuous
 62
     3
100
AcDbLine
 10
0.500000449381119
 20
9.200000003026307
 30
0.0
 11
0.500000449381119
 21
8.450000003026307
 31
0.0
  0
LINE
  5
1D2
330
1CD
100
AcDbEntity
  8
1
  6
Continuous
 62
     3
100
AcDbLine
 10
1.000000449381119
 20
7.950000003026307
 30
0.0
 11
2.05000044938112
 21
7.950000003026307
 31
0.0
  0
LINE
  5
1D3
330
1CD
100
AcDbEntity
  8
1
  6
Continuous
 62
     3
100
AcDbLine
 10
2.250000449381119
 20
7.750000003026308
 30
0.0
 11
2.250000449381119
 21
6.964073171037711
 31
0.0
  0
LINE
  5
1D4
330
1CD
100
AcDbEntity
  8
1
  6
Continuous
 62
     3
100
AcDbLine
 10
2.031898843355837
 20
6.551116399117847
 30
0.0
 11
0.2181020554063995
 21
5.312956774946173
 31
0.0
  0
ARC
  5
1D5
330
1CD
100
AcDbEntity
  8
1
  6
Continuous
 62
     3
100
AcDbCircle
 10
0.5000004493811172
 20
4.900000003026307
 30
0.0
 40
0.5
100
AcDbArc
 50
124.3187797717067
 51
219.7872869722
  0
LINE
  5
1D6
330
1CD
100
AcDbEntity
  8
1
  6
Continuous
 62
     3
100
AcDbLine
 10
0.1157876819290333
 20
4.580030396146512
 30
0.0
 11
3.405255763298822
 21
0.6301063789470227
 31
0.0
  0
ARC
  5
1D7
330
1CD
100
AcDbEntity
  8
1
  6
Continuous
 62
     3
100
AcDbCircle
 10
4.750000449381116
 20
1.750000003026306
 30
0.0
 40
1.75
100
AcDbArc
 50
219.7872869722001
 51
306.869897645844
  0
ARC
  5
1D8
330
1CD
100
AcDbEntity
  8
1
  6
Continuous
 62
     3
100
AcDbCircle
 10
4.750000449381116
 20
1.750000003026306
 30
0.0
 40
1.75
100
AcDbArc
 50
219.7872869722001
 51
270.0
  0
ARC
  5
1D9
330
1CD
100
AcDbEntity
  8
1
  6
Continuous
 62
     3
100
AcDbCircle
 10
4.750000449381116
 20
1.750000003026306
 30
0.0
 40
1.75
100
AcDbArc
 50
270.0
 51
295.3769335251523
  0
ARC
  5
1DA
330
1CD
100
AcDbEntity
  8
1
  6
Continuous
 62
     3
100
AcDbCircle
 10
5.500000449381117
 20
0.7500000030263081
 30
0.0
 40
0.5
100
AcDbArc
 50
306.8698976458439
 51
126.869897645844
  0
ARC
  5
1DB
330
1CD
100
AcDbEntity
  8
1
  6
Continuous
 62
     3
100
AcDbCircle
 10
5.500000449381117
 20
0.7500000030263081
 30
0.0
 40
0.5
100
AcDbArc
 50
306.8698976458439
 51
126.869897645844
  0
ARC
  5
1DC
330
1CD
100
AcDbEntity
  8
1
  6
Continuous
 62
     3
100
AcDbCircle
 10
4.750000449381116
 20
1.750000003026306
 30
0.0
 40
0.7500000000000001
100
AcDbArc
 50
214.37444434787
 51
306.8698976458442
  0
LINE
  5
1DD
330
1CD
100
AcDbEntity
  8
1
  6
Continuous
 62
     3
100
AcDbLine
 10
4.130976392945394
 20
1.326550811795689
 30
0.0
 11
1.802390826806828
 21
4.730620326534062
 31
0.0
  0
ARC
  5
1DE
330
1CD
100
AcDbEntity
  8
1
  6
Continuous
 62
     3
100
AcDbCircle
 10
2.05000044938112
 20
4.900000003026307
 30
0.0
 40
0.3
100
AcDbArc
 50
107.0952722837861
 51
214.3744443478693
  0
LINE
  5
1DF
330
1CD
100
AcDbEntity
  8
1
  6
Continuous
 62
     3
100
AcDbLine
 10
1.96181201206452
 20
5.186745185241557
 30
0.0
 11
3.15275419864751
 21
5.553019274165312
 31
0.0
  0
ARC
  5
1E0
330
1CD
100
AcDbEntity
  8
1
  6
Continuous
 62
     3
100
AcDbCircle
 10
2.800000449381118
 20
6.700000003026307
 30
0.0
 40
1.2
100
AcDbArc
 50
287.0952722837858
 51
0.0
  0
LINE
  5
1E1
330
1CD
100
AcDbEntity
  8
1
  6
Continuous
 62
     3
100
AcDbLine
 10
4.000000449381118
 20
6.700000003026307
 30
0.0
 11
4.000000449381119
 21
7.750000003026307
 31
0.0
  0
LINE
  5
1E2
330
1CD
100
AcDbEntity
  8
1
  6
Continuous
 62
     3
100
AcDbLine
 10
4.200000449381119
 20
7.950000003026307
 30
0.0
 11
5.000000449381119
 21
7.950000003026307
 31
0.0
  0
LINE
  5
1E3
330
1CD
100
AcDbEntity
  8
1
  6
Continuous
 62
     3
100
AcDbLine
 10
5.500000449381119
 20
8.450000003026307
 30
0.0
 11
5.500000449381119
 21
9.200000003026307
 31
0.0
  0
LINE
  5
1E4
330
1CD
100
AcDbEntity
  8
1
  6
Continuous
 62
     3
100
AcDbLine
 10
5.000000449381119
 20
9.700000003026307
 30
0.0
 11
1.000000449381119
 21
9.700000003026307
 31
0.0
  0
ARC
  5
1E5
330
1CD
100
AcDbEntity
  8
1
  6
Continuous
 62
     3
100
AcDbCircle
 10
1.750000449381119
 20
6.964073171037711
 30
0.0
 40
0.5
100
AcDbArc
 50
304.3187797717068
 51
0.0
  0
ARC
  5
1E6
330
1CD
100
AcDbEntity
  8
1
  6
Continuous
 62
     3
100
AcDbCircle
 10
1.000000449381119
 20
8.450000003026307
 30
0.0
 40
0.5
100
AcDbArc
 50
180.0
 51
270.0
  0
ARC
  5
1E7
330
1CD
100
AcDbEntity
  8
1
  6
Continuous
 62
     3
100
AcDbCircle
 10
1.000000449381119
 20
9.200000003026307
 30
0.0
 40
0.5
100
AcDbArc
 50
90.0
 51
180.0
  0
ARC
  5
1E8
330
1CD
100
AcDbEntity
  8
1
  6
Continuous
 62
     3
100
AcDbCircle
 10
5.000000449381119
 20
9.200000003026307
 30
0.0
 40
0.5
100
AcDbArc
 50
0.0
 51
90.0
  0
ARC
  5
1E9
330
1CD
100
AcDbEntity
  8
1
  6
Continuous
 62
     3
100
AcDbCircle
 10
5.000000449381119
 20
8.450000003026307
 30
0.0
 40
0.5
100
AcDbArc
 50
270.0
 51
0.0
  0
ARC
  5
1EA
330
1CD
100
AcDbEntity
  8
1
  6
Continuous
 62
     3
100
AcDbCircle
 10
2.05000044938112
 20
7.750000003026308
 30
0.0
 40
0.2
100
AcDbArc
 50
0.0
 51
90.0
  0
ARC
  5
1EB
330
1CD
100
AcDbEntity
  8
1
  6
Continuous
 62
     3
100
AcDbCircle
 10
4.200000449381119
 20
7.750000003026307
 30
0.0
 40
0.2
100
AcDbArc
 50
90.0
 51
180.0
  0
LINE
  5
1EC
330
1CD
100
AcDbEntity
  8
1
  6
Continuous
 62
     3
100
AcDbLine
 10
0.500000449381119
 20
9.680000003026308
 30
0.0
 11
0.500000449381119
 21
9.720000003026307
 31
0.0
  0
LINE
  5
1ED
330
1CD
100
AcDbEntity
  8
1
  6
Continuous
 62
     3
100
AcDbLine
 10
0.4800004493811194
 20
9.700000003026307
 30
0.0
 11
0.5200004493811186
 21
9.700000003026307
 31
0.0
  0
LINE
  5
1EE
330
1CD
100
AcDbEntity
  8
1
  6
Continuous
 62
     3
100
AcDbLine
 10
3.000000449381119
 20
9.680000003026308
 30
0.0
 11
3.000000449381119
 21
9.720000003026307
 31
0.0
  0
LINE
  5
1EF
330
1CD
100
AcDbEntity
  8
1
  6
Continuous
 62
     3
100
AcDbLine
 10
5.500000449381119
 20
9.680000003026308
 30
0.0
 11
5.500000449381119
 21
9.720000003026307
 31
0.0
  0
LINE
  5
1F0
330
1CD
100
AcDbEntity
  8
1
  6
Continuous
 62
     3
100
AcDbLine
 10
5.480000449381119
 20
9.700000003026307
 30
0.0
 11
5.520000449381119
 21
9.700000003026307
 31
0.0
  0
ENDBLK
  5
1CF
330
1CD
100
AcDbEntity
  8
0
100
AcDbBlockEnd
  0
BLOCK
  5
1F3
330
1F2
100
AcDbEntity
  8
0
100
AcDbBlockBegin
  2
GEN_BLOCK00004
 70
     0
 71
     0
 10
0.0
 20
0.0
 30
0.0
  3
GEN_BLOCK00004
  1

  0
LINE
  5
1F6
330
1F2
100
AcDbEntity
  8
GEN_LAYER
  6
Continuous
 62
     3
100
AcDbLine
 10
2.402680766390134
 20
1.197762234150332
 30
0.0
 11
2.336943146652516
 21
1.197762234150332
 31
0.0
  0
LINE
  5
1F7
330
1F2
100
AcDbEntity
  8
GEN_LAYER
  6
Continuous
 62
     3
100
AcDbLine
 10
11.1251867303947
 20
7.180000113908029
 30
0.0
 11
12.13554970147655
 21
5.430000113908029
 31
0.0
  0
LINE
  5
1F8
330
1F2
100
AcDbEntity
  8
GEN_LAYER
  6
Continuous
 62
     3
100
AcDbLine
 10
12.13554970147655
 20
5.430000113908029
 30
0.0
 11
11.1251867303947
 21
3.680000113908022
 31
0.0
  0
LINE
  5
1F9
330
1F2
100
AcDbEntity
  8
GEN_LAYER
  6
Continuous
 62
     3
100
AcDbLine
 10
11.1251867303947
 20
3.680000113908022
 30
0.0
 11
9.855016138177518
 21
3.680000113908022
 31
0.0
  0
LINE
  5
1FA
330
1F2
100
AcDbEntity
  8
GEN_LAYER
  6
Continuous
 62
     3
100
AcDbLine
 10
9.855016138177518
 20
3.680000113908022
 30
0.0
 11
10.54783646120507
 21
4.880000113908025
 31
0.0
  0
LINE
  5
1FB
330
1F2
100
AcDbEntity
  8
GEN_LAYER
  6
Continuous
 62
     3
100
AcDbLine
 10
10.54783646120507
 20
4.880000113908025
 30
0.0
 11
8.815785653636198
 21
4.880000113908025
 31
0.0
  0
LINE
  5
1FC
330
1F2
100
AcDbEntity
  8
GEN_LAYER
  6
Continuous
 62
     3
100
AcDbLine
 10
8.815785653636198
 20
4.880000113908025
 30
0.0
 11
5.998316339990822
 21
0.0000001139080297
 31
0.0
  0
LINE
  5
1FD
330
1F2
100
AcDbEntity
  8
GEN_LAYER
  6
Continuous
 62
     3
100
AcDbLine
 10
5.998316339990822
 20
0.0000001139080297
 30
0.0
 11
5.081112976563233
 21
0.0000001139080297
 31
0.0
  0
LINE
  5
1FE
330
1F2
100
AcDbEntity
  8
GEN_LAYER
  6
Continuous
 62
     3
100
AcDbLine
 10
3.252679577205441
 20
0.0000001139080297
 30
0.0
 11
2.929651316614297
 21
0.0000001139080297
 31
0.0
  0
LINE
  5
1FF
330
1F2
100
AcDbEntity
  8
GEN_LAYER
  6
Continuous
 62
     3
100
AcDbLine
 10
0.0000005781022168
 20
7.573643491550215
 30
0.0
 11
0.0286701180041149
 21
7.602313031452113
 31
0.0
  0
LINE
  5
200
330
1F2
100
AcDbEntity
  8
GEN_LAYER
  6
Continuous
 62
     3
100
AcDbLine
 10
0.0286701180041149
 20
7.602313031452113
 30
0.0
 11
0.3999484250940668
 21
7.911711620693744
 31
0.0
  0
LINE
  5
201
330
1F2
100
AcDbEntity
  8
GEN_LAYER
  6
Continuous
 62
     3
100
AcDbLine
 10
0.3999484250940668
 20
7.911711620693744
 30
0.0
 11
0.8949861678806741
 21
7.973591338542072
 31
0.0
  0
LINE
  5
202
330
1F2
100
AcDbEntity
  8
GEN_LAYER
  6
Continuous
 62
     3
100
AcDbLine
 10
0.8949861678806741
 20
7.973591338542072
 30
0.0
 11
7.661085115256938
 21
7.980000113908027
 31
0.0
  0
LINE
  5
203
330
1F2
100
AcDbEntity
  8
GEN_LAYER
  6
Continuous
 62
     3
100
AcDbLine
 10
7.661085115256938
 20
7.980000113908027
 30
0.0
 11
8.815785653636198
 21
5.980000113908027
 31
0.0
  0
LINE
  5
204
330
1F2
100
AcDbEntity
  8
GEN_LAYER
  6
Continuous
 62
     3
100
AcDbLine
 10
8.815785653636198
 20
5.980000113908027
 30
0.0
 11
10.54783646120508
 21
5.980000113908027
 31
0.0
  0
LINE
  5
205
330
1F2
100
AcDbEntity
  8
GEN_LAYER
  6
Continuous
 62
     3
100
AcDbLine
 10
10.54783646120508
 20
5.980000113908027
 30
0.0
 11
9.855016138177518
 21
7.180000113908029
 31
0.0
  0
LINE
  5
206
330
1F2
100
AcDbEntity
  8
GEN_LAYER
  6
Continuous
 62
     3
100
AcDbLine
 10
9.855016138177518
 20
7.180000113908029
 30
0.0
 11
11.1251867303947
 21
7.180000113908029
 31
0.0
  0
LINE
  5
207
330
1F2
100
AcDbEntity
  8
GEN_LAYER
  6
Continuous
 62
     3
100
AcDbLine
 10
6.618860068850879
 20
6.76693684049971
 30
0.0
 11
2.472918973012995
 21
6.797876699423867
 31
0.0
  0
LINE
  5
208
330
1F2
100
AcDbEntity
  8
GEN_LAYER
  6
Continuous
 62
     3
100
AcDbLine
 10
2.472918973012995
 20
6.797876699423867
 30
0.0
 11
1.91600151237806
 21
6.766936840499711
 31
0.0
  0
LINE
  5
209
330
1F2
100
AcDbEntity
  8
GEN_LAYER
  6
Continuous
 62
     3
100
AcDbLine
 10
5.6457276557299
 20
2.187757015912208
 30
0.0
 11
7.113897811637486
 21
4.910545305049915
 31
0.0
  0
LINE
  5
20A
330
1F2
100
AcDbEntity
  8
GEN_LAYER
  6
Continuous
 62
     3
100
AcDbLine
 10
7.113897811637486
 20
4.910545305049915
 30
0.0
 11
6.835439081320018
 21
5.869680931698973
 31
0.0
  0
LINE
  5
20B
330
1F2
100
AcDbEntity
  8
GEN_LAYER
  6
Continuous
 62
     3
100
AcDbLine
 10
6.835439081320018
 20
5.869680931698973
 30
0.0
 11
6.618860068850879
 21
6.643177404803055
 31
0.0
  0
LINE
  5
20C
330
1F2
100
AcDbEntity
  8
GEN_LAYER
  6
Continuous
 62
     3
100
AcDbLine
 10
6.618860068850879
 20
6.643177404803055
 30
0.0
 11
6.52604049207838
 21
6.797876699423867
 31
0.0
  0
ENDBLK
  5
1F4
330
1F2
100
AcDbEntity
  8
0
100
AcDbBlockEnd
  0
BLOCK
  5
20E
330
20D
100
AcDbEntity
  8
0
100
AcDbBlockBegin
  2
GEN_BLOCK00005
 70
     0
 71
     0
 10
0.0
 20
0.0
 30
0.0
  3
GEN_BLOCK00005
  1

  0
LINE
  5
211
330
20D
100
AcDbEntity
  8
GEN_LAYER
  6
Continuous
 62
     1
100
AcDbLine
 10
0.1334635649905351
 20
7.740855510170139
 30
0.0
 11
0.0000005324490289
 21
6.940077314921112
 31
0.0
  0
LINE
  5
212
330
20D
100
AcDbEntity
  8
GEN_LAYER
  6
Continuous
 62
     1
100
AcDbLine
 10
0.0000005324490289
 20
6.940077314921112
 30
0.0
 11
0.4671211463442972
 21
6.539688217296604
 31
0.0
  0
LINE
  5
213
330
20D
100
AcDbEntity
  8
GEN_LAYER
  6
Continuous
 62
     1
100
AcDbLine
 10
0.4671211463442972
 20
6.539688217296604
 30
0.0
 11
1.067704792781065
 21
6.372859426619719
 31
0.0
  0
LINE
  5
214
330
20D
100
AcDbEntity
  8
GEN_LAYER
  6
Continuous
 62
     1
100
AcDbLine
 10
1.067704792781065
 20
6.372859426619719
 30
0.0
 11
1.935214504300838
 21
6.139299119672085
 31
0.0
  0
LINE
  5
215
330
20D
100
AcDbEntity
  8
GEN_LAYER
  6
Continuous
 62
     1
100
AcDbLine
 10
1.935214504300838
 20
6.139299119672085
 30
0.0
 11
2.435700876331481
 21
5.772275780182952
 31
0.0
  0
LINE
  5
216
330
20D
100
AcDbEntity
  8
GEN_LAYER
  6
Continuous
 62
     1
100
AcDbLine
 10
2.435700876331481
 20
5.772275780182952
 30
0.0
 11
2.669261183279112
 21
4.838034552392422
 31
0.0
  0
LINE
  5
217
330
20D
100
AcDbEntity
  8
GEN_LAYER
  6
Continuous
 62
     1
100
AcDbLine
 10
2.669261183279112
 20
4.838034552392422
 30
0.0
 11
2.769358457685243
 21
3.470038468842002
 31
0.0
  0
LINE
  5
218
330
20D
100
AcDbEntity
  8
GEN_LAYER
  6
Continuous
 62
     1
100
AcDbLine
 10
2.769358457685243
 20
3.470038468842002
 30
0.0
 11
2.669261183279112
 21
2.435699966645345
 31
0.0
  0
LINE
  5
219
330
20D
100
AcDbEntity
  8
GEN_LAYER
  6
Continuous
 62
     1
100
AcDbLine
 10
2.669261183279112
 20
2.435699966645345
 30
0.0
 11
2.535798150737612
 21
1.46809298071944
 31
0.0
  0
LINE
  5
21A
330
20D
100
AcDbEntity
  8
GEN_LAYER
  6
HIDDEN
 62
     1
100
AcDbLine
 10
2.535798150737612
 20
1.46809298071944
 30
0.0
 11
2.469066634466856
 21
0.6673147854704133
 31
0.0
  0
LINE
  5
21B
330
20D
100
AcDbEntity
  8
GEN_LAYER
  6
HIDDEN
 62
     1
100
AcDbLine
 10
2.469066634466856
 20
0.6673147854704133
 30
0.0
 11
2.469066634466856
 21
-0.0000003772371073
 31
0.0
  0
LINE
  5
21C
330
20D
100
AcDbEntity
  8
GEN_LAYER
  6
Continuous
 62
     1
100
AcDbLine
 10
2.469066634466856
 20
-0.0000003772371073
 30
0.0
 11
3.970525750558778
 21
0.1000968971690206
 31
0.0
  0
LINE
  5
21D
330
20D
100
AcDbEntity
  8
GEN_LAYER
  6
Continuous
 62
     1
100
AcDbLine
 10
3.970525750558778
 20
0.1000968971690206
 30
0.0
 11
4.204086057506416
 21
0.6005832691996602
 31
0.0
  0
LINE
  5
21E
330
20D
100
AcDbEntity
  8
GEN_LAYER
  6
Continuous
 62
     1
100
AcDbLine
 10
4.204086057506416
 20
0.6005832691996602
 30
0.0
 11
4.30418333191254
 21
1.267898431907184
 31
0.0
  0
LINE
  5
21F
330
20D
100
AcDbEntity
  8
GEN_LAYER
  6
Continuous
 62
     1
100
AcDbLine
 10
4.30418333191254
 20
1.267898431907184
 30
0.0
 11
4.537743638860171
 21
2.335602692239217
 31
0.0
  0
LINE
  5
220
330
20D
100
AcDbEntity
  8
GEN_LAYER
  6
Continuous
 62
     1
100
AcDbLine
 10
4.537743638860171
 20
2.335602692239217
 30
0.0
 11
4.838035462078558
 21
1.46809298071944
 31
0.0
  0
LINE
  5
221
330
20D
100
AcDbEntity
  8
GEN_LAYER
  6
Continuous
 62
     1
100
AcDbLine
 10
4.838035462078558
 20
1.46809298071944
 30
0.0
 11
4.93813273648469
 21
0.6005832691996602
 31
0.0
  0
LINE
  5
222
330
20D
100
AcDbEntity
  8
GEN_LAYER
  6
Continuous
 62
     1
100
AcDbLine
 10
4.93813273648469
 20
0.6005832691996602
 30
0.0
 11
5.196698303711678
 21
0.0599461740886866
 31
0.0
  0
LINE
  5
223
330
20D
100
AcDbEntity
  8
GEN_LAYER
  6
Continuous
 62
     1
100
AcDbLine
 10
2.031586839526497
 20
6.826882900680375
 30
0.0
 11
3.105889201545104
 21
6.456829917927084
 31
0.0
  0
LINE
  5
224
330
20D
100
AcDbEntity
  8
GEN_LAYER
  6
Continuous
 62
     1
100
AcDbLine
 10
3.105889201545104
 20
6.456829917927084
 30
0.0
 11
3.603038997762205
 21
5.987299554833154
 31
0.0
  0
LINE
  5
225
330
20D
100
AcDbEntity
  8
GEN_LAYER
  6
Continuous
 62
     1
100
AcDbLine
 10
3.603038997762205
 20
5.987299554833154
 30
0.0
 11
3.837804179309174
 21
5.476340042054463
 31
0.0
  0
LINE
  5
226
330
20D
100
AcDbEntity
  8
GEN_LAYER
  6
Continuous
 62
     1
100
AcDbLine
 10
3.837804179309174
 20
5.476340042054463
 30
0.0
 11
3.934472195240275
 21
4.882522229906257
 31
0.0
  0
LINE
  5
227
330
20D
100
AcDbEntity
  8
GEN_LAYER
  6
Continuous
 62
     1
100
AcDbLine
 10
3.934472195240275
 20
4.882522229906257
 30
0.0
 11
3.920662478678693
 21
4.095368385895843
 31
0.0
  0
LINE
  5
228
330
20D
100
AcDbEntity
  8
GEN_LAYER
  6
Continuous
 62
     1
100
AcDbLine
 10
3.920662478678693
 20
4.095368385895843
 30
0.0
 11
3.810184746185996
 21
3.432501990939706
 31
0.0
  0
LINE
  5
229
330
20D
100
AcDbEntity
  8
GEN_LAYER
  6
Continuous
 62
     1
100
AcDbLine
 10
3.810184746185996
 20
3.432501990939706
 30
0.0
 11
3.823994462747585
 21
2.86630361191467
 31
0.0
  0
LINE
  5
22A
330
20D
100
AcDbEntity
  8
GEN_LAYER
  6
Continuous
 62
     1
100
AcDbLine
 10
3.823994462747585
 20
2.86630361191467
 30
0.0
 11
3.989711061486616
 21
2.97678134440736
 31
0.0
  0
LINE
  5
22B
330
20D
100
AcDbEntity
  8
GEN_LAYER
  6
Continuous
 62
     1
100
AcDbLine
 10
3.989711061486616
 20
2.97678134440736
 30
0.0
 11
4.141617943664073
 21
3.598218589678741
 31
0.0
  0
LINE
  5
22C
330
20D
100
AcDbEntity
  8
GEN_LAYER
  6
Continuous
 62
     1
100
AcDbLine
 10
4.141617943664073
 20
3.598218589678741
 30
0.0
 11
4.528290007388485
 21
4.136797535580601
 31
0.0
  0
LINE
  5
22D
330
20D
100
AcDbEntity
  8
GEN_LAYER
  6
Continuous
 62
     1
100
AcDbLine
 10
4.528290007388485
 20
4.136797535580601
 30
0.0
 11
4.956391220797656
 21
3.846793487787291
 31
0.0
  0
LINE
  5
22E
330
20D
100
AcDbEntity
  8
GEN_LAYER
  6
Continuous
 62
     1
100
AcDbLine
 10
4.956391220797656
 20
3.846793487787291
 30
0.0
 11
5.163536969221447
 21
3.432501990939706
 31
0.0
  0
LINE
  5
22F
330
20D
100
AcDbEntity
  8
GEN_LAYER
  6
Continuous
 62
     1
100
AcDbLine
 10
5.163536969221447
 20
3.432501990939706
 30
0.0
 11
5.356873001083656
 21
3.101068793461636
 31
0.0
  0
LINE
  5
230
330
20D
100
AcDbEntity
  8
GEN_LAYER
  6
Continuous
 62
     1
100
AcDbLine
 10
5.356873001083656
 20
3.101068793461636
 30
0.0
 11
5.439731300453175
 21
2.75582587942198
 31
0.0
  0
LINE
  5
231
330
20D
100
AcDbEntity
  8
GEN_LAYER
  6
Continuous
 62
     1
100
AcDbLine
 10
5.439731300453175
 20
2.75582587942198
 30
0.0
 11
5.494970166699517
 21
2.46582183162867
 31
0.0
  0
LINE
  5
232
330
20D
100
AcDbEntity
  8
GEN_LAYER
  6
Continuous
 62
     1
100
AcDbLine
 10
5.494970166699517
 20
2.46582183162867
 30
0.0
 11
5.715925631684897
 21
2.24486636664329
 31
0.0
  0
LINE
  5
233
330
20D
100
AcDbEntity
  8
GEN_LAYER
  6
Continuous
 62
     1
100
AcDbLine
 10
5.715925631684897
 20
2.24486636664329
 30
0.0
 11
5.761312982878351
 21
2.247703076092881
 31
0.0
  0
ENDBLK
  5
20F
330
20D
100
AcDbEntity
  8
0
100
AcDbBlockEnd
  0
ENDSEC
  0
SECTION
  2
ENTITIES
  0
INSERT
  5
46
330
1F
100
AcDbEntity
  8
0
100
AcDbBlockReference
  2
GEN_BLOCK
 10
-23.1375789642334
 20
-17.03975105285645
 30
0.0
  0
INSERT
  5
72
330
1F
100
AcDbEntity
  8
1
100
AcDbBlockReference
  2
GEN_BLOCK00000
 10
-74.08064270019531
 20
-27.11464500427246
 30
0.0
  0
INSERT
  5
13A
330
1F
100
AcDbEntity
  8
1
100
AcDbBlockReference
  2
GEN_BLOCK00001
 10
-7.051233768463135
 20
-27.26714324951172
 30
0.0
  0
INSERT
  5
156
330
1F
100
AcDbEntity
  8
0
100
AcDbBlockReference
  2
GEN_BLOCK00002
 10
-61.90738296508789
 20
-9.614645004272461
 30
0.0
  0
INSERT
  5
1D0
330
1F
100
AcDbEntity
  8
1
100
AcDbBlockReference
  2
GEN_BLOCK00003
 10
-10.49714851379395
 20
-13.19633960723877
 30
0.0
  0
INSERT
  5
1F5
330
1F
100
AcDbEntity
  8
GEN_LAYER
100
AcDbBlockReference
  2
GEN_BLOCK00004
 10
-45.74432754516602
 20
-11.82626247406006
 30
0.0
  0
INSERT
  5
210
330
1F
100
AcDbEntity
  8
GEN_LAYER
100
AcDbBlockReference
  2
GEN_BLOCK00005
 10
-45.85991287231445
 20
-11.88620853424072
 30
0.0
  0
ENDSEC
  0
SECTION
  2
OBJECTS
  0
DICTIONARY
  5
C
330
0
100
AcDbDictionary
281
     1
  3
ACAD_GROUP
350
D
  3
ACAD_LAYOUT
350
1A
  3
ACAD_MLINESTYLE
350
17
  3
ACAD_PLOTSETTINGS
350
19
  3
ACAD_PLOTSTYLENAME
350
E
  3
ACAD_TABLESTYLE
350
234
  3
ACAD_VISUALSTYLE
350
2A
  0
DICTIONARY
  5
D
102
{ACAD_REACTORS
330
C
102
}
330
C
100
AcDbDictionary
281
     1
  0
DICTIONARY
  5
1A
102
{ACAD_REACTORS
330
C
102
}
330
C
100
AcDbDictionary
281
     1
  3
Layout1
350
1E
  3
Layout2
350
26
  3
Model
350
22
  0
DICTIONARY
  5
17
102
{ACAD_REACTORS
330
C
102
}
330
C
100
AcDbDictionary
281
     1
  3
Standard
350
18
  0
DICTIONARY
  5
19
102
{ACAD_REACTORS
330
C
102
}
330
C
100
AcDbDictionary
281
     1
  0
ACDBDICTIONARYWDFLT
  5
E
102
{ACAD_REACTORS
330
C
102
}
330
C
100
AcDbDictionary
281
     1
  3
Normal
350
F
100
AcDbDictionaryWithDefault
340
F
  0
DICTIONARY
  5
234
102
{ACAD_REACTORS
330
C
102
}
330
C
100
AcDbDictionary
281
     1
  0
DICTIONARY
  5
2A
102
{ACAD_REACTORS
330
C
102
}
330
C
100
AcDbDictionary
281
     1
  3
2dWireframe
350
2F
  3
3D Hidden
350
31
  3
3dWireframe
350
30
  3
Basic
350
32
  3
Brighten
350
36
  3
ColorChange
350
3A
  3
Conceptual
350
34
  3
Dim
350
35
  3
Facepattern
350
39
  3
Flat
350
2B
  3
FlatWithEdges
350
2C
  3
Gouraud
350
2D
  3
GouraudWithEdges
350
2E
  3
Linepattern
350
38
  3
Realistic
350
33
  3
Thicken
350
37
  0
LAYOUT
  5
1E
102
{ACAD_REACTORS
330
1A
102
}
330
1A
100
AcDbPlotSettings
  1

  2
none_device
  4

  6

 40
0.0
 41
0.0
 42
0.0
 43
0.0
 44
0.0
 45
0.0
 46
0.0
 47
0.0
 48
0.0
 49
0.0
140
0.0
141
0.0
142
1.0
143
1.0
 70
   688
 72
     0
 73
     0
 74
     5
  7

 75
    16
 76
     0
 77
     2
 78
   300
147
1.0
148
0.0
149
0.0
100
AcDbLayout
  1
Layout1
 70
     1
 71
     1
 10
0.0
 20
0.0
 11
420.0
 21
297.0
 12
0.0
 22
0.0
 32
0.0
 14
1.000000000000000E+20
 24
1.000000000000000E+20
 34
1.000000000000000E+20
 15
-1.000000000000000E+20
 25
-1.000000000000000E+20
 35
-1.000000000000000E+20
146
0.0
 13
0.0
 23
0.0
 33
0.0
 16
1.0
 26
0.0
 36
0.0
 17
0.0
 27
1.0
 37
0.0
 76
     0
330
1B
  0
LAYOUT
  5
26
102
{ACAD_REACTORS
330
1A
102
}
330
1A
100
AcDbPlotSettings
  1

  2
none_device
  4

  6

 40
0.0
 41
0.0
 42
0.0
 43
0.0
 44
0.0
 45
0.0
 46
0.0
 47
0.0
 48
0.0
 49
0.0
140
0.0
141
0.0
142
1.0
143
1.0
 70
   688
 72
     0
 73
     0
 74
     5
  7

 75
    16
 76
     0
 77
     2
 78
   300
147
1.0
148
0.0
149
0.0
100
AcDbLayout
  1
Layout2
 70
     1
 71
     2
 10
0.0
 20
0.0
 11
0.0
 21
0.0
 12
0.0
 22
0.0
 32
0.0
 14
0.0
 24
0.0
 34
0.0
 15
0.0
 25
0.0
 35
0.0
146
0.0
 13
0.0
 23
0.0
 33
0.0
 16
1.0
 26
0.0
 36
0.0
 17
0.0
 27
1.0
 37
0.0
 76
     0
330
23
  0
LAYOUT
  5
22
102
{ACAD_REACTORS
330
1A
102
}
330
1A
100
AcDbPlotSettings
  1

  2
none_device
  4

  6

 40
0.0
 41
0.0
 42
0.0
 43
0.0
 44
0.0
 45
0.0
 46
0.0
 47
0.0
 48
0.0
 49
0.0
140
0.0
141
0.0
142
1.0
143
1.0
 70
  1712
 72
     0
 73
     0
 74
     0
  7

 75
     0
 76
     0
 77
     2
 78
   300
147
1.0
148
0.0
149
0.0
100
AcDbLayout
  1
Model
 70
     1
 71
     0
 10
0.0
 20
0.0
 11
420.0
 21
297.0
 12
0.0
 22
0.0
 32
0.0
 14
-74.08064470022491
 24
-27.26714369667599
 34
0.0
 15
0.7487664402744372
 25
33.4853550702388
 35
0.0
146
0.0
 13
0.0
 23
0.0
 33
0.0
 16
1.0
 26
0.0
 36
0.0
 17
0.0
 27
1.0
 37
0.0
 76
     0
330
1F
331
29
  0
MLINESTYLE
  5
18
102
{ACAD_REACTORS
330
17
102
}
330
17
100
AcDbMlineStyle
  2
Standard
 70
     0
  3

 62
   256
 51
90.0
 52
90.0
 71
     2
 49
0.5
 62
   256
  6
BYLAYER
 49
-0.5
 62
   256
  6
BYLAYER
  0
ACDBPLACEHOLDER
  5
F
102
{ACAD_REACTORS
330
E
102
}
330
E
  0
VISUALSTYLE
  5
2F
102
{ACAD_REACTORS
330
2A
102
}
330
2A
100
AcDbVisualStyle
  2
2dWireframe
 70
     4
 71
     0
 72
     2
 73
     0
 90
        0
 40
-0.6
 41
-30.0
 62
     5
 63
     7
421
 16777215
 74
     1
 91
        4
 64
     7
 65
   257
 75
     1
175
     1
 42
1.0
 92
        0
 66
   257
 43
1.0
 76
     1
 77
     6
 78
     2
 67
     7
 79
     5
170
     0
171
     0
290
     0
174
     0
 93
        1
 44
0.0
173
     0
291
     0
 45
0.0
  0
VISUALSTYLE
  5
31
102
{ACAD_REACTORS
330
2A
102
}
330
2A
100
AcDbVisualStyle
  2
3D Hidden
 70
     6
 71
     1
 72
     2
 73
     2
 90
        0
 40
-0.6
 41
-30.0
 62
     5
 63
     7
421
 16777215
 74
     2
 91
        2
 64
     7
 65
   257
 75
     2
175
     1
 42
40.0
 92
        0
 66
   257
 43
1.0
 76
     1
 77
     6
 78
     2
 67
     7
 79
     3
170
     0
171
     0
290
     0
174
     0
 93
        1
 44
0.0
173
     0
291
     0
 45
0.0
  0
VISUALSTYLE
  5
30
102
{ACAD_REACTORS
330
2A
102
}
330
2A
100
AcDbVisualStyle
  2
3dWireframe
 70
     5
 71
     0
 72
     2
 73
     0
 90
        0
 40
-0.6
 41
-30.0
 62
     5
 63
     7
421
 16777215
 74
     1
 91
        4
 64
     7
 65
   257
 75
     1
175
     1
 42
1.0
 92
        0
 66
   257
 43
1.0
 76
     1
 77
     6
 78
     2
 67
     7
 79
     5
170
     0
171
     0
290
     0
174
     0
 93
        1
 44
0.0
173
     0
291
     0
 45
0.0
  0
VISUALSTYLE
  5
32
102
{ACAD_REACTORS
330
2A
102
}
330
2A
100
AcDbVisualStyle
  2
Basic
 70
     7
 71
     1
 72
     0
 73
     1
 90
        0
 40
-0.6
 41
-30.0
 62
     5
 63
     7
421
 16777215
 74
     0
 91
        4
 64
     7
 65
   257
 75
     1
175
     1
 42
1.0
 92
        8
 66
     7
 43
1.0
 76
     1
 77
     6
 78
     2
 67
     7
 79
     5
170
     0
171
     0
290
     0
174
     0
 93
        1
 44
0.0
173
     0
291
     1
 45
0.0
  0
VISUALSTYLE
  5
36
102
{ACAD_REACTORS
330
2A
102
}
330
2A
100
AcDbVisualStyle
  2
Brighten
 70
    12
 71
     2
 72
     2
 73
     0
 90
        0
 40
-0.6
 41
-30.0
 62
     5
 63
     7
421
 16777215
 74
     1
 91
        4
 64
     7
 65
   257
 75
     1
175
     1
 42
1.0
 92
        8
 66
     7
 43
1.0
 76
     1
 77
     6
 78
     2
 67
     7
 79
     5
170
     0
171
     0
290
     0
174
     0
 93
        1
 44
50.0
173
     0
291
     1
 45
0.0
  0
VISUALSTYLE
  5
3A
102
{ACAD_REACTORS
330
2A
102
}
330
2A
100
AcDbVisualStyle
  2
ColorChange
 70
    16
 71
     2
 72
     2
 73
     3
 90
        0
 40
-0.6
 41
-30.0
 62
     5
 63
     8
421
  8421504
 74
     1
 91
        4
 64
     7
 65
   257
 75
     1
175
     1
 42
1.0
 92
        8
 66
     8
424
  8421504
 43
1.0
 76
     1
 77
     6
 78
     2
 67
     7
 79
     5
170
     0
171
     0
290
     0
174
     0
 93
        1
 44
0.0
173
     0
291
     1
 45
0.0
  0
VISUALSTYLE
  5
34
102
{ACAD_REACTORS
330
2A
102
}
330
2A
100
AcDbVisualStyle
  2
Conceptual
 70
     9
 71
     3
 72
     2
 73
     0
 90
        0
 40
-0.6
 41
-30.0
 62
     5
 63
     7
421
 16777215
 74
     2
 91
        2
 64
     7
 65
   257
 75
     1
175
     1
 42
40.0
 92
        8
 66
     7
 43
1.0
 76
     1
 77
     6
 78
     2
 67
     7
 79
     3
170
     0
171
     0
290
     0
174
     0
 93
        1
 44
0.0
173
     0
291
     0
 45
0.0
  0
VISUALSTYLE
  5
35
102
{ACAD_REACTORS
330
2A
102
}
330
2A
100
AcDbVisualStyle
  2
Dim
 70
    11
 71
     2
 72
     2
 73
     0
 90
        0
 40
-0.6
 41
-30.0
 62
     5
 63
     7
421
 16777215
 74
     1
 91
        4
 64
     7
 65
   257
 75
     1
175
     1
 42
1.0
 92
        8
 66
     7
 43
1.0
 76
     1
 77
     6
 78
     2
 67
     7
 79
     5
170
     0
171
     0
290
     0
174
     0
 93
        1
 44
-50.0
173
     0
291
     1
 45
0.0
  0
VISUALSTYLE
  5
39
102
{ACAD_REACTORS
330
2A
102
}
330
2A
100
AcDbVisualStyle
  2
Facepattern
 70
    15
 71
     2
 72
     2
 73
     0
 90
        0
 40
-0.6
 41
-30.0
 62
     5
 63
     7
421
 16777215
 74
     1
 91
        4
 64
     7
 65
   257
 75
     1
175
     1
 42
1.0
 92
        8
 66
     7
 43
1.0
 76
     1
 77
     6
 78
     2
 67
     7
 79
     5
170
     0
171
     0
290
     0
174
     0
 93
        1
 44
0.0
173
     0
291
     1
 45
0.0
  0
VISUALSTYLE
  5
2B
102
{ACAD_REACTORS
330
2A
102
}
330
2A
100
AcDbVisualStyle
  2
Flat
 70
     0
 71
     2
 72
     1
 73
     1
 90
        2
 40
-0.6
 41
30.0
 62
     5
 63
     7
421
 16777215
 74
     0
 91
        4
 64
     7
 65
   257
 75
     1
175
     1
 42
1.0
 92
        8
 66
     7
 43
1.0
 76
     1
 77
     6
 78
     2
 67
     7
 79
     5
170
     0
171
     0
290
     0
174
     0
 93
       13
 44
0.0
173
     0
291
     1
 45
0.0
  0
VISUALSTYLE
  5
2C
102
{ACAD_REACTORS
330
2A
102
}
330
2A
100
AcDbVisualStyle
  2
FlatWithEdges
 70
     1
 71
     2
 72
     1
 73
     1
 90
        2
 40
-0.6
 41
30.0
 62
     5
 63
     7
421
 16777215
 74
     1
 91
        4
 64
     7
 65
   257
 75
     1
175
     1
 42
1.0
 92
        0
 66
   257
 43
1.0
 76
     1
 77
     6
 78
     2
 67
     7
 79
     5
170
     0
171
     0
290
     0
174
     0
 93
       13
 44
0.0
173
     0
291
     1
 45
0.0
  0
VISUALSTYLE
  5
2D
102
{ACAD_REACTORS
330
2A
102
}
330
2A
100
AcDbVisualStyle
  2
Gouraud
 70
     2
 71
     2
 72
     2
 73
     1
 90
        2
 40
-0.6
 41
30.0
 62
     5
 63
     7
421
 16777215
 74
     0
 91
        4
 64
     7
 65
   257
 75
     1
175
     1
 42
1.0
 92
        0
 66
     7
 43
1.0
 76
     1
 77
     6
 78
     2
 67
     7
 79
     5
170
     0
171
     0
290
     0
174
     0
 93
       13
 44
0.0
173
     0
291
     1
 45
0.0
  0
VISUALSTYLE
  5
2E
102
{ACAD_REACTORS
330
2A
102
}
330
2A
100
AcDbVisualStyle
  2
GouraudWithEdges
 70
     3
 71
     2
 72
     2
 73
     1
 90
        2
 40
-0.6
 41
30.0
 62
     5
 63
     7
421
 16777215
 74
     1
 91
        4
 64
     7
 65
   257
 75
     1
175
     1
 42
1.0
 92
        0
 66
   257
 43
1.0
 76
     1
 77
     6
 78
     2
 67
     7
 79
     5
170
     0
171
     0
290
     0
174
     0
 93
       13
 44
0.0
173
     0
291
     1
 45
0.0
  0
VISUALSTYLE
  5
38
102
{ACAD_REACTORS
330
2A
102
}
330
2A
100
AcDbVisualStyle
  2
Linepattern
 70
    14
 71
     2
 72
     2
 73
     0
 90
        0
 40
-0.6
 41
-30.0
 62
     5
 63
     7
421
 16777215
 74
     1
 91
        4
 64
     7
 65
   257
 75
     7
175
     7
 42
1.0
 92
        8
 66
     7
 43
1.0
 76
     1
 77
     6
 78
     2
 67
     7
 79
     5
170
     0
171
     0
290
     0
174
     0
 93
        1
 44
0.0
173
     0
291
     1
 45
0.0
  0
VISUALSTYLE
  5
33
102
{ACAD_REACTORS
330
2A
102
}
330
2A
100
AcDbVisualStyle
  2
Realistic
 70
     8
 71
     2
 72
     2
 73
     0
 90
        0
 40
-0.6
 41
-30.0
 62
     5
 63
     7
421
 16777215
 74
     1
 91
        0
 64
     7
 65
   257
 75
     1
175
     1
 42
1.0
 92
        8
 66
     8
424
  7895160
 43
1.0
 76
     1
 77
     6
 78
     2
 67
     7
 79
     5
170
     0
171
     0
290
     0
174
     0
 93
       13
 44
0.0
173
     0
291
     0
 45
0.0
  0
VISUALSTYLE
  5
37
102
{ACAD_REACTORS
330
2A
102
}
330
2A
100
AcDbVisualStyle
  2
Thicken
 70
    13
 71
     2
 72
     2
 73
     0
 90
        0
 40
-0.6
 41
-30.0
 62
     5
 63
     7
421
 16777215
 74
     1
 91
        4
 64
     7
 65
   257
 75
     1
175
     1
 42
1.0
 92
       12
 66
     7
 43
1.0
 76
     1
 77
     6
 78
     2
 67
     7
 79
     5
170
     0
171
     0
290
     0
174
     0
 93
        1
 44
0.0
173
     0
291
     1
 45
0.0
  0
ENDSEC
  0
EOF
