  0
SECTION
  2
HEADER
  9
$ACADVER
  1
AC1012
  9
$DWGCODEPAGE
  3
dos850
  9
$INSBASE
 10
0.0
 20
0.0
 30
0.0
  9
$EXTMIN
 10
-105.112052
 20
-148.650889
 30
0.0
  9
$EXTMAX
 10
105.112052
 20
148.650889
 30
0.0
  9
$LIMMIN
 10
-105.112052
 20
-148.650889
  9
$LIMMAX
 10
0.0
 20
148.650889
  9
$ORTHOMODE
 70
     0
  9
$REGENMODE
 70
     1
  9
$FILLMODE
 70
     1
  9
$QTEXTMODE
 70
     0
  9
$MIRRTEXT
 70
     1
  9
$DRAGMODE
 70
     2
  9
$LTSCALE
 40
1.0
  9
$OSMODE
 70
     0
  9
$ATTMODE
 70
     1
  9
$TEXTSIZE
 40
0.2
  9
$TRACEWID
 40
0.05
  9
$TEXTSTYLE
  7
STANDARD
  9
$CLAYER
  8
0
  9
$CELTYPE
  6
CONTINUOUS
  9
$CECOLOR
 62
   256
  9
$CELTSCALE
 40
1.0
  9
$DELOBJ
 70
     1
  9
$DISPSILH
 70
     0
  9
$DIMSCALE
 40
1.0
  9
$DIMASZ
 40
0.18
  9
$DIMEXO
 40
0.0625
  9
$DIMDLI
 40
0.38
  9
$DIMRND
 40
0.0
  9
$DIMDLE
 40
0.0
  9
$DIMEXE
 40
0.18
  9
$DIMTP
 40
0.0
  9
$DIMTM
 40
0.0
  9
$DIMTXT
 40
0.18
  9
$DIMCEN
 40
0.09
  9
$DIMTSZ
 40
0.0
  9
$DIMTOL
 70
     0
  9
$DIMLIM
 70
     0
  9
$DIMTIH
 70
     1
  9
$DIMTOH
 70
     1
  9
$DIMSE1
 70
     0
  9
$DIMSE2
 70
     0
  9
$DIMTAD
 70
     0
  9
$DIMZIN
 70
     0
  9
$DIMBLK
  1

  9
$DIMASO
 70
     1
  9
$DIMSHO
 70
     1
  9
$DIMPOST
  1

  9
$DIMAPOST
  1

  9
$DIMALT
 70
     0
  9
$DIMALTD
 70
     2
  9
$DIMALTF
 40
25.4
  9
$DIMLFAC
 40
1.0
  9
$DIMTOFL
 70
     0
  9
$DIMTVP
 40
0.0
  9
$DIMTIX
 70
     0
  9
$DIMSOXD
 70
     0
  9
$DIMSAH
 70
     0
  9
$DIMBLK1
  1

  9
$DIMBLK2
  1

  9
$DIMSTYLE
  2
STANDARD
  9
$DIMCLRD
 70
     0
  9
$DIMCLRE
 70
     0
  9
$DIMCLRT
 70
     0
  9
$DIMTFAC
 40
1.0
  9
$DIMGAP
 40
0.09
  9
$DIMJUST
 70
     0
  9
$DIMSD1
 70
     0
  9
$DIMSD2
 70
     0
  9
$DIMTOLJ
 70
     1
  9
$DIMTZIN
 70
     0
  9
$DIMALTZ
 70
     0
  9
$DIMALTTZ
 70
     0
  9
$DIMFIT
 70
     3
  9
$DIMUPT
 70
     0
  9
$DIMUNIT
 70
     2
  9
$DIMDEC
 70
     4
  9
$DIMTDEC
 70
     4
  9
$DIMALTU
 70
     2
  9
$DIMALTTD
 70
     2
  9
$DIMTXSTY
  7
STANDARD
  9
$DIMAUNIT
 70
     0
  9
$LUNITS
 70
     2
  9
$LUPREC
 70
     4
  9
$SKETCHINC
 40
0.1
  9
$FILLETRAD
 40
0.0
  9
$AUNITS
 70
     0
  9
$AUPREC
 70
     0
  9
$MENU
  1
acad
  9
$ELEVATION
 40
0.0
  9
$PELEVATION
 40
0.0
  9
$THICKNESS
 40
0.0
  9
$LIMCHECK
 70
     0
  9
$BLIPMODE
 70
     1
  9
$CHAMFERA
 40
0.0
  9
$CHAMFERB
 40
0.0
  9
$CHAMFERC
 40
0.0
  9
$CHAMFERD
 40
0.0
  9
$SKPOLY
 70
     0
  9
$TDCREATE
 40
0.000000000
  9
$TDUPDATE
 40
0.000000000
  9
$TDINDWG
 40
0.0000000000
  9
$TDUSRTIMER
 40
0.0000000000
  9
$USRTIMER
 70
     1
  9
$ANGBASE
 50
0.0
  9
$ANGDIR
 70
     0
  9
$PDMODE
 70
     0
  9
$PDSIZE
 40
0.0
  9
$PLINEWID
 40
0.0
  9
$COORDS
 70
     0
  9
$SPLFRAME
 70
     0
  9
$SPLINETYPE
 70
     6
  9
$SPLINESEGS
 70
     8
  9
$ATTDIA
 70
     0
  9
$ATTREQ
 70
     1
  9
$HANDLING
 70
     1
  9
$HANDSEED
  5
320
  9
$SURFTAB1
 70
     6
  9
$SURFTAB2
 70
     6
  9
$SURFTYPE
 70
     6
  9
$SURFU
 70
     6
  9
$SURFV
 70
     6
  9
$UCSNAME
  2

  9
$UCSORG
 10
0.0
 20
0.0
 30
0.0
  9
$UCSXDIR
 10
1.0
 20
0.0
 30
0.0
  9
$UCSYDIR
 10
0.0
 20
1.0
 30
0.0
  9
$PUCSNAME
  2

  9
$PUCSORG
 10
0.0
 20
0.0
 30
0.0
  9
$PUCSXDIR
 10
1.0
 20
0.0
 30
0.0
  9
$PUCSYDIR
 10
0.0
 20
1.0
 30
0.0
  9
$USERI1
 70
     0
  9
$USERI2
 70
     0
  9
$USERI3
 70
     0
  9
$USERI4
 70
     0
  9
$USERI5
 70
     0
  9
$USERR1
 40
0.0
  9
$USERR2
 40
0.0
  9
$USERR3
 40
0.0
  9
$USERR4
 40
0.0
  9
$USERR5
 40
0.0
  9
$WORLDVIEW
 70
     1
  9
$SHADEDGE
 70
     3
  9
$SHADEDIF
 70
    70
  9
$TILEMODE
 70
     1
  9
$MAXACTVP
 70
    16
  9
$PINSBASE
 10
0.0
 20
0.0
 30
0.0
  9
$PLIMCHECK
 70
     0
  9
$PEXTMIN
 10
1.000000E+20
 20
1.000000E+20
 30
1.000000E+20
  9
$PEXTMAX
 10
-1.000000E+20
 20
-1.000000E+20
 30
-1.000000E+20
  9
$PLIMMIN
 10
0.0
 20
0.0
  9
$PLIMMAX
 10
12.0
 20
9.0
  9
$UNITMODE
 70
     0
  9
$VISRETAIN
 70
     0
  9
$PLINEGEN
 70
     1
  9
$PSLTSCALE
 70
     0
  9
$TREEDEPTH
 70
  3020
  9
$PICKSTYLE
 70
     1
  9
$CMLSTYLE
  2
STANDARD
  9
$CMLJUST
 70
     0
  9
$CMLSCALE
 40
1.0
  9
$SAVEIMAGES
 70
     0
  0
ENDSEC
  0
SECTION
  2
CLASSES
  0
CLASS
  1
LWPOLYLINE
  2
AcDbPolyline
  3
"AutoCAD"
 90
        0
280
     0
281
     1
  0
CLASS
  1
IMAGE
  2
AcDbRasterImage
  3
ISM
 90
      127
280
     0
281
     1
  0
CLASS
  1
OLE2FRAME
  2
AcDbOle2Frame
  3
""
 90
        0
280
     0
281
     1
  0
CLASS
  1
HATCH
  2
AcDbHatch
  3
"ACAD_SEDONA"
 90
        0
280
     0
281
     1
  0
CLASS
  1
DICTIONARYVAR
  2
AcDbDictionaryVar
  3
"AutoCAD"
 90
        0
280
     0
281
     0
  0
CLASS
  1
RASTERVARIABLES
  2
AcDbRasterVariables
  3
ISM
 90
        0
280
     0
281
     0
  0
CLASS
  1
IMAGEDEF
  2
AcDbRasterImageDef
  3
ISM
 90
        0
280
     0
281
     0
  0
CLASS
  1
IMAGEDEF_REACTOR
  2
AcDbRasterImageDefReactor
  3
ISM
 90
        1
280
     0
281
     0
  0
CLASS
  1
IDBUFFER
  2
AcDbIdBuffer
  3
"Acad"
 90
        0
280
     0
281
     0
  0
CLASS
  1
SPATIAL_FILTER
  2
AcDbSpatialFilter
  3
"Acad"
 90
        0
280
     0
281
     0
  0
CLASS
  1
XRECORD
  2
AcDbXrecord
  3
"<Built In>"
 90
        0
280
     0
281
     0
  0
CLASS
  1
SORTENTSTABLE
  2
AcDbSortentsTable
  3
"AutoCAD"
 90
        0
280
     0
281
     0
  0
CLASS
  1
LAYER_INDEX
  2
AcDbLayerIndex
  3
"Acad"
 90
        0
280
     0
281
     0
  0
CLASS
  1
SPATIAL_INDEX
  2
AcDbSpatialIndex
  3
"Acad"
 90
        0
280
     0
281
     0
  0
CLASS
  1
OBJECT_PTR
  2
CAseDLPNTableRecord
  3
"ASE-LPNTableRecord"
 90
        1
280
     0
281
     0
  0
CLASS
  1
LAYOUT
  2
AcDbLayout
  3
"AutoCAD 2000"
 90
        1
280
     0
281
     0
  0
CLASS
  1
PLOTSETTINGS
  2
AcDbPlotSettings
  3
"AutoCAD 2000"
 90
        1
280
     0
281
     0
  0
CLASS
  1
ACDBDICTIONARYWDFLT
  2
AcDbDictionaryWithDefault
  3
"AutoCAD 2000"
 90
        1
280
     0
281
     0
  0
CLASS
  1
ACDBPLACEHOLDER
  2
AcDbPlaceHolder
  3
"AutoCAD 2000"
 90
        1
280
     0
281
     0
  0
ENDSEC
  0
SECTION
  2
TABLES
  0
TABLE
  2
VPORT
  5
7
100
AcDbSymbolTable
 70
     1
  0
VPORT
  5
15
100
AcDbSymbolTableRecord
100
AcDbViewportTableRecord
  2
*ACTIVE
 70
     0
 10
0.0
 20
0.0
 11
1.0
 21
1.0
 12
6.591288
 22
4.579184
 13
0.0
 23
0.0
 14
1.0
 24
1.0
 15
0.0
 25
0.0
 16
0.0
 26
0.0
 36
1.0
 17
0.0
 27
0.0
 37
0.0
 40
9.158369
 41
0.688564
 42
50.0
 43
0.0
 44
0.0
 50
0.0
 51
0.0
 71
     0
 72
   100
 73
     1
 74
     1
 75
     0
 76
     0
 77
     0
 78
     0
  0
ENDTAB
  0
TABLE
  2
LTYPE
  5
4
100
AcDbSymbolTable
 70
    11
  0
LTYPE
  5
11
100
AcDbSymbolTableRecord
100
AcDbLinetypeTableRecord
  2
BYBLOCK
 70
    64
  3

 72
    65
 73
     0
 40
0.0
  0
LTYPE
  5
12
100
AcDbSymbolTableRecord
100
AcDbLinetypeTableRecord
  2
BYLAYER
 70
    64
  3

 72
    65
 73
     0
 40
0.0
  0
LTYPE
  5
13
100
AcDbSymbolTableRecord
100
AcDbLinetypeTableRecord
  2
CONTINUOUS
 70
    64
  3
Solid line
 72
    65
 73
     0
 40
0.0
  0
LTYPE
  5
1D
100
AcDbSymbolTableRecord
100
AcDbLinetypeTableRecord
  2
DOT
 70
     0
  3
____    ____    
 72
    65
 73
     4
 40
16.0
 49
4.0
 74
     0
 49
-4.0
 74
     0
 49
4.0
 74
     0
 49
-4.0
 74
     0
  0
LTYPE
  5
1E
100
AcDbSymbolTableRecord
100
AcDbLinetypeTableRecord
  2
HIDDEN
 70
     0
  3
__  __  __  __  
 72
    65
 73
     8
 40
16.0
 49
2.0
 74
     0
 49
-2.0
 74
     0
 49
2.0
 74
     0
 49
-2.0
 74
     0
 49
2.0
 74
     0
 49
-2.0
 74
     0
 49
2.0
 74
     0
 49
-2.0
 74
     0
  0
LTYPE
  5
1F
100
AcDbSymbolTableRecord
100
AcDbLinetypeTableRecord
  2
DASHED
 70
     0
  3
________        
 72
    65
 73
     2
 40
16.0
 49
8.0
 74
     0
 49
-8.0
 74
     0
  0
LTYPE
  5
20
100
AcDbSymbolTableRecord
100
AcDbLinetypeTableRecord
  2
DASHDOT
 70
     0
  3
____________    
 72
    65
 73
     2
 40
16.0
 49
12.0
 74
     0
 49
-4.0
 74
     0
  0
LTYPE
  5
21
100
AcDbSymbolTableRecord
100
AcDbLinetypeTableRecord
  2
BORDER
 70
     0
  3
_____________ _ 
 72
    65
 73
     4
 40
16.0
 49
13.0
 74
     0
 49
-1.0
 74
     0
 49
1.0
 74
     0
 49
-1.0
 74
     0
  0
LTYPE
  5
22
100
AcDbSymbolTableRecord
100
AcDbLinetypeTableRecord
  2
CENTER
 70
     0
  3
_________  ___  
 72
    65
 73
     4
 40
16.0
 49
9.0
 74
     0
 49
-2.0
 74
     0
 49
3.0
 74
     0
 49
-2.0
 74
     0
  0
LTYPE
  5
23
100
AcDbSymbolTableRecord
100
AcDbLinetypeTableRecord
  2
PHANTOM
 70
     0
  3
_______   ___   
 72
    65
 73
     4
 40
16.0
 49
7.0
 74
     0
 49
-3.0
 74
     0
 49
3.0
 74
     0
 49
-3.0
 74
     0
  0
LTYPE
  5
24
100
AcDbSymbolTableRecord
100
AcDbLinetypeTableRecord
  2
DIVIDE
 70
     0
  3
_______  __ __  
 72
    65
 73
     6
 40
16.0
 49
7.0
 74
     0
 49
-2.0
 74
     0
 49
2.0
 74
     0
 49
-1.0
 74
     0
 49
2.0
 74
     0
 49
-2.0
 74
     0
  0
ENDTAB
  0
TABLE
  2
LAYER
  5
2
100
AcDbSymbolTable
 70
     3
  0
LAYER
  5
14
100
AcDbSymbolTableRecord
100
AcDbLayerTableRecord
  2
0
 70
     0
 62
     7
  6
CONTINUOUS
  0
LAYER
  5
23E
100
AcDbSymbolTableRecord
100
AcDbLayerTableRecord
  2
1
 70
     0
 62
     1
  6
CONTINUOUS
  0
LAYER
  5
252
100
AcDbSymbolTableRecord
100
AcDbLayerTableRecord
  2
GEN_LAYER
 70
     0
 62
     1
  6
CONTINUOUS
  0
ENDTAB
  0
TABLE
  2
STYLE
  5
3
100
AcDbSymbolTable
 70
     2
  0
STYLE
  5
17
100
AcDbSymbolTableRecord
100
AcDbTextStyleTableRecord
  2
STANDARD
 70
     0
 40
0.0
 41
1.0
 50
0.0
 71
     0
 42
0.0
  3
TXT
  4

  0
STYLE
  5
25
100
AcDbSymbolTableRecord
100
AcDbTextStyleTableRecord
  2
ARIAL
 70
     0
 40
0.2
 41
1.0
 50
0.0
 71
     0
 42
0.2
  3
ARIAL.TTF
  4

  0
ENDTAB
  0
TABLE
  2
VIEW
  5
5
100
AcDbSymbolTable
 70
     0
  0
ENDTAB
  0
TABLE
  2
UCS
  5
6
100
AcDbSymbolTable
 70
     0
  0
ENDTAB
  0
TABLE
  2
APPID
  5
8
100
AcDbSymbolTable
 70
     1
  0
APPID
  5
16
100
AcDbSymbolTableRecord
100
AcDbRegAppTableRecord
  2
ACAD
 70
     0
  0
ENDTAB
  0
TABLE
  2
DIMSTYLE
  5
9
100
AcDbSymbolTable
 70
     1
  0
DIMSTYLE
105
18
100
AcDbSymbolTableRecord
100
AcDbDimStyleTableRecord
  2
STANDARD
 70
     0
  3

  4

  5

  6

  7

 40
1.0
 41
0.18
 42
0.0625
 43
0.38
 44
0.18
 45
0.0
 46
0.0
 47
0.0
 48
0.0
 71
     0
 72
     0
 73
     1
 74
     1
 75
     0
 76
     0
 77
     0
 78
     0
140
0.18
141
0.09
142
0.0
143
25.4
144
1.0
145
0.0
146
1.0
147
0.09
170
     0
171
     2
172
     0
173
     0
174
     0
175
     0
176
     0
177
     0
178
     0
270
     2
271
     4
272
     4
273
     2
274
     2
275
     0
280
     0
281
     0
282
     0
283
     1
284
     0
285
     0
286
     0
287
     0
288
     0
340
17
  0
ENDTAB
  0
TABLE
  2
BLOCK_RECORD
  5
1
100
AcDbSymbolTable
 70
     7
  0
BLOCK_RECORD
  5
A
100
AcDbSymbolTableRecord
100
AcDbBlockTableRecord
  2
*MODEL_SPACE
  0
BLOCK_RECORD
  5
B
100
AcDbSymbolTableRecord
100
AcDbBlockTableRecord
  2
*PAPER_SPACE
  0
BLOCK_RECORD
  5
26
100
AcDbSymbolTableRecord
100
AcDbBlockTableRecord
  2
GEN_BLOCK
  0
BLOCK_RECORD
  5
212
100
AcDbSymbolTableRecord
100
AcDbBlockTableRecord
  2
PROTO
  0
BLOCK_RECORD
  5
22F
100
AcDbSymbolTableRecord
100
AcDbBlockTableRecord
  2
GEN_BLOCK00002
  0
BLOCK_RECORD
  5
23F
100
AcDbSymbolTableRecord
100
AcDbBlockTableRecord
  2
GEN_BLOCK00003
  0
BLOCK_RECORD
  5
253
100
AcDbSymbolTableRecord
100
AcDbBlockTableRecord
  2
GEN_BLOCK00004
  0
BLOCK_RECORD
  5
278
100
AcDbSymbolTableRecord
100
AcDbBlockTableRecord
  2
GEN_BLOCK00005
  0
BLOCK_RECORD
  5
2F3
100
AcDbSymbolTableRecord
100
AcDbBlockTableRecord
  2
GEN_BLOCK00006
  0
ENDTAB
  0
ENDSEC
  0
SECTION
  2
BLOCKS
  0
BLOCK
  5
D
100
AcDbEntity
  8
0
100
AcDbBlockBegin
  2
*MODEL_SPACE
 70
     0
 10
0.0
 20
0.0
 30
0.0
  3
*MODEL_SPACE
  1

  0
ENDBLK
  5
E
100
AcDbEntity
  8
0
100
AcDbBlockEnd
  0
BLOCK
  5
F
100
AcDbEntity
 67
     1
  8
0
100
AcDbBlockBegin
  2
*PAPER_SPACE
 70
     0
 10
0.0
 20
0.0
 30
0.0
  3
*PAPER_SPACE
  1

  0
ENDBLK
  5
10
100
AcDbEntity
 67
     1
  8
0
100
AcDbBlockEnd
  0
BLOCK
  5
27
100
AcDbEntity
  8
0
100
AcDbBlockBegin
  2
GEN_BLOCK
 70
     0
 10
0.0
 20
0.0
 30
0.0
  3
GEN_BLOCK
  1

  0
LINE
  5
29
100
AcDbEntity
  8
0
  6
CONTINUOUS
 62
    15
100
AcDbLine
 10
-96.086775
 20
-123.034796
 30
0.0
 11
-96.065139
 21
-123.424216
 31
0.0
  0
LINE
  5
2A
100
AcDbEntity
  8
0
  6
CONTINUOUS
 62
    15
100
AcDbLine
 10
-96.065139
 20
-123.424216
 30
0.0
 11
-96.000293
 21
-123.812568
 31
0.0
  0
LINE
  5
2B
100
AcDbEntity
  8
0
  6
CONTINUOUS
 62
    15
100
AcDbLine
 10
-96.000293
 20
-123.812568
 30
0.0
 11
-95.892412
 21
-124.198789
 31
0.0
  0
LINE
  5
2C
100
AcDbEntity
  8
0
  6
CONTINUOUS
 62
    15
100
AcDbLine
 10
-95.892412
 20
-124.198789
 30
0.0
 11
-95.741794
 21
-124.581819
 31
0.0
  0
LINE
  5
2D
100
AcDbEntity
  8
0
  6
CONTINUOUS
 62
    15
100
AcDbLine
 10
-95.741794
 20
-124.581819
 30
0.0
 11
-95.548851
 21
-124.960609
 31
0.0
  0
LINE
  5
2E
100
AcDbEntity
  8
0
  6
CONTINUOUS
 62
    15
100
AcDbLine
 10
-95.548851
 20
-124.960609
 30
0.0
 11
-95.314111
 21
-125.334121
 31
0.0
  0
LINE
  5
2F
100
AcDbEntity
  8
0
  6
CONTINUOUS
 62
    15
100
AcDbLine
 10
-95.314111
 20
-125.334121
 30
0.0
 11
-95.038219
 21
-125.70133
 31
0.0
  0
LINE
  5
30
100
AcDbEntity
  8
0
  6
CONTINUOUS
 62
    15
100
AcDbLine
 10
-95.038219
 20
-125.70133
 30
0.0
 11
-94.72193
 21
-126.06123
 31
0.0
  0
LINE
  5
31
100
AcDbEntity
  8
0
  6
CONTINUOUS
 62
    15
100
AcDbLine
 10
-94.72193
 20
-126.06123
 30
0.0
 11
-94.366111
 21
-126.412835
 31
0.0
  0
LINE
  5
32
100
AcDbEntity
  8
0
  6
CONTINUOUS
 62
    15
100
AcDbLine
 10
-94.366111
 20
-126.412835
 30
0.0
 11
-93.971738
 21
-126.755182
 31
0.0
  0
LINE
  5
33
100
AcDbEntity
  8
0
  6
CONTINUOUS
 62
    15
100
AcDbLine
 10
-93.971738
 20
-126.755182
 30
0.0
 11
-93.539892
 21
-127.08733
 31
0.0
  0
LINE
  5
34
100
AcDbEntity
  8
0
  6
CONTINUOUS
 62
    15
100
AcDbLine
 10
-93.539892
 20
-127.08733
 30
0.0
 11
-93.071755
 21
-127.408371
 31
0.0
  0
LINE
  5
35
100
AcDbEntity
  8
0
  6
CONTINUOUS
 62
    15
100
AcDbLine
 10
-93.071755
 20
-127.408371
 30
0.0
 11
-92.568612
 21
-127.717425
 31
0.0
  0
LINE
  5
36
100
AcDbEntity
  8
0
  6
CONTINUOUS
 62
    15
100
AcDbLine
 10
-92.568612
 20
-127.717425
 30
0.0
 11
-92.031841
 21
-128.013644
 31
0.0
  0
LINE
  5
37
100
AcDbEntity
  8
0
  6
CONTINUOUS
 62
    15
100
AcDbLine
 10
-92.031841
 20
-128.013644
 30
0.0
 11
-91.462914
 21
-128.296216
 31
0.0
  0
LINE
  5
38
100
AcDbEntity
  8
0
  6
CONTINUOUS
 62
    15
100
AcDbLine
 10
-91.462914
 20
-128.296216
 30
0.0
 11
-90.86339
 21
-128.564366
 31
0.0
  0
LINE
  5
39
100
AcDbEntity
  8
0
  6
CONTINUOUS
 62
    15
100
AcDbLine
 10
-90.86339
 20
-128.564366
 30
0.0
 11
-90.234912
 21
-128.817361
 31
0.0
  0
LINE
  5
3A
100
AcDbEntity
  8
0
  6
CONTINUOUS
 62
    15
100
AcDbLine
 10
-90.234912
 20
-128.817361
 30
0.0
 11
-89.579204
 21
-129.054506
 31
0.0
  0
LINE
  5
3B
100
AcDbEntity
  8
0
  6
CONTINUOUS
 62
    15
100
AcDbLine
 10
-89.579204
 20
-129.054506
 30
0.0
 11
-88.898061
 21
-129.275152
 31
0.0
  0
LINE
  5
3C
100
AcDbEntity
  8
0
  6
CONTINUOUS
 62
    15
100
AcDbLine
 10
-88.898061
 20
-129.275152
 30
0.0
 11
-88.193351
 21
-129.478693
 31
0.0
  0
LINE
  5
3D
100
AcDbEntity
  8
0
  6
CONTINUOUS
 62
    15
100
AcDbLine
 10
-88.193351
 20
-129.478693
 30
0.0
 11
-87.467006
 21
-129.664571
 31
0.0
  0
LINE
  5
3E
100
AcDbEntity
  8
0
  6
CONTINUOUS
 62
    15
100
AcDbLine
 10
-87.467006
 20
-129.664571
 30
0.0
 11
-86.721017
 21
-129.832279
 31
0.0
  0
LINE
  5
3F
100
AcDbEntity
  8
0
  6
CONTINUOUS
 62
    15
100
AcDbLine
 10
-86.721017
 20
-129.832279
 30
0.0
 11
-85.957428
 21
-129.981354
 31
0.0
  0
LINE
  5
40
100
AcDbEntity
  8
0
  6
CONTINUOUS
 62
    15
100
AcDbLine
 10
-85.957428
 20
-129.981354
 30
0.0
 11
-85.178332
 21
-130.11139
 31
0.0
  0
LINE
  5
41
100
AcDbEntity
  8
0
  6
CONTINUOUS
 62
    15
100
AcDbLine
 10
-85.178332
 20
-130.11139
 30
0.0
 11
-84.385865
 21
-130.222029
 31
0.0
  0
LINE
  5
42
100
AcDbEntity
  8
0
  6
CONTINUOUS
 62
    15
100
AcDbLine
 10
-84.385865
 20
-130.222029
 30
0.0
 11
-83.582198
 21
-130.312968
 31
0.0
  0
LINE
  5
43
100
AcDbEntity
  8
0
  6
CONTINUOUS
 62
    15
100
AcDbLine
 10
-83.582198
 20
-130.312968
 30
0.0
 11
-82.769535
 21
-130.383959
 31
0.0
  0
LINE
  5
44
100
AcDbEntity
  8
0
  6
CONTINUOUS
 62
    15
100
AcDbLine
 10
-82.769535
 20
-130.383959
 30
0.0
 11
-81.950103
 21
-130.434806
 31
0.0
  0
LINE
  5
45
100
AcDbEntity
  8
0
  6
CONTINUOUS
 62
    15
100
AcDbLine
 10
-81.950103
 20
-130.434806
 30
0.0
 11
-81.126148
 21
-130.46537
 31
0.0
  0
LINE
  5
46
100
AcDbEntity
  8
0
  6
CONTINUOUS
 62
    15
100
AcDbLine
 10
-81.126148
 20
-130.46537
 30
0.0
 11
-80.299928
 21
-130.475567
 31
0.0
  0
LINE
  5
47
100
AcDbEntity
  8
0
  6
CONTINUOUS
 62
    15
100
AcDbLine
 10
-80.299928
 20
-130.475567
 30
0.0
 11
-79.473708
 21
-130.46537
 31
0.0
  0
LINE
  5
48
100
AcDbEntity
  8
0
  6
CONTINUOUS
 62
    15
100
AcDbLine
 10
-79.473708
 20
-130.46537
 30
0.0
 11
-78.649753
 21
-130.434806
 31
0.0
  0
LINE
  5
49
100
AcDbEntity
  8
0
  6
CONTINUOUS
 62
    15
100
AcDbLine
 10
-78.649753
 20
-130.434806
 30
0.0
 11
-77.830321
 21
-130.383959
 31
0.0
  0
LINE
  5
4A
100
AcDbEntity
  8
0
  6
CONTINUOUS
 62
    15
100
AcDbLine
 10
-77.830321
 20
-130.383959
 30
0.0
 11
-77.017658
 21
-130.312968
 31
0.0
  0
LINE
  5
4B
100
AcDbEntity
  8
0
  6
CONTINUOUS
 62
    15
100
AcDbLine
 10
-77.017658
 20
-130.312968
 30
0.0
 11
-76.213992
 21
-130.222029
 31
0.0
  0
LINE
  5
4C
100
AcDbEntity
  8
0
  6
CONTINUOUS
 62
    15
100
AcDbLine
 10
-76.213992
 20
-130.222029
 30
0.0
 11
-75.421524
 21
-130.11139
 31
0.0
  0
LINE
  5
4D
100
AcDbEntity
  8
0
  6
CONTINUOUS
 62
    15
100
AcDbLine
 10
-75.421524
 20
-130.11139
 30
0.0
 11
-74.642428
 21
-129.981354
 31
0.0
  0
LINE
  5
4E
100
AcDbEntity
  8
0
  6
CONTINUOUS
 62
    15
100
AcDbLine
 10
-74.642428
 20
-129.981354
 30
0.0
 11
-73.878839
 21
-129.832279
 31
0.0
  0
LINE
  5
4F
100
AcDbEntity
  8
0
  6
CONTINUOUS
 62
    15
100
AcDbLine
 10
-73.878839
 20
-129.832279
 30
0.0
 11
-73.13285
 21
-129.664571
 31
0.0
  0
LINE
  5
50
100
AcDbEntity
  8
0
  6
CONTINUOUS
 62
    15
100
AcDbLine
 10
-73.13285
 20
-129.664571
 30
0.0
 11
-72.406505
 21
-129.478693
 31
0.0
  0
LINE
  5
51
100
AcDbEntity
  8
0
  6
CONTINUOUS
 62
    15
100
AcDbLine
 10
-72.406505
 20
-129.478693
 30
0.0
 11
-71.701795
 21
-129.275152
 31
0.0
  0
LINE
  5
52
100
AcDbEntity
  8
0
  6
CONTINUOUS
 62
    15
100
AcDbLine
 10
-71.701795
 20
-129.275152
 30
0.0
 11
-71.020653
 21
-129.054506
 31
0.0
  0
LINE
  5
53
100
AcDbEntity
  8
0
  6
CONTINUOUS
 62
    15
100
AcDbLine
 10
-71.020653
 20
-129.054506
 30
0.0
 11
-70.364944
 21
-128.817361
 31
0.0
  0
LINE
  5
54
100
AcDbEntity
  8
0
  6
CONTINUOUS
 62
    15
100
AcDbLine
 10
-70.364944
 20
-128.817361
 30
0.0
 11
-69.736466
 21
-128.564366
 31
0.0
  0
LINE
  5
55
100
AcDbEntity
  8
0
  6
CONTINUOUS
 62
    15
100
AcDbLine
 10
-69.736466
 20
-128.564366
 30
0.0
 11
-69.136942
 21
-128.296216
 31
0.0
  0
LINE
  5
56
100
AcDbEntity
  8
0
  6
CONTINUOUS
 62
    15
100
AcDbLine
 10
-69.136942
 20
-128.296216
 30
0.0
 11
-68.568015
 21
-128.013644
 31
0.0
  0
LINE
  5
57
100
AcDbEntity
  8
0
  6
CONTINUOUS
 62
    15
100
AcDbLine
 10
-68.568015
 20
-128.013644
 30
0.0
 11
-68.031244
 21
-127.717425
 31
0.0
  0
LINE
  5
58
100
AcDbEntity
  8
0
  6
CONTINUOUS
 62
    15
100
AcDbLine
 10
-68.031244
 20
-127.717425
 30
0.0
 11
-67.528101
 21
-127.408371
 31
0.0
  0
LINE
  5
59
100
AcDbEntity
  8
0
  6
CONTINUOUS
 62
    15
100
AcDbLine
 10
-67.528101
 20
-127.408371
 30
0.0
 11
-67.059965
 21
-127.08733
 31
0.0
  0
LINE
  5
5A
100
AcDbEntity
  8
0
  6
CONTINUOUS
 62
    15
100
AcDbLine
 10
-67.059965
 20
-127.08733
 30
0.0
 11
-66.628118
 21
-126.755182
 31
0.0
  0
LINE
  5
5B
100
AcDbEntity
  8
0
  6
CONTINUOUS
 62
    15
100
AcDbLine
 10
-66.628118
 20
-126.755182
 30
0.0
 11
-66.233745
 21
-126.412835
 31
0.0
  0
LINE
  5
5C
100
AcDbEntity
  8
0
  6
CONTINUOUS
 62
    15
100
AcDbLine
 10
-66.233745
 20
-126.412835
 30
0.0
 11
-65.877926
 21
-126.06123
 31
0.0
  0
LINE
  5
5D
100
AcDbEntity
  8
0
  6
CONTINUOUS
 62
    15
100
AcDbLine
 10
-65.877926
 20
-126.06123
 30
0.0
 11
-65.561637
 21
-125.70133
 31
0.0
  0
LINE
  5
5E
100
AcDbEntity
  8
0
  6
CONTINUOUS
 62
    15
100
AcDbLine
 10
-65.561637
 20
-125.70133
 30
0.0
 11
-65.285745
 21
-125.334121
 31
0.0
  0
LINE
  5
5F
100
AcDbEntity
  8
0
  6
CONTINUOUS
 62
    15
100
AcDbLine
 10
-65.285745
 20
-125.334121
 30
0.0
 11
-65.051005
 21
-124.960609
 31
0.0
  0
LINE
  5
60
100
AcDbEntity
  8
0
  6
CONTINUOUS
 62
    15
100
AcDbLine
 10
-65.051005
 20
-124.960609
 30
0.0
 11
-64.858062
 21
-124.581819
 31
0.0
  0
LINE
  5
61
100
AcDbEntity
  8
0
  6
CONTINUOUS
 62
    15
100
AcDbLine
 10
-64.858062
 20
-124.581819
 30
0.0
 11
-64.707444
 21
-124.198789
 31
0.0
  0
LINE
  5
62
100
AcDbEntity
  8
0
  6
CONTINUOUS
 62
    15
100
AcDbLine
 10
-64.707444
 20
-124.198789
 30
0.0
 11
-64.599564
 21
-123.812568
 31
0.0
  0
LINE
  5
63
100
AcDbEntity
  8
0
  6
CONTINUOUS
 62
    15
100
AcDbLine
 10
-64.599564
 20
-123.812568
 30
0.0
 11
-64.534717
 21
-123.424216
 31
0.0
  0
LINE
  5
64
100
AcDbEntity
  8
0
  6
CONTINUOUS
 62
    15
100
AcDbLine
 10
-64.534717
 20
-123.424216
 30
0.0
 11
-64.513082
 21
-123.034796
 31
0.0
  0
LINE
  5
65
100
AcDbEntity
  8
0
  6
CONTINUOUS
 62
    15
100
AcDbLine
 10
-64.513082
 20
-123.034796
 30
0.0
 11
-64.534717
 21
-122.645376
 31
0.0
  0
LINE
  5
66
100
AcDbEntity
  8
0
  6
CONTINUOUS
 62
    15
100
AcDbLine
 10
-64.534717
 20
-122.645376
 30
0.0
 11
-64.599564
 21
-122.257024
 31
0.0
  0
LINE
  5
67
100
AcDbEntity
  8
0
  6
CONTINUOUS
 62
    15
100
AcDbLine
 10
-64.599564
 20
-122.257024
 30
0.0
 11
-64.707444
 21
-121.870803
 31
0.0
  0
LINE
  5
68
100
AcDbEntity
  8
0
  6
CONTINUOUS
 62
    15
100
AcDbLine
 10
-64.707444
 20
-121.870803
 30
0.0
 11
-64.858062
 21
-121.487773
 31
0.0
  0
LINE
  5
69
100
AcDbEntity
  8
0
  6
CONTINUOUS
 62
    15
100
AcDbLine
 10
-64.858062
 20
-121.487773
 30
0.0
 11
-65.051005
 21
-121.108983
 31
0.0
  0
LINE
  5
6A
100
AcDbEntity
  8
0
  6
CONTINUOUS
 62
    15
100
AcDbLine
 10
-65.051005
 20
-121.108983
 30
0.0
 11
-65.285745
 21
-120.735471
 31
0.0
  0
LINE
  5
6B
100
AcDbEntity
  8
0
  6
CONTINUOUS
 62
    15
100
AcDbLine
 10
-65.285745
 20
-120.735471
 30
0.0
 11
-65.561637
 21
-120.368262
 31
0.0
  0
LINE
  5
6C
100
AcDbEntity
  8
0
  6
CONTINUOUS
 62
    15
100
AcDbLine
 10
-65.561637
 20
-120.368262
 30
0.0
 11
-65.877926
 21
-120.008362
 31
0.0
  0
LINE
  5
6D
100
AcDbEntity
  8
0
  6
CONTINUOUS
 62
    15
100
AcDbLine
 10
-65.877926
 20
-120.008362
 30
0.0
 11
-66.233745
 21
-119.656757
 31
0.0
  0
LINE
  5
6E
100
AcDbEntity
  8
0
  6
CONTINUOUS
 62
    15
100
AcDbLine
 10
-66.233745
 20
-119.656757
 30
0.0
 11
-66.628118
 21
-119.314411
 31
0.0
  0
LINE
  5
6F
100
AcDbEntity
  8
0
  6
CONTINUOUS
 62
    15
100
AcDbLine
 10
-66.628118
 20
-119.314411
 30
0.0
 11
-67.059965
 21
-118.982262
 31
0.0
  0
LINE
  5
70
100
AcDbEntity
  8
0
  6
CONTINUOUS
 62
    15
100
AcDbLine
 10
-67.059965
 20
-118.982262
 30
0.0
 11
-67.528101
 21
-118.661221
 31
0.0
  0
LINE
  5
71
100
AcDbEntity
  8
0
  6
CONTINUOUS
 62
    15
100
AcDbLine
 10
-67.528101
 20
-118.661221
 30
0.0
 11
-68.031244
 21
-118.352167
 31
0.0
  0
LINE
  5
72
100
AcDbEntity
  8
0
  6
CONTINUOUS
 62
    15
100
AcDbLine
 10
-68.031244
 20
-118.352167
 30
0.0
 11
-68.568015
 21
-118.055948
 31
0.0
  0
LINE
  5
73
100
AcDbEntity
  8
0
  6
CONTINUOUS
 62
    15
100
AcDbLine
 10
-68.568015
 20
-118.055948
 30
0.0
 11
-69.136942
 21
-117.773376
 31
0.0
  0
LINE
  5
74
100
AcDbEntity
  8
0
  6
CONTINUOUS
 62
    15
100
AcDbLine
 10
-69.136942
 20
-117.773376
 30
0.0
 11
-69.736466
 21
-117.505226
 31
0.0
  0
LINE
  5
75
100
AcDbEntity
  8
0
  6
CONTINUOUS
 62
    15
100
AcDbLine
 10
-69.736466
 20
-117.505226
 30
0.0
 11
-70.364944
 21
-117.252231
 31
0.0
  0
LINE
  5
76
100
AcDbEntity
  8
0
  6
CONTINUOUS
 62
    15
100
AcDbLine
 10
-70.364944
 20
-117.252231
 30
0.0
 11
-71.020653
 21
-117.015086
 31
0.0
  0
LINE
  5
77
100
AcDbEntity
  8
0
  6
CONTINUOUS
 62
    15
100
AcDbLine
 10
-71.020653
 20
-117.015086
 30
0.0
 11
-71.701795
 21
-116.79444
 31
0.0
  0
LINE
  5
78
100
AcDbEntity
  8
0
  6
CONTINUOUS
 62
    15
100
AcDbLine
 10
-71.701795
 20
-116.79444
 30
0.0
 11
-72.406505
 21
-116.590899
 31
0.0
  0
LINE
  5
79
100
AcDbEntity
  8
0
  6
CONTINUOUS
 62
    15
100
AcDbLine
 10
-72.406505
 20
-116.590899
 30
0.0
 11
-73.13285
 21
-116.405021
 31
0.0
  0
LINE
  5
7A
100
AcDbEntity
  8
0
  6
CONTINUOUS
 62
    15
100
AcDbLine
 10
-73.13285
 20
-116.405021
 30
0.0
 11
-73.878839
 21
-116.237314
 31
0.0
  0
LINE
  5
7B
100
AcDbEntity
  8
0
  6
CONTINUOUS
 62
    15
100
AcDbLine
 10
-73.878839
 20
-116.237314
 30
0.0
 11
-74.642428
 21
-116.088238
 31
0.0
  0
LINE
  5
7C
100
AcDbEntity
  8
0
  6
CONTINUOUS
 62
    15
100
AcDbLine
 10
-74.642428
 20
-116.088238
 30
0.0
 11
-75.421524
 21
-115.958202
 31
0.0
  0
LINE
  5
7D
100
AcDbEntity
  8
0
  6
CONTINUOUS
 62
    15
100
AcDbLine
 10
-75.421524
 20
-115.958202
 30
0.0
 11
-76.213992
 21
-115.847563
 31
0.0
  0
LINE
  5
7E
100
AcDbEntity
  8
0
  6
CONTINUOUS
 62
    15
100
AcDbLine
 10
-76.213992
 20
-115.847563
 30
0.0
 11
-77.017658
 21
-115.756624
 31
0.0
  0
LINE
  5
7F
100
AcDbEntity
  8
0
  6
CONTINUOUS
 62
    15
100
AcDbLine
 10
-77.017658
 20
-115.756624
 30
0.0
 11
-77.830321
 21
-115.685633
 31
0.0
  0
LINE
  5
80
100
AcDbEntity
  8
0
  6
CONTINUOUS
 62
    15
100
AcDbLine
 10
-77.830321
 20
-115.685633
 30
0.0
 11
-78.649753
 21
-115.634786
 31
0.0
  0
LINE
  5
81
100
AcDbEntity
  8
0
  6
CONTINUOUS
 62
    15
100
AcDbLine
 10
-78.649753
 20
-115.634786
 30
0.0
 11
-79.473708
 21
-115.604222
 31
0.0
  0
LINE
  5
82
100
AcDbEntity
  8
0
  6
CONTINUOUS
 62
    15
100
AcDbLine
 10
-79.473708
 20
-115.604222
 30
0.0
 11
-80.299928
 21
-115.594025
 31
0.0
  0
LINE
  5
83
100
AcDbEntity
  8
0
  6
CONTINUOUS
 62
    15
100
AcDbLine
 10
-80.299928
 20
-115.594025
 30
0.0
 11
-81.126148
 21
-115.604222
 31
0.0
  0
LINE
  5
84
100
AcDbEntity
  8
0
  6
CONTINUOUS
 62
    15
100
AcDbLine
 10
-81.126148
 20
-115.604222
 30
0.0
 11
-81.950103
 21
-115.634786
 31
0.0
  0
LINE
  5
85
100
AcDbEntity
  8
0
  6
CONTINUOUS
 62
    15
100
AcDbLine
 10
-81.950103
 20
-115.634786
 30
0.0
 11
-82.769535
 21
-115.685633
 31
0.0
  0
LINE
  5
86
100
AcDbEntity
  8
0
  6
CONTINUOUS
 62
    15
100
AcDbLine
 10
-82.769535
 20
-115.685633
 30
0.0
 11
-83.582198
 21
-115.756624
 31
0.0
  0
LINE
  5
87
100
AcDbEntity
  8
0
  6
CONTINUOUS
 62
    15
100
AcDbLine
 10
-83.582198
 20
-115.756624
 30
0.0
 11
-84.385865
 21
-115.847563
 31
0.0
  0
LINE
  5
88
100
AcDbEntity
  8
0
  6
CONTINUOUS
 62
    15
100
AcDbLine
 10
-84.385865
 20
-115.847563
 30
0.0
 11
-85.178332
 21
-115.958202
 31
0.0
  0
LINE
  5
89
100
AcDbEntity
  8
0
  6
CONTINUOUS
 62
    15
100
AcDbLine
 10
-85.178332
 20
-115.958202
 30
0.0
 11
-85.957428
 21
-116.088238
 31
0.0
  0
LINE
  5
8A
100
AcDbEntity
  8
0
  6
CONTINUOUS
 62
    15
100
AcDbLine
 10
-85.957428
 20
-116.088238
 30
0.0
 11
-86.721017
 21
-116.237314
 31
0.0
  0
LINE
  5
8B
100
AcDbEntity
  8
0
  6
CONTINUOUS
 62
    15
100
AcDbLine
 10
-86.721017
 20
-116.237314
 30
0.0
 11
-87.467006
 21
-116.405021
 31
0.0
  0
LINE
  5
8C
100
AcDbEntity
  8
0
  6
CONTINUOUS
 62
    15
100
AcDbLine
 10
-87.467006
 20
-116.405021
 30
0.0
 11
-88.193351
 21
-116.590899
 31
0.0
  0
LINE
  5
8D
100
AcDbEntity
  8
0
  6
CONTINUOUS
 62
    15
100
AcDbLine
 10
-88.193351
 20
-116.590899
 30
0.0
 11
-88.898061
 21
-116.79444
 31
0.0
  0
LINE
  5
8E
100
AcDbEntity
  8
0
  6
CONTINUOUS
 62
    15
100
AcDbLine
 10
-88.898061
 20
-116.79444
 30
0.0
 11
-89.579204
 21
-117.015086
 31
0.0
  0
LINE
  5
8F
100
AcDbEntity
  8
0
  6
CONTINUOUS
 62
    15
100
AcDbLine
 10
-89.579204
 20
-117.015086
 30
0.0
 11
-90.234912
 21
-117.252231
 31
0.0
  0
LINE
  5
90
100
AcDbEntity
  8
0
  6
CONTINUOUS
 62
    15
100
AcDbLine
 10
-90.234912
 20
-117.252231
 30
0.0
 11
-90.86339
 21
-117.505226
 31
0.0
  0
LINE
  5
91
100
AcDbEntity
  8
0
  6
CONTINUOUS
 62
    15
100
AcDbLine
 10
-90.86339
 20
-117.505226
 30
0.0
 11
-91.462914
 21
-117.773376
 31
0.0
  0
LINE
  5
92
100
AcDbEntity
  8
0
  6
CONTINUOUS
 62
    15
100
AcDbLine
 10
-91.462914
 20
-117.773376
 30
0.0
 11
-92.031841
 21
-118.055948
 31
0.0
  0
LINE
  5
93
100
AcDbEntity
  8
0
  6
CONTINUOUS
 62
    15
100
AcDbLine
 10
-92.031841
 20
-118.055948
 30
0.0
 11
-92.568612
 21
-118.352167
 31
0.0
  0
LINE
  5
94
100
AcDbEntity
  8
0
  6
CONTINUOUS
 62
    15
100
AcDbLine
 10
-92.568612
 20
-118.352167
 30
0.0
 11
-93.071755
 21
-118.661221
 31
0.0
  0
LINE
  5
95
100
AcDbEntity
  8
0
  6
CONTINUOUS
 62
    15
100
AcDbLine
 10
-93.071755
 20
-118.661221
 30
0.0
 11
-93.539892
 21
-118.982262
 31
0.0
  0
LINE
  5
96
100
AcDbEntity
  8
0
  6
CONTINUOUS
 62
    15
100
AcDbLine
 10
-93.539892
 20
-118.982262
 30
0.0
 11
-93.971738
 21
-119.314411
 31
0.0
  0
LINE
  5
97
100
AcDbEntity
  8
0
  6
CONTINUOUS
 62
    15
100
AcDbLine
 10
-93.971738
 20
-119.314411
 30
0.0
 11
-94.366111
 21
-119.656757
 31
0.0
  0
LINE
  5
98
100
AcDbEntity
  8
0
  6
CONTINUOUS
 62
    15
100
AcDbLine
 10
-94.366111
 20
-119.656757
 30
0.0
 11
-94.72193
 21
-120.008362
 31
0.0
  0
LINE
  5
99
100
AcDbEntity
  8
0
  6
CONTINUOUS
 62
    15
100
AcDbLine
 10
-94.72193
 20
-120.008362
 30
0.0
 11
-95.038219
 21
-120.368262
 31
0.0
  0
LINE
  5
9A
100
AcDbEntity
  8
0
  6
CONTINUOUS
 62
    15
100
AcDbLine
 10
-95.038219
 20
-120.368262
 30
0.0
 11
-95.314111
 21
-120.735471
 31
0.0
  0
LINE
  5
9B
100
AcDbEntity
  8
0
  6
CONTINUOUS
 62
    15
100
AcDbLine
 10
-95.314111
 20
-120.735471
 30
0.0
 11
-95.548851
 21
-121.108983
 31
0.0
  0
LINE
  5
9C
100
AcDbEntity
  8
0
  6
CONTINUOUS
 62
    15
100
AcDbLine
 10
-95.548851
 20
-121.108983
 30
0.0
 11
-95.741794
 21
-121.487773
 31
0.0
  0
LINE
  5
9D
100
AcDbEntity
  8
0
  6
CONTINUOUS
 62
    15
100
AcDbLine
 10
-95.741794
 20
-121.487773
 30
0.0
 11
-95.892412
 21
-121.870803
 31
0.0
  0
LINE
  5
9E
100
AcDbEntity
  8
0
  6
CONTINUOUS
 62
    15
100
AcDbLine
 10
-95.892412
 20
-121.870803
 30
0.0
 11
-96.000293
 21
-122.257024
 31
0.0
  0
LINE
  5
9F
100
AcDbEntity
  8
0
  6
CONTINUOUS
 62
    15
100
AcDbLine
 10
-96.000293
 20
-122.257024
 30
0.0
 11
-96.065139
 21
-122.645376
 31
0.0
  0
LINE
  5
A0
100
AcDbEntity
  8
0
  6
CONTINUOUS
 62
    15
100
AcDbLine
 10
-96.065139
 20
-122.645376
 30
0.0
 11
-96.086775
 21
-123.034796
 31
0.0
  0
ARC
  5
A1
100
AcDbEntity
  8
0
  6
CONTINUOUS
 62
    16
100
AcDbCircle
 10
-71.427183
 20
-127.330931
 30
0.0
 40
0.600591
100
AcDbArc
 50
61.06943
 51
142.6647
  0
ARC
  5
A2
100
AcDbEntity
  8
0
  6
CONTINUOUS
 62
    16
100
AcDbCircle
 10
-71.427183
 20
-127.330931
 30
0.0
 40
0.966216
100
AcDbArc
 50
64.49038
 51
142.973858
  0
LINE
  5
A3
100
AcDbEntity
  8
0
  6
CONTINUOUS
 62
    16
100
AcDbLine
 10
-88.242917
 20
-126.805289
 30
0.0
 11
-88.368495
 21
-126.458908
 31
0.0
  0
LINE
  5
A4
100
AcDbEntity
  8
0
  6
CONTINUOUS
 62
    16
100
AcDbLine
 10
-85.858858
 20
-127.402717
 30
0.0
 11
-85.983875
 21
-127.057881
 31
0.0
  0
ARC
  5
A5
100
AcDbEntity
  8
0
  6
CONTINUOUS
 62
    16
100
AcDbCircle
 10
-86.396956
 20
-126.184418
 30
0.0
 40
1.331841
100
AcDbArc
 50
-144.03027
 51
-66.169924
  0
ARC
  5
A6
100
AcDbEntity
  8
0
  6
CONTINUOUS
 62
    16
100
AcDbCircle
 10
-87.952382
 20
-127.330931
 30
0.0
 40
0.600591
100
AcDbArc
 50
37.3353
 51
118.93057
  0
ARC
  5
A7
100
AcDbEntity
  8
0
  6
CONTINUOUS
 62
    16
100
AcDbCircle
 10
-86.396956
 20
-126.184418
 30
0.0
 40
0.966216
100
AcDbArc
 50
-144.237877
 51
-64.689464
  0
ARC
  5
A8
100
AcDbEntity
  8
0
  6
CONTINUOUS
 62
    16
100
AcDbCircle
 10
-87.952382
 20
-127.330931
 30
0.0
 40
0.966216
100
AcDbArc
 50
37.026142
 51
115.50962
  0
LINE
  5
A9
100
AcDbEntity
  8
0
  6
CONTINUOUS
 62
    16
100
AcDbLine
 10
-73.520707
 20
-127.402717
 30
0.0
 11
-73.395689
 21
-127.057881
 31
0.0
  0
ARC
  5
AA
100
AcDbEntity
  8
0
  6
CONTINUOUS
 62
    16
100
AcDbCircle
 10
-72.982609
 20
-126.184418
 30
0.0
 40
0.966216
100
AcDbArc
 50
-115.310536
 51
-35.762123
  0
ARC
  5
AB
100
AcDbEntity
  8
0
  6
CONTINUOUS
 62
    16
100
AcDbCircle
 10
-72.982609
 20
-126.184418
 30
0.0
 40
1.331841
100
AcDbArc
 50
-113.830076
 51
-35.96973
  0
LINE
  5
AC
100
AcDbEntity
  8
0
  6
CONTINUOUS
 62
    16
100
AcDbLine
 10
-71.136647
 20
-126.805289
 30
0.0
 11
-71.01107
 21
-126.458908
 31
0.0
  0
ARC
  5
AD
100
AcDbEntity
  8
0
  6
CONTINUOUS
 62
    16
100
AcDbCircle
 10
-72.677657
 20
-122.745272
 30
0.0
 40
2.4375
100
AcDbArc
 50
-70.953953
 51
-51.766203
  0
LINE
  5
AE
100
AcDbEntity
  8
0
  6
CONTINUOUS
 62
    16
100
AcDbLine
 10
-71.842461
 20
-121.873913
 30
0.0
 11
-69.648711
 21
-121.873913
 31
0.0
  0
LINE
  5
AF
100
AcDbEntity
  8
0
  6
CONTINUOUS
 62
    16
100
AcDbLine
 10
-71.842461
 20
-125.286413
 30
0.0
 11
-70.379961
 21
-125.286413
 31
0.0
  0
LINE
  5
B0
100
AcDbEntity
  8
0
  6
CONTINUOUS
 62
    16
100
AcDbLine
 10
-69.981721
 20
-123.724354
 30
0.0
 11
-71.462745
 21
-122.342065
 31
0.0
  0
LINE
  5
B1
100
AcDbEntity
  8
0
  6
CONTINUOUS
 62
    16
100
AcDbLine
 10
-85.42418
 20
-123.724354
 30
0.0
 11
-86.905204
 21
-122.342065
 31
0.0
  0
LINE
  5
B2
100
AcDbEntity
  8
0
  6
CONTINUOUS
 62
    16
100
AcDbLine
 10
-84.688068
 20
-123.144388
 30
0.0
 11
-85.519505
 21
-122.36838
 31
0.0
  0
LINE
  5
B3
100
AcDbEntity
  8
0
  6
CONTINUOUS
 62
    16
100
AcDbLine
 10
-85.42418
 20
-123.724354
 30
0.0
 11
-86.611616
 21
-124.659908
 31
0.0
  0
LINE
  5
B4
100
AcDbEntity
  8
0
  6
CONTINUOUS
 62
    16
100
AcDbLine
 10
-85.189805
 20
-123.943104
 30
0.0
 11
-86.26232
 21
-124.788115
 31
0.0
  0
ARC
  5
B5
100
AcDbEntity
  8
0
  6
CONTINUOUS
 62
    16
100
AcDbCircle
 10
-85.436348
 20
-122.279283
 30
0.0
 40
0.121875
100
AcDbArc
 50
96.323695
 51
-133.025066
  0
LINE
  5
B6
100
AcDbEntity
  8
0
  6
CONTINUOUS
 62
    16
100
AcDbLine
 10
-87.284921
 20
-121.873913
 30
0.0
 11
-85.091171
 21
-121.873913
 31
0.0
  0
ARC
  5
B7
100
AcDbEntity
  8
0
  6
CONTINUOUS
 62
    16
100
AcDbCircle
 10
-86.186895
 20
-124.883847
 30
0.0
 40
0.121875
100
AcDbArc
 50
128.233797
 51
-95.605123
  0
LINE
  5
B8
100
AcDbEntity
  8
0
  6
CONTINUOUS
 62
    16
100
AcDbLine
 10
-85.810517
 20
-125.043246
 30
0.0
 11
-86.198799
 21
-125.005139
 31
0.0
  0
ARC
  5
B9
100
AcDbEntity
  8
0
  6
CONTINUOUS
 62
    16
100
AcDbCircle
 10
-85.822421
 20
-125.164538
 30
0.0
 40
0.121875
100
AcDbArc
 50
-90.0
 51
84.394877
  0
ARC
  5
BA
100
AcDbEntity
  8
0
  6
CONTINUOUS
 62
    16
100
AcDbCircle
 10
-88.120116
 20
-122.745272
 30
0.0
 40
2.4375
100
AcDbArc
 50
-70.953953
 51
-51.766203
  0
ARC
  5
BB
100
AcDbEntity
  8
0
  6
CONTINUOUS
 62
    16
100
AcDbCircle
 10
-87.284921
 20
-125.164538
 30
0.0
 40
0.121875
100
AcDbArc
 50
109.046047
 51
-90.0
  0
ARC
  5
BC
100
AcDbEntity
  8
0
  6
CONTINUOUS
 62
    16
100
AcDbCircle
 10
-87.570464
 20
-123.054844
 30
0.0
 40
0.975
100
AcDbArc
 50
46.974934
 51
74.910663
  0
ARC
  5
BD
100
AcDbEntity
  8
0
  6
CONTINUOUS
 62
    16
100
AcDbCircle
 10
-87.284921
 20
-121.995788
 30
0.0
 40
0.121875
100
AcDbArc
 50
90.0
 51
-105.089337
  0
LINE
  5
BE
100
AcDbEntity
  8
0
  6
CONTINUOUS
 62
    16
100
AcDbLine
 10
-87.284921
 20
-125.286413
 30
0.0
 11
-85.822421
 21
-125.286413
 31
0.0
  0
ARC
  5
BF
100
AcDbEntity
  8
0
  6
CONTINUOUS
 62
    16
100
AcDbCircle
 10
-89.172379
 20
-123.214538
 30
0.0
 40
1.70625
100
AcDbArc
 50
-90.0
 51
-27.818139
  0
ARC
  5
C0
100
AcDbEntity
  8
0
  6
CONTINUOUS
 62
    16
100
AcDbCircle
 10
-87.555525
 20
-124.067663
 30
0.0
 40
0.121875
100
AcDbArc
 50
0.0
 51
152.181861
  0
ARC
  5
C1
100
AcDbEntity
  8
0
  6
CONTINUOUS
 62
    16
100
AcDbCircle
 10
-88.6524
 20
-124.067663
 30
0.0
 40
1.21875
100
AcDbArc
 50
-90.0
 51
0.0
  0
ARC
  5
C2
100
AcDbEntity
  8
0
  6
CONTINUOUS
 62
    16
100
AcDbCircle
 10
-90.480525
 20
-124.677038
 30
0.0
 40
0.24375
100
AcDbArc
 50
180.0
 51
-90.0
  0
ARC
  5
C3
100
AcDbEntity
  8
0
  6
CONTINUOUS
 62
    16
100
AcDbCircle
 10
-89.498577
 20
-123.522815
 30
0.0
 40
0.771432
100
AcDbArc
 50
1.983446
 51
90.505274
  0
ARC
  5
C4
100
AcDbEntity
  8
0
  6
CONTINUOUS
 62
    16
100
AcDbCircle
 10
-88.605753
 20
-123.498357
 30
0.0
 40
0.121875
100
AcDbArc
 50
178.945911
 51
0.0
  0
ARC
  5
C5
100
AcDbEntity
  8
0
  6
CONTINUOUS
 62
    16
100
AcDbCircle
 10
-89.488288
 20
-121.630163
 30
0.0
 40
0.73125
100
AcDbArc
 50
-90.0
 51
-11.536959
  0
ARC
  5
C6
100
AcDbEntity
  8
0
  6
CONTINUOUS
 62
    16
100
AcDbCircle
 10
-88.6524
 20
-121.800788
 30
0.0
 40
0.121875
100
AcDbArc
 50
0.0
 51
168.463041
  0
LINE
  5
C7
100
AcDbEntity
  8
0
  6
CONTINUOUS
 62
    16
100
AcDbLine
 10
-88.530525
 20
-121.800788
 30
0.0
 11
-88.483878
 21
-123.498357
 31
0.0
  0
ARC
  5
C8
100
AcDbEntity
  8
0
  6
CONTINUOUS
 62
    16
100
AcDbCircle
 10
-90.6024
 20
-122.873288
 30
0.0
 40
0.121875
100
AcDbArc
 50
90.0
 51
180.0
  0
LINE
  5
C9
100
AcDbEntity
  8
0
  6
CONTINUOUS
 62
    16
100
AcDbLine
 10
-90.724275
 20
-122.873288
 30
0.0
 11
-90.724275
 21
-124.677038
 31
0.0
  0
ARC
  5
CA
100
AcDbEntity
  8
0
  6
CONTINUOUS
 62
    16
100
AcDbCircle
 10
-90.6024
 20
-122.239538
 30
0.0
 40
0.121875
100
AcDbArc
 50
180.0
 51
-90.0
  0
LINE
  5
CB
100
AcDbEntity
  8
0
  6
CONTINUOUS
 62
    16
100
AcDbLine
 10
-90.6024
 20
-122.751413
 30
0.0
 11
-89.50538
 21
-122.751413
 31
0.0
  0
LINE
  5
CC
100
AcDbEntity
  8
0
  6
CONTINUOUS
 62
    16
100
AcDbLine
 10
-90.6024
 20
-122.361413
 30
0.0
 11
-89.488288
 21
-122.361413
 31
0.0
  0
ARC
  5
CD
100
AcDbEntity
  8
0
  6
CONTINUOUS
 62
    16
100
AcDbCircle
 10
-90.578025
 20
-120.534341
 30
0.0
 40
0.14625
100
AcDbArc
 50
100.03753
 51
180.0
  0
ARC
  5
CE
100
AcDbEntity
  8
0
  6
CONTINUOUS
 62
    16
100
AcDbCircle
 10
-88.403411
 20
-120.623145
 30
0.0
 40
0.24375
100
AcDbArc
 50
11.915541
 51
80.345042
  0
ARC
  5
CF
100
AcDbEntity
  8
0
  6
CONTINUOUS
 62
    16
100
AcDbCircle
 10
-89.461469
 20
-126.842475
 30
0.0
 40
6.552438
100
AcDbArc
 50
80.345042
 51
100.03753
  0
LINE
  5
D0
100
AcDbEntity
  8
0
  6
CONTINUOUS
 62
    16
100
AcDbLine
 10
-87.980178
 20
-121.183006
 30
0.0
 11
-88.164913
 21
-120.572818
 31
0.0
  0
ARC
  5
D1
100
AcDbEntity
  8
0
  6
CONTINUOUS
 62
    16
100
AcDbCircle
 10
-87.865174
 20
-121.142663
 30
0.0
 40
0.121875
100
AcDbArc
 50
-175.499398
 51
0.0
  0
ARC
  5
D2
100
AcDbEntity
  8
0
  6
CONTINUOUS
 62
    16
100
AcDbCircle
 10
-87.92115
 20
-120.045788
 30
0.0
 40
0.121875
100
AcDbArc
 50
0.0
 51
90.0
  0
LINE
  5
D3
100
AcDbEntity
  8
0
  6
CONTINUOUS
 62
    16
100
AcDbLine
 10
-87.799275
 20
-120.045788
 30
0.0
 11
-87.743299
 21
-121.142663
 31
0.0
  0
ARC
  5
D4
100
AcDbEntity
  8
0
  6
CONTINUOUS
 62
    16
100
AcDbCircle
 10
-92.430525
 20
-120.71294
 30
0.0
 40
0.4875
100
AcDbArc
 50
0.0
 51
81.949746
  0
ARC
  5
D5
100
AcDbEntity
  8
0
  6
CONTINUOUS
 62
    16
100
AcDbCircle
 10
-92.430525
 20
-124.497386
 30
0.0
 40
0.4875
100
AcDbArc
 50
-81.949746
 51
0.0
  0
LINE
  5
D6
100
AcDbEntity
  8
0
  6
CONTINUOUS
 62
    16
100
AcDbLine
 10
-92.362254
 20
-124.980082
 30
0.0
 11
-92.813217
 21
-125.043864
 31
0.0
  0
LINE
  5
D7
100
AcDbEntity
  8
0
  6
CONTINUOUS
 62
    16
100
AcDbLine
 10
-92.362254
 20
-120.230244
 30
0.0
 11
-92.813217
 21
-120.166462
 31
0.0
  0
ARC
  5
D8
100
AcDbEntity
  8
0
  6
CONTINUOUS
 62
    16
100
AcDbCircle
 10
-92.79615
 20
-125.164538
 30
0.0
 40
0.121875
100
AcDbArc
 50
98.050254
 51
-90.0
  0
ARC
  5
D9
100
AcDbEntity
  8
0
  6
CONTINUOUS
 62
    16
100
AcDbCircle
 10
-92.79615
 20
-120.045788
 30
0.0
 40
0.121875
100
AcDbArc
 50
90.0
 51
-98.050254
  0
LINE
  5
DA
100
AcDbEntity
  8
0
  6
CONTINUOUS
 62
    16
100
AcDbLine
 10
-90.480525
 20
-124.920788
 30
0.0
 11
-89.172379
 21
-124.920788
 31
0.0
  0
LINE
  5
DB
100
AcDbEntity
  8
0
  6
CONTINUOUS
 62
    16
100
AcDbLine
 10
-90.724275
 20
-120.534341
 30
0.0
 11
-90.724275
 21
-122.239538
 31
0.0
  0
LINE
  5
DC
100
AcDbEntity
  8
0
  6
CONTINUOUS
 62
    16
100
AcDbLine
 10
-92.79615
 20
-119.923913
 30
0.0
 11
-87.92115
 21
-119.923913
 31
0.0
  0
LINE
  5
DD
100
AcDbEntity
  8
0
  6
CONTINUOUS
 62
    16
100
AcDbLine
 10
-92.79615
 20
-125.286413
 30
0.0
 11
-88.6524
 21
-125.286413
 31
0.0
  0
LINE
  5
DE
100
AcDbEntity
  8
0
  6
CONTINUOUS
 62
    16
100
AcDbLine
 10
-91.943025
 20
-120.71294
 30
0.0
 11
-91.943025
 21
-124.497386
 31
0.0
  0
ARC
  5
DF
100
AcDbEntity
  8
0
  6
CONTINUOUS
 62
    16
100
AcDbCircle
 10
-75.032933
 20
-123.088142
 30
0.0
 40
0.121875
100
AcDbArc
 50
-175.009732
 51
-90.0
  0
ARC
  5
E0
100
AcDbEntity
  8
0
  6
CONTINUOUS
 62
    16
100
AcDbCircle
 10
-73.514847
 20
-123.088142
 30
0.0
 40
0.121875
100
AcDbArc
 50
-90.0
 51
-4.990268
  0
ARC
  5
E1
100
AcDbEntity
  8
0
  6
CONTINUOUS
 62
    16
100
AcDbCircle
 10
-74.27389
 20
-123.021864
 30
0.0
 40
0.883806
100
AcDbArc
 50
-4.990268
 51
-175.009732
  0
ARC
  5
E2
100
AcDbEntity
  8
0
  6
CONTINUOUS
 62
    16
100
AcDbCircle
 10
-71.842461
 20
-121.995788
 30
0.0
 40
0.121875
100
AcDbArc
 50
90.0
 51
-105.089337
  0
ARC
  5
E3
100
AcDbEntity
  8
0
  6
CONTINUOUS
 62
    16
100
AcDbCircle
 10
-72.128005
 20
-123.054844
 30
0.0
 40
0.975
100
AcDbArc
 50
46.974934
 51
74.910663
  0
ARC
  5
E4
100
AcDbEntity
  8
0
  6
CONTINUOUS
 62
    16
100
AcDbCircle
 10
-71.842461
 20
-125.164538
 30
0.0
 40
0.121875
100
AcDbArc
 50
109.046047
 51
-90.0
  0
LINE
  5
E5
100
AcDbEntity
  8
0
  6
CONTINUOUS
 62
    16
100
AcDbLine
 10
-81.746797
 20
-125.286413
 30
0.0
 11
-79.562606
 21
-125.286413
 31
0.0
  0
LINE
  5
E6
100
AcDbEntity
  8
0
  6
CONTINUOUS
 62
    16
100
AcDbLine
 10
-73.989917
 20
-125.286413
 30
0.0
 11
-74.17639
 21
-125.284673
 31
0.0
  0
ARC
  5
E7
100
AcDbEntity
  8
0
  6
CONTINUOUS
 62
    16
100
AcDbCircle
 10
-72.358936
 20
-123.409538
 30
0.0
 40
0.121875
100
AcDbArc
 50
-90.0
 51
7.150316
  0
ARC
  5
E8
100
AcDbEntity
  8
0
  6
CONTINUOUS
 62
    16
100
AcDbCircle
 10
-75.034193
 20
-123.653288
 30
0.0
 40
0.121875
100
AcDbArc
 50
90.0
 51
-178.145644
  0
ARC
  5
E9
100
AcDbEntity
  8
0
  6
CONTINUOUS
 62
    16
100
AcDbCircle
 10
-74.04532
 20
-120.810315
 30
0.0
 40
3.923362
100
AcDbArc
 50
-89.982844
 51
-65.315854
  0
ARC
  5
EA
100
AcDbEntity
  8
0
  6
CONTINUOUS
 62
    16
100
AcDbCircle
 10
-74.044145
 20
-123.621234
 30
0.0
 40
1.112442
100
AcDbArc
 50
-178.145644
 51
-89.554178
  0
ARC
  5
EB
100
AcDbEntity
  8
0
  6
CONTINUOUS
 62
    16
100
AcDbCircle
 10
-73.989917
 20
-122.848913
 30
0.0
 40
2.4375
100
AcDbArc
 50
-90.0
 51
-44.850808
  0
ARC
  5
EC
100
AcDbEntity
  8
0
  6
CONTINUOUS
 62
    16
100
AcDbCircle
 10
-72.348265
 20
-124.482038
 30
0.0
 40
0.121875
100
AcDbArc
 50
-44.850808
 51
118.737939
  0
LINE
  5
ED
100
AcDbEntity
  8
0
  6
CONTINUOUS
 62
    16
100
AcDbLine
 10
-75.032933
 20
-123.210017
 30
0.0
 11
-73.514847
 21
-123.210017
 31
0.0
  0
LINE
  5
EE
100
AcDbEntity
  8
0
  6
CONTINUOUS
 62
    16
100
AcDbLine
 10
-75.034193
 20
-123.531413
 30
0.0
 11
-72.358936
 21
-123.531413
 31
0.0
  0
LINE
  5
EF
100
AcDbEntity
  8
0
  6
CONTINUOUS
 62
    16
100
AcDbLine
 10
-72.238009
 20
-123.394368
 30
0.0
 11
-72.251789
 21
-123.305947
 31
0.0
  0
LINE
  5
F0
100
AcDbEntity
  8
0
  6
CONTINUOUS
 62
    16
100
AcDbLine
 10
-72.251789
 20
-123.305947
 30
0.0
 11
-72.270845
 21
-123.218277
 31
0.0
  0
LINE
  5
F1
100
AcDbEntity
  8
0
  6
CONTINUOUS
 62
    16
100
AcDbLine
 10
-72.270845
 20
-123.218277
 30
0.0
 11
-72.295124
 21
-123.1316
 31
0.0
  0
LINE
  5
F2
100
AcDbEntity
  8
0
  6
CONTINUOUS
 62
    16
100
AcDbLine
 10
-72.295124
 20
-123.1316
 30
0.0
 11
-72.324559
 21
-123.046152
 31
0.0
  0
LINE
  5
F3
100
AcDbEntity
  8
0
  6
CONTINUOUS
 62
    16
100
AcDbLine
 10
-72.324559
 20
-123.046152
 30
0.0
 11
-72.35907
 21
-122.962168
 31
0.0
  0
LINE
  5
F4
100
AcDbEntity
  8
0
  6
CONTINUOUS
 62
    16
100
AcDbLine
 10
-72.35907
 20
-122.962168
 30
0.0
 11
-72.398563
 21
-122.879877
 31
0.0
  0
LINE
  5
F5
100
AcDbEntity
  8
0
  6
CONTINUOUS
 62
    16
100
AcDbLine
 10
-72.398563
 20
-122.879877
 30
0.0
 11
-72.442928
 21
-122.799506
 31
0.0
  0
LINE
  5
F6
100
AcDbEntity
  8
0
  6
CONTINUOUS
 62
    16
100
AcDbLine
 10
-72.442928
 20
-122.799506
 30
0.0
 11
-72.492044
 21
-122.721275
 31
0.0
  0
LINE
  5
F7
100
AcDbEntity
  8
0
  6
CONTINUOUS
 62
    16
100
AcDbLine
 10
-72.492044
 20
-122.721275
 30
0.0
 11
-72.545777
 21
-122.645398
 31
0.0
  0
LINE
  5
F8
100
AcDbEntity
  8
0
  6
CONTINUOUS
 62
    16
100
AcDbLine
 10
-72.545777
 20
-122.645398
 30
0.0
 11
-72.603979
 21
-122.572083
 31
0.0
  0
LINE
  5
F9
100
AcDbEntity
  8
0
  6
CONTINUOUS
 62
    16
100
AcDbLine
 10
-72.603979
 20
-122.572083
 30
0.0
 11
-72.666492
 21
-122.501531
 31
0.0
  0
LINE
  5
FA
100
AcDbEntity
  8
0
  6
CONTINUOUS
 62
    16
100
AcDbLine
 10
-72.666492
 20
-122.501531
 30
0.0
 11
-72.733143
 21
-122.433936
 31
0.0
  0
LINE
  5
FB
100
AcDbEntity
  8
0
  6
CONTINUOUS
 62
    16
100
AcDbLine
 10
-72.733143
 20
-122.433936
 30
0.0
 11
-72.803749
 21
-122.369482
 31
0.0
  0
LINE
  5
FC
100
AcDbEntity
  8
0
  6
CONTINUOUS
 62
    16
100
AcDbLine
 10
-72.803749
 20
-122.369482
 30
0.0
 11
-72.878118
 21
-122.308346
 31
0.0
  0
LINE
  5
FD
100
AcDbEntity
  8
0
  6
CONTINUOUS
 62
    16
100
AcDbLine
 10
-72.878118
 20
-122.308346
 30
0.0
 11
-72.956046
 21
-122.250697
 31
0.0
  0
LINE
  5
FE
100
AcDbEntity
  8
0
  6
CONTINUOUS
 62
    16
100
AcDbLine
 10
-72.956046
 20
-122.250697
 30
0.0
 11
-73.037318
 21
-122.196692
 31
0.0
  0
LINE
  5
FF
100
AcDbEntity
  8
0
  6
CONTINUOUS
 62
    16
100
AcDbLine
 10
-73.037318
 20
-122.196692
 30
0.0
 11
-73.121712
 21
-122.146478
 31
0.0
  0
LINE
  5
100
100
AcDbEntity
  8
0
  6
CONTINUOUS
 62
    16
100
AcDbLine
 10
-73.121712
 20
-122.146478
 30
0.0
 11
-73.208998
 21
-122.100195
 31
0.0
  0
LINE
  5
101
100
AcDbEntity
  8
0
  6
CONTINUOUS
 62
    16
100
AcDbLine
 10
-73.208998
 20
-122.100195
 30
0.0
 11
-73.298934
 21
-122.057967
 31
0.0
  0
LINE
  5
102
100
AcDbEntity
  8
0
  6
CONTINUOUS
 62
    16
100
AcDbLine
 10
-73.298934
 20
-122.057967
 30
0.0
 11
-73.391276
 21
-122.019912
 31
0.0
  0
LINE
  5
103
100
AcDbEntity
  8
0
  6
CONTINUOUS
 62
    16
100
AcDbLine
 10
-73.391276
 20
-122.019912
 30
0.0
 11
-73.48577
 21
-121.986134
 31
0.0
  0
LINE
  5
104
100
AcDbEntity
  8
0
  6
CONTINUOUS
 62
    16
100
AcDbLine
 10
-73.48577
 20
-121.986134
 30
0.0
 11
-73.582157
 21
-121.956724
 31
0.0
  0
LINE
  5
105
100
AcDbEntity
  8
0
  6
CONTINUOUS
 62
    16
100
AcDbLine
 10
-73.582157
 20
-121.956724
 30
0.0
 11
-73.680172
 21
-121.931765
 31
0.0
  0
LINE
  5
106
100
AcDbEntity
  8
0
  6
CONTINUOUS
 62
    16
100
AcDbLine
 10
-73.680172
 20
-121.931765
 30
0.0
 11
-73.779548
 21
-121.911323
 31
0.0
  0
LINE
  5
107
100
AcDbEntity
  8
0
  6
CONTINUOUS
 62
    16
100
AcDbLine
 10
-73.779548
 20
-121.911323
 30
0.0
 11
-73.880011
 21
-121.895456
 31
0.0
  0
LINE
  5
108
100
AcDbEntity
  8
0
  6
CONTINUOUS
 62
    16
100
AcDbLine
 10
-73.880011
 20
-121.895456
 30
0.0
 11
-73.981287
 21
-121.884206
 31
0.0
  0
LINE
  5
109
100
AcDbEntity
  8
0
  6
CONTINUOUS
 62
    16
100
AcDbLine
 10
-73.981287
 20
-121.884206
 30
0.0
 11
-74.083097
 21
-121.877605
 31
0.0
  0
LINE
  5
10A
100
AcDbEntity
  8
0
  6
CONTINUOUS
 62
    16
100
AcDbLine
 10
-74.083097
 20
-121.877605
 30
0.0
 11
-74.185163
 21
-121.87567
 31
0.0
  0
LINE
  5
10B
100
AcDbEntity
  8
0
  6
CONTINUOUS
 62
    16
100
AcDbLine
 10
-74.185163
 20
-121.87567
 30
0.0
 11
-74.287205
 21
-121.878408
 31
0.0
  0
LINE
  5
10C
100
AcDbEntity
  8
0
  6
CONTINUOUS
 62
    16
100
AcDbLine
 10
-74.287205
 20
-121.878408
 30
0.0
 11
-74.388944
 21
-121.885809
 31
0.0
  0
LINE
  5
10D
100
AcDbEntity
  8
0
  6
CONTINUOUS
 62
    16
100
AcDbLine
 10
-74.388944
 20
-121.885809
 30
0.0
 11
-74.490099
 21
-121.897855
 31
0.0
  0
LINE
  5
10E
100
AcDbEntity
  8
0
  6
CONTINUOUS
 62
    16
100
AcDbLine
 10
-74.490099
 20
-121.897855
 30
0.0
 11
-74.590395
 21
-121.914512
 31
0.0
  0
LINE
  5
10F
100
AcDbEntity
  8
0
  6
CONTINUOUS
 62
    16
100
AcDbLine
 10
-74.590395
 20
-121.914512
 30
0.0
 11
-74.689556
 21
-121.935735
 31
0.0
  0
LINE
  5
110
100
AcDbEntity
  8
0
  6
CONTINUOUS
 62
    16
100
AcDbLine
 10
-74.689556
 20
-121.935735
 30
0.0
 11
-74.787311
 21
-121.961464
 31
0.0
  0
LINE
  5
111
100
AcDbEntity
  8
0
  6
CONTINUOUS
 62
    16
100
AcDbLine
 10
-74.787311
 20
-121.961464
 30
0.0
 11
-74.883391
 21
-121.99163
 31
0.0
  0
LINE
  5
112
100
AcDbEntity
  8
0
  6
CONTINUOUS
 62
    16
100
AcDbLine
 10
-74.883391
 20
-121.99163
 30
0.0
 11
-74.977533
 21
-122.026151
 31
0.0
  0
LINE
  5
113
100
AcDbEntity
  8
0
  6
CONTINUOUS
 62
    16
100
AcDbLine
 10
-74.977533
 20
-122.026151
 30
0.0
 11
-75.069479
 21
-122.064931
 31
0.0
  0
LINE
  5
114
100
AcDbEntity
  8
0
  6
CONTINUOUS
 62
    16
100
AcDbLine
 10
-75.069479
 20
-122.064931
 30
0.0
 11
-75.158978
 21
-122.107864
 31
0.0
  0
LINE
  5
115
100
AcDbEntity
  8
0
  6
CONTINUOUS
 62
    16
100
AcDbLine
 10
-75.158978
 20
-122.107864
 30
0.0
 11
-75.245783
 21
-122.154832
 31
0.0
  0
LINE
  5
116
100
AcDbEntity
  8
0
  6
CONTINUOUS
 62
    16
100
AcDbLine
 10
-75.245783
 20
-122.154832
 30
0.0
 11
-75.329657
 21
-122.205707
 31
0.0
  0
LINE
  5
117
100
AcDbEntity
  8
0
  6
CONTINUOUS
 62
    16
100
AcDbLine
 10
-75.329657
 20
-122.205707
 30
0.0
 11
-75.41037
 21
-122.26035
 31
0.0
  0
LINE
  5
118
100
AcDbEntity
  8
0
  6
CONTINUOUS
 62
    16
100
AcDbLine
 10
-75.41037
 20
-122.26035
 30
0.0
 11
-75.487701
 21
-122.31861
 31
0.0
  0
LINE
  5
119
100
AcDbEntity
  8
0
  6
CONTINUOUS
 62
    16
100
AcDbLine
 10
-75.487701
 20
-122.31861
 30
0.0
 11
-75.561438
 21
-122.380328
 31
0.0
  0
LINE
  5
11A
100
AcDbEntity
  8
0
  6
CONTINUOUS
 62
    16
100
AcDbLine
 10
-75.561438
 20
-122.380328
 30
0.0
 11
-75.631378
 21
-122.445334
 31
0.0
  0
LINE
  5
11B
100
AcDbEntity
  8
0
  6
CONTINUOUS
 62
    16
100
AcDbLine
 10
-75.631378
 20
-122.445334
 30
0.0
 11
-75.69733
 21
-122.513451
 31
0.0
  0
LINE
  5
11C
100
AcDbEntity
  8
0
  6
CONTINUOUS
 62
    16
100
AcDbLine
 10
-75.69733
 20
-122.513451
 30
0.0
 11
-75.759114
 21
-122.584492
 31
0.0
  0
LINE
  5
11D
100
AcDbEntity
  8
0
  6
CONTINUOUS
 62
    16
100
AcDbLine
 10
-75.759114
 20
-122.584492
 30
0.0
 11
-75.816559
 21
-122.658262
 31
0.0
  0
LINE
  5
11E
100
AcDbEntity
  8
0
  6
CONTINUOUS
 62
    16
100
AcDbLine
 10
-75.816559
 20
-122.658262
 30
0.0
 11
-75.869509
 21
-122.734558
 31
0.0
  0
LINE
  5
11F
100
AcDbEntity
  8
0
  6
CONTINUOUS
 62
    16
100
AcDbLine
 10
-75.869509
 20
-122.734558
 30
0.0
 11
-75.917818
 21
-122.813173
 31
0.0
  0
LINE
  5
120
100
AcDbEntity
  8
0
  6
CONTINUOUS
 62
    16
100
AcDbLine
 10
-75.917818
 20
-122.813173
 30
0.0
 11
-75.961354
 21
-122.89389
 31
0.0
  0
LINE
  5
121
100
AcDbEntity
  8
0
  6
CONTINUOUS
 62
    16
100
AcDbLine
 10
-75.961354
 20
-122.89389
 30
0.0
 11
-75.999997
 21
-122.976487
 31
0.0
  0
LINE
  5
122
100
AcDbEntity
  8
0
  6
CONTINUOUS
 62
    16
100
AcDbLine
 10
-75.999997
 20
-122.976487
 30
0.0
 11
-76.033642
 21
-123.06074
 31
0.0
  0
LINE
  5
123
100
AcDbEntity
  8
0
  6
CONTINUOUS
 62
    16
100
AcDbLine
 10
-76.033642
 20
-123.06074
 30
0.0
 11
-76.062197
 21
-123.146416
 31
0.0
  0
LINE
  5
124
100
AcDbEntity
  8
0
  6
CONTINUOUS
 62
    16
100
AcDbLine
 10
-76.062197
 20
-123.146416
 30
0.0
 11
-76.085582
 21
-123.233281
 31
0.0
  0
LINE
  5
125
100
AcDbEntity
  8
0
  6
CONTINUOUS
 62
    16
100
AcDbLine
 10
-76.085582
 20
-123.233281
 30
0.0
 11
-76.103735
 21
-123.321096
 31
0.0
  0
LINE
  5
126
100
AcDbEntity
  8
0
  6
CONTINUOUS
 62
    16
100
AcDbLine
 10
-76.103735
 20
-123.321096
 30
0.0
 11
-76.116605
 21
-123.409622
 31
0.0
  0
LINE
  5
127
100
AcDbEntity
  8
0
  6
CONTINUOUS
 62
    16
100
AcDbLine
 10
-76.116605
 20
-123.409622
 30
0.0
 11
-76.124157
 21
-123.498615
 31
0.0
  0
LINE
  5
128
100
AcDbEntity
  8
0
  6
CONTINUOUS
 62
    16
100
AcDbLine
 10
-76.124157
 20
-123.498615
 30
0.0
 11
-76.12637
 21
-123.587832
 31
0.0
  0
LINE
  5
129
100
AcDbEntity
  8
0
  6
CONTINUOUS
 62
    16
100
AcDbLine
 10
-76.12637
 20
-123.587832
 30
0.0
 11
-76.123238
 21
-123.677028
 31
0.0
  0
LINE
  5
12A
100
AcDbEntity
  8
0
  6
CONTINUOUS
 62
    16
100
AcDbLine
 10
-76.123238
 20
-123.677028
 30
0.0
 11
-76.114771
 21
-123.765958
 31
0.0
  0
LINE
  5
12B
100
AcDbEntity
  8
0
  6
CONTINUOUS
 62
    16
100
AcDbLine
 10
-76.114771
 20
-123.765958
 30
0.0
 11
-76.10099
 21
-123.854379
 31
0.0
  0
LINE
  5
12C
100
AcDbEntity
  8
0
  6
CONTINUOUS
 62
    16
100
AcDbLine
 10
-76.10099
 20
-123.854379
 30
0.0
 11
-76.081934
 21
-123.942048
 31
0.0
  0
LINE
  5
12D
100
AcDbEntity
  8
0
  6
CONTINUOUS
 62
    16
100
AcDbLine
 10
-76.081934
 20
-123.942048
 30
0.0
 11
-76.057655
 21
-124.028726
 31
0.0
  0
LINE
  5
12E
100
AcDbEntity
  8
0
  6
CONTINUOUS
 62
    16
100
AcDbLine
 10
-76.057655
 20
-124.028726
 30
0.0
 11
-76.02822
 21
-124.114174
 31
0.0
  0
LINE
  5
12F
100
AcDbEntity
  8
0
  6
CONTINUOUS
 62
    16
100
AcDbLine
 10
-76.02822
 20
-124.114174
 30
0.0
 11
-75.993709
 21
-124.198158
 31
0.0
  0
LINE
  5
130
100
AcDbEntity
  8
0
  6
CONTINUOUS
 62
    16
100
AcDbLine
 10
-75.993709
 20
-124.198158
 30
0.0
 11
-75.954217
 21
-124.280449
 31
0.0
  0
LINE
  5
131
100
AcDbEntity
  8
0
  6
CONTINUOUS
 62
    16
100
AcDbLine
 10
-75.954217
 20
-124.280449
 30
0.0
 11
-75.909852
 21
-124.36082
 31
0.0
  0
LINE
  5
132
100
AcDbEntity
  8
0
  6
CONTINUOUS
 62
    16
100
AcDbLine
 10
-75.909852
 20
-124.36082
 30
0.0
 11
-75.860735
 21
-124.439051
 31
0.0
  0
LINE
  5
133
100
AcDbEntity
  8
0
  6
CONTINUOUS
 62
    16
100
AcDbLine
 10
-75.860735
 20
-124.439051
 30
0.0
 11
-75.807002
 21
-124.514928
 31
0.0
  0
LINE
  5
134
100
AcDbEntity
  8
0
  6
CONTINUOUS
 62
    16
100
AcDbLine
 10
-75.807002
 20
-124.514928
 30
0.0
 11
-75.7488
 21
-124.588243
 31
0.0
  0
LINE
  5
135
100
AcDbEntity
  8
0
  6
CONTINUOUS
 62
    16
100
AcDbLine
 10
-75.7488
 20
-124.588243
 30
0.0
 11
-75.686287
 21
-124.658795
 31
0.0
  0
LINE
  5
136
100
AcDbEntity
  8
0
  6
CONTINUOUS
 62
    16
100
AcDbLine
 10
-75.686287
 20
-124.658795
 30
0.0
 11
-75.619637
 21
-124.72639
 31
0.0
  0
LINE
  5
137
100
AcDbEntity
  8
0
  6
CONTINUOUS
 62
    16
100
AcDbLine
 10
-75.619637
 20
-124.72639
 30
0.0
 11
-75.54903
 21
-124.790844
 31
0.0
  0
LINE
  5
138
100
AcDbEntity
  8
0
  6
CONTINUOUS
 62
    16
100
AcDbLine
 10
-75.54903
 20
-124.790844
 30
0.0
 11
-75.474661
 21
-124.851979
 31
0.0
  0
LINE
  5
139
100
AcDbEntity
  8
0
  6
CONTINUOUS
 62
    16
100
AcDbLine
 10
-75.474661
 20
-124.851979
 30
0.0
 11
-75.396733
 21
-124.909629
 31
0.0
  0
LINE
  5
13A
100
AcDbEntity
  8
0
  6
CONTINUOUS
 62
    16
100
AcDbLine
 10
-75.396733
 20
-124.909629
 30
0.0
 11
-75.315461
 21
-124.963634
 31
0.0
  0
LINE
  5
13B
100
AcDbEntity
  8
0
  6
CONTINUOUS
 62
    16
100
AcDbLine
 10
-75.315461
 20
-124.963634
 30
0.0
 11
-75.231067
 21
-125.013848
 31
0.0
  0
LINE
  5
13C
100
AcDbEntity
  8
0
  6
CONTINUOUS
 62
    16
100
AcDbLine
 10
-75.231067
 20
-125.013848
 30
0.0
 11
-75.143781
 21
-125.060131
 31
0.0
  0
LINE
  5
13D
100
AcDbEntity
  8
0
  6
CONTINUOUS
 62
    16
100
AcDbLine
 10
-75.143781
 20
-125.060131
 30
0.0
 11
-75.053845
 21
-125.102359
 31
0.0
  0
LINE
  5
13E
100
AcDbEntity
  8
0
  6
CONTINUOUS
 62
    16
100
AcDbLine
 10
-75.053845
 20
-125.102359
 30
0.0
 11
-74.961503
 21
-125.140414
 31
0.0
  0
LINE
  5
13F
100
AcDbEntity
  8
0
  6
CONTINUOUS
 62
    16
100
AcDbLine
 10
-74.961503
 20
-125.140414
 30
0.0
 11
-74.867009
 21
-125.174192
 31
0.0
  0
LINE
  5
140
100
AcDbEntity
  8
0
  6
CONTINUOUS
 62
    16
100
AcDbLine
 10
-74.867009
 20
-125.174192
 30
0.0
 11
-74.770622
 21
-125.203602
 31
0.0
  0
LINE
  5
141
100
AcDbEntity
  8
0
  6
CONTINUOUS
 62
    16
100
AcDbLine
 10
-74.770622
 20
-125.203602
 30
0.0
 11
-74.672607
 21
-125.228561
 31
0.0
  0
LINE
  5
142
100
AcDbEntity
  8
0
  6
CONTINUOUS
 62
    16
100
AcDbLine
 10
-74.672607
 20
-125.228561
 30
0.0
 11
-74.573231
 21
-125.249003
 31
0.0
  0
LINE
  5
143
100
AcDbEntity
  8
0
  6
CONTINUOUS
 62
    16
100
AcDbLine
 10
-74.573231
 20
-125.249003
 30
0.0
 11
-74.472768
 21
-125.26487
 31
0.0
  0
LINE
  5
144
100
AcDbEntity
  8
0
  6
CONTINUOUS
 62
    16
100
AcDbLine
 10
-74.472768
 20
-125.26487
 30
0.0
 11
-74.371492
 21
-125.27612
 31
0.0
  0
LINE
  5
145
100
AcDbEntity
  8
0
  6
CONTINUOUS
 62
    16
100
AcDbLine
 10
-74.371492
 20
-125.27612
 30
0.0
 11
-74.269682
 21
-125.282721
 31
0.0
  0
LINE
  5
146
100
AcDbEntity
  8
0
  6
CONTINUOUS
 62
    16
100
AcDbLine
 10
-74.269682
 20
-125.282721
 30
0.0
 11
-74.17639
 21
-125.284673
 31
0.0
  0
ARC
  5
147
100
AcDbEntity
  8
0
  6
CONTINUOUS
 62
    16
100
AcDbCircle
 10
-77.887472
 20
-122.360805
 30
0.0
 40
2.925
100
AcDbArc
 50
-97.084921
 51
-58.986736
  0
ARC
  5
148
100
AcDbEntity
  8
0
  6
CONTINUOUS
 62
    16
100
AcDbCircle
 10
-77.173976
 20
-119.914952
 30
0.0
 40
4.875
100
AcDbArc
 50
-93.656295
 51
-81.212877
  0
ARC
  5
149
100
AcDbEntity
  8
0
  6
CONTINUOUS
 62
    16
100
AcDbCircle
 10
-77.466207
 20
-124.488124
 30
0.0
 40
0.2925
100
AcDbArc
 50
-180.0
 51
-93.656295
  0
ARC
  5
14A
100
AcDbEntity
  8
0
  6
CONTINUOUS
 62
    16
100
AcDbCircle
 10
-78.173082
 20
-124.658749
 30
0.0
 40
0.609375
100
AcDbArc
 50
-180.0
 51
-97.084921
  0
ARC
  5
14B
100
AcDbEntity
  8
0
  6
CONTINUOUS
 62
    16
100
AcDbCircle
 10
-76.418082
 20
-124.804999
 30
0.0
 40
0.073125
100
AcDbArc
 50
-66.672721
 51
98.787123
  0
LINE
  5
14C
100
AcDbEntity
  8
0
  6
CONTINUOUS
 62
    16
100
AcDbLine
 10
-76.620821
 20
-121.656852
 30
0.0
 11
-76.799251
 21
-121.873913
 31
0.0
  0
LINE
  5
14D
100
AcDbEntity
  8
0
  6
CONTINUOUS
 62
    16
100
AcDbLine
 10
-76.759332
 20
-122.361413
 30
0.0
 11
-76.496832
 21
-121.731413
 31
0.0
  0
ARC
  5
14E
100
AcDbEntity
  8
0
  6
CONTINUOUS
 62
    16
100
AcDbCircle
 10
-76.564332
 20
-121.703288
 30
0.0
 40
0.073125
100
AcDbArc
 50
-22.619865
 51
140.578807
  0
LINE
  5
14F
100
AcDbEntity
  8
0
  6
CONTINUOUS
 62
    16
100
AcDbLine
 10
-77.758707
 20
-121.873913
 30
0.0
 11
-77.758707
 21
-121.020788
 31
0.0
  0
LINE
  5
150
100
AcDbEntity
  8
0
  6
CONTINUOUS
 62
    16
100
AcDbLine
 10
-77.758707
 20
-122.361413
 30
0.0
 11
-76.759332
 21
-122.361413
 31
0.0
  0
ARC
  5
151
100
AcDbEntity
  8
0
  6
CONTINUOUS
 62
    16
100
AcDbCircle
 10
-85.217998
 20
-114.416529
 30
0.0
 40
9.75
100
AcDbArc
 50
-52.415461
 51
-41.989736
  0
ARC
  5
152
100
AcDbEntity
  8
0
  6
CONTINUOUS
 62
    16
100
AcDbCircle
 10
-77.880582
 20
-121.020788
 30
0.0
 40
0.121875
100
AcDbArc
 50
0.0
 51
138.010264
  0
ARC
  5
153
100
AcDbEntity
  8
0
  6
CONTINUOUS
 62
    16
100
AcDbCircle
 10
-79.196832
 20
-122.239538
 30
0.0
 40
0.121875
100
AcDbArc
 50
127.584539
 51
-90.0
  0
LINE
  5
154
100
AcDbEntity
  8
0
  6
CONTINUOUS
 62
    16
100
AcDbLine
 10
-79.196832
 20
-122.361413
 30
0.0
 11
-78.782457
 21
-122.361413
 31
0.0
  0
LINE
  5
155
100
AcDbEntity
  8
0
  6
CONTINUOUS
 62
    16
100
AcDbLine
 10
-77.758707
 20
-124.488124
 30
0.0
 11
-77.758707
 21
-122.361413
 31
0.0
  0
LINE
  5
156
100
AcDbEntity
  8
0
  6
CONTINUOUS
 62
    16
100
AcDbLine
 10
-78.782457
 20
-124.658749
 30
0.0
 11
-78.782457
 21
-122.361413
 31
0.0
  0
LINE
  5
157
100
AcDbEntity
  8
0
  6
CONTINUOUS
 62
    16
100
AcDbLine
 10
-77.758707
 20
-121.873913
 30
0.0
 11
-76.799251
 21
-121.873913
 31
0.0
  0
ARC
  5
158
100
AcDbEntity
  8
0
  6
CONTINUOUS
 62
    16
100
AcDbCircle
 10
-81.726251
 20
-119.495365
 30
0.0
 40
1.962907
100
AcDbArc
 50
-55.581084
 51
-34.235696
  0
ARC
  5
159
100
AcDbEntity
  8
0
  6
CONTINUOUS
 62
    16
100
AcDbCircle
 10
-81.726251
 20
-121.577877
 30
0.0
 40
1.962907
100
AcDbArc
 50
34.235696
 51
55.581084
  0
ARC
  5
15A
100
AcDbEntity
  8
0
  6
CONTINUOUS
 62
    16
100
AcDbCircle
 10
-79.64733
 20
-121.577877
 30
0.0
 40
1.962907
100
AcDbArc
 50
124.418916
 51
145.764304
  0
ARC
  5
15B
100
AcDbEntity
  8
0
  6
CONTINUOUS
 62
    16
100
AcDbCircle
 10
-79.64733
 20
-119.495365
 30
0.0
 40
1.962907
100
AcDbArc
 50
-145.764304
 51
-124.418916
  0
ARC
  5
15C
100
AcDbEntity
  8
0
  6
CONTINUOUS
 62
    16
100
AcDbCircle
 10
-80.68679
 20
-121.030215
 30
0.0
 40
0.109688
100
AcDbArc
 50
-129.690928
 51
-50.309072
  0
ARC
  5
15D
100
AcDbEntity
  8
0
  6
CONTINUOUS
 62
    16
100
AcDbCircle
 10
-81.180384
 20
-120.536621
 30
0.0
 40
0.109688
100
AcDbArc
 50
144.899116
 51
-144.899116
  0
ARC
  5
15E
100
AcDbEntity
  8
0
  6
CONTINUOUS
 62
    16
100
AcDbCircle
 10
-80.68679
 20
-120.043027
 30
0.0
 40
0.109688
100
AcDbArc
 50
50.309072
 51
129.690928
  0
ARC
  5
15F
100
AcDbEntity
  8
0
  6
CONTINUOUS
 62
    16
100
AcDbCircle
 10
-80.193197
 20
-120.536621
 30
0.0
 40
0.109688
100
AcDbArc
 50
-35.100884
 51
35.100884
  0
ARC
  5
160
100
AcDbEntity
  8
0
  6
CONTINUOUS
 62
    16
100
AcDbCircle
 10
-80.040547
 20
-124.862864
 30
0.0
 40
0.121875
100
AcDbArc
 50
180.0
 51
-96.711459
  0
LINE
  5
161
100
AcDbEntity
  8
0
  6
CONTINUOUS
 62
    16
100
AcDbLine
 10
-79.548363
 20
-125.043498
 30
0.0
 11
-80.054791
 21
-124.983904
 31
0.0
  0
ARC
  5
162
100
AcDbEntity
  8
0
  6
CONTINUOUS
 62
    16
100
AcDbCircle
 10
-79.562606
 20
-125.164538
 30
0.0
 40
0.121875
100
AcDbArc
 50
-90.0
 51
83.288541
  0
ARC
  5
163
100
AcDbEntity
  8
0
  6
CONTINUOUS
 62
    16
100
AcDbCircle
 10
-81.308047
 20
-124.867476
 30
0.0
 40
0.121875
100
AcDbArc
 50
-83.288541
 51
0.0
  0
LINE
  5
164
100
AcDbEntity
  8
0
  6
CONTINUOUS
 62
    16
100
AcDbLine
 10
-81.761041
 20
-125.043498
 30
0.0
 11
-81.293804
 21
-124.988516
 31
0.0
  0
ARC
  5
165
100
AcDbEntity
  8
0
  6
CONTINUOUS
 62
    16
100
AcDbCircle
 10
-81.746797
 20
-125.164538
 30
0.0
 40
0.121875
100
AcDbArc
 50
96.711459
 51
-90.0
  0
LINE
  5
166
100
AcDbEntity
  8
0
  6
CONTINUOUS
 62
    16
100
AcDbLine
 10
-81.308047
 20
-122.534022
 30
0.0
 11
-81.754046
 21
-122.507447
 31
0.0
  0
ARC
  5
167
100
AcDbEntity
  8
0
  6
CONTINUOUS
 62
    16
100
AcDbCircle
 10
-81.308047
 20
-122.655897
 30
0.0
 40
0.121875
100
AcDbArc
 50
0.0
 51
90.0
  0
ARC
  5
168
100
AcDbEntity
  8
0
  6
CONTINUOUS
 62
    16
100
AcDbCircle
 10
-83.551675
 20
-112.680308
 30
0.0
 40
9.75
100
AcDbArc
 50
-79.46534
 51
-70.671826
  0
ARC
  5
169
100
AcDbEntity
  8
0
  6
CONTINUOUS
 62
    16
100
AcDbCircle
 10
-80.284297
 20
-121.995788
 30
0.0
 40
0.121875
100
AcDbArc
 50
0.0
 51
109.328174
  0
ARC
  5
16A
100
AcDbEntity
  8
0
  6
CONTINUOUS
 62
    16
100
AcDbCircle
 10
-81.746797
 20
-122.385788
 30
0.0
 40
0.121875
100
AcDbArc
 50
100.53466
 51
-93.409894
  0
LINE
  5
16B
100
AcDbEntity
  8
0
  6
CONTINUOUS
 62
    16
100
AcDbLine
 10
-80.162422
 20
-124.862864
 30
0.0
 11
-80.162422
 21
-121.995788
 31
0.0
  0
LINE
  5
16C
100
AcDbEntity
  8
0
  6
CONTINUOUS
 62
    16
100
AcDbLine
 10
-81.186172
 20
-124.867476
 30
0.0
 11
-81.186172
 21
-122.655897
 31
0.0
  0
LINE
  5
16D
100
AcDbEntity
  8
0
  6
CONTINUOUS
 62
    16
100
AcDbLine
 10
-84.708666
 20
-125.286413
 30
0.0
 11
-82.514916
 21
-125.286413
 31
0.0
  0
LINE
  5
16E
100
AcDbEntity
  8
0
  6
CONTINUOUS
 62
    16
100
AcDbLine
 10
-83.977416
 20
-121.873913
 30
0.0
 11
-82.514916
 21
-121.873913
 31
0.0
  0
ARC
  5
16F
100
AcDbEntity
  8
0
  6
CONTINUOUS
 62
    16
100
AcDbCircle
 10
-83.755378
 20
-122.254384
 30
0.0
 40
0.121875
100
AcDbArc
 50
-51.766203
 51
86.30527
  0
LINE
  5
170
100
AcDbEntity
  8
0
  6
CONTINUOUS
 62
    16
100
AcDbLine
 10
-83.98527
 20
-122.11741
 30
0.0
 11
-83.747524
 21
-122.132762
 31
0.0
  0
ARC
  5
171
100
AcDbEntity
  8
0
  6
CONTINUOUS
 62
    16
100
AcDbCircle
 10
-83.977416
 20
-121.995788
 30
0.0
 40
0.121875
100
AcDbArc
 50
90.0
 51
-93.69473
  0
ARC
  5
172
100
AcDbEntity
  8
0
  6
CONTINUOUS
 62
    16
100
AcDbCircle
 10
-84.360221
 20
-124.884094
 30
0.0
 40
0.121875
100
AcDbArc
 50
-84.193047
 51
46.974934
  0
LINE
  5
173
100
AcDbEntity
  8
0
  6
CONTINUOUS
 62
    16
100
AcDbLine
 10
-84.720997
 20
-125.043288
 30
0.0
 11
-84.34789
 21
-125.005344
 31
0.0
  0
ARC
  5
174
100
AcDbEntity
  8
0
  6
CONTINUOUS
 62
    16
100
AcDbCircle
 10
-84.708666
 20
-125.164538
 30
0.0
 40
0.121875
100
AcDbArc
 50
95.806953
 51
-90.0
  0
LINE
  5
175
100
AcDbEntity
  8
0
  6
CONTINUOUS
 62
    16
100
AcDbLine
 10
-85.077747
 20
-122.116921
 30
0.0
 11
-85.449772
 21
-122.158149
 31
0.0
  0
ARC
  5
176
100
AcDbEntity
  8
0
  6
CONTINUOUS
 62
    16
100
AcDbCircle
 10
-85.091171
 20
-121.995788
 30
0.0
 40
0.121875
100
AcDbArc
 50
-83.676305
 51
90.0
  0
ARC
  5
177
100
AcDbEntity
  8
0
  6
CONTINUOUS
 62
    16
100
AcDbCircle
 10
-81.947068
 20
-124.491374
 30
0.0
 40
2.4375
100
AcDbArc
 50
102.818894
 51
128.233797
  0
ARC
  5
178
100
AcDbEntity
  8
0
  6
CONTINUOUS
 62
    16
100
AcDbCircle
 10
-82.514916
 20
-121.995788
 30
0.0
 40
0.121875
100
AcDbArc
 50
-77.181106
 51
90.0
  0
LINE
  5
179
100
AcDbEntity
  8
0
  6
CONTINUOUS
 62
    16
100
AcDbLine
 10
-83.455568
 20
-122.576737
 30
0.0
 11
-84.453693
 21
-123.363138
 31
0.0
  0
LINE
  5
17A
100
AcDbEntity
  8
0
  6
CONTINUOUS
 62
    16
100
AcDbLine
 10
-83.679953
 20
-122.350116
 30
0.0
 11
-84.688068
 21
-123.144388
 31
0.0
  0
ARC
  5
17B
100
AcDbEntity
  8
0
  6
CONTINUOUS
 62
    16
100
AcDbCircle
 10
-82.229373
 20
-124.105482
 30
0.0
 40
0.975
100
AcDbArc
 50
-133.025066
 51
-105.089337
  0
ARC
  5
17C
100
AcDbEntity
  8
0
  6
CONTINUOUS
 62
    16
100
AcDbCircle
 10
-82.514916
 20
-125.164538
 30
0.0
 40
0.121875
100
AcDbArc
 50
-90.0
 51
74.910663
  0
LINE
  5
17D
100
AcDbEntity
  8
0
  6
CONTINUOUS
 62
    16
100
AcDbLine
 10
-82.894633
 20
-124.818261
 30
0.0
 11
-84.453693
 21
-123.363138
 31
0.0
  0
LINE
  5
17E
100
AcDbEntity
  8
0
  6
CONTINUOUS
 62
    16
100
AcDbLine
 10
-84.277063
 20
-124.794997
 30
0.0
 11
-85.189805
 21
-123.943104
 31
0.0
  0
ARC
  5
17F
100
AcDbEntity
  8
0
  6
CONTINUOUS
 62
    16
100
AcDbCircle
 10
-67.072457
 20
-121.995788
 30
0.0
 40
0.121875
100
AcDbArc
 50
-77.181106
 51
90.0
  0
LINE
  5
180
100
AcDbEntity
  8
0
  6
CONTINUOUS
 62
    16
100
AcDbLine
 10
-68.54281
 20
-122.11741
 30
0.0
 11
-68.305065
 21
-122.132762
 31
0.0
  0
ARC
  5
181
100
AcDbEntity
  8
0
  6
CONTINUOUS
 62
    16
100
AcDbCircle
 10
-68.312918
 20
-122.254384
 30
0.0
 40
0.121875
100
AcDbArc
 50
-51.766203
 51
86.30527
  0
LINE
  5
182
100
AcDbEntity
  8
0
  6
CONTINUOUS
 62
    16
100
AcDbLine
 10
-68.534957
 20
-121.873913
 30
0.0
 11
-67.072457
 21
-121.873913
 31
0.0
  0
ARC
  5
183
100
AcDbEntity
  8
0
  6
CONTINUOUS
 62
    16
100
AcDbCircle
 10
-69.648711
 20
-121.995788
 30
0.0
 40
0.121875
100
AcDbArc
 50
-83.676305
 51
90.0
  0
ARC
  5
184
100
AcDbEntity
  8
0
  6
CONTINUOUS
 62
    16
100
AcDbCircle
 10
-69.993888
 20
-122.279283
 30
0.0
 40
0.121875
100
AcDbArc
 50
96.323695
 51
-133.025066
  0
LINE
  5
185
100
AcDbEntity
  8
0
  6
CONTINUOUS
 62
    16
100
AcDbLine
 10
-69.635287
 20
-122.116921
 30
0.0
 11
-70.007312
 21
-122.158149
 31
0.0
  0
ARC
  5
186
100
AcDbEntity
  8
0
  6
CONTINUOUS
 62
    16
100
AcDbCircle
 10
-68.534957
 20
-121.995788
 30
0.0
 40
0.121875
100
AcDbArc
 50
90.0
 51
-93.69473
  0
LINE
  5
187
100
AcDbEntity
  8
0
  6
CONTINUOUS
 62
    16
100
AcDbLine
 10
-68.013108
 20
-122.576737
 30
0.0
 11
-69.011233
 21
-123.363138
 31
0.0
  0
LINE
  5
188
100
AcDbEntity
  8
0
  6
CONTINUOUS
 62
    16
100
AcDbLine
 10
-69.245609
 20
-123.144388
 30
0.0
 11
-70.077046
 21
-122.36838
 31
0.0
  0
LINE
  5
189
100
AcDbEntity
  8
0
  6
CONTINUOUS
 62
    16
100
AcDbLine
 10
-68.237493
 20
-122.350116
 30
0.0
 11
-69.245609
 21
-123.144388
 31
0.0
  0
ARC
  5
18A
100
AcDbEntity
  8
0
  6
CONTINUOUS
 62
    16
100
AcDbCircle
 10
-66.504608
 20
-124.491374
 30
0.0
 40
2.4375
100
AcDbArc
 50
102.818894
 51
128.233797
  0
ARC
  5
18B
100
AcDbEntity
  8
0
  6
CONTINUOUS
 62
    16
100
AcDbCircle
 10
-66.786913
 20
-124.105482
 30
0.0
 40
0.975
100
AcDbArc
 50
-133.025066
 51
-105.089337
  0
ARC
  5
18C
100
AcDbEntity
  8
0
  6
CONTINUOUS
 62
    16
100
AcDbCircle
 10
-67.072457
 20
-125.164538
 30
0.0
 40
0.121875
100
AcDbArc
 50
-90.0
 51
74.910663
  0
LINE
  5
18D
100
AcDbEntity
  8
0
  6
CONTINUOUS
 62
    16
100
AcDbLine
 10
-69.278538
 20
-125.043288
 30
0.0
 11
-68.90543
 21
-125.005344
 31
0.0
  0
ARC
  5
18E
100
AcDbEntity
  8
0
  6
CONTINUOUS
 62
    16
100
AcDbCircle
 10
-68.917761
 20
-124.884094
 30
0.0
 40
0.121875
100
AcDbArc
 50
-84.193047
 51
46.974934
  0
LINE
  5
18F
100
AcDbEntity
  8
0
  6
CONTINUOUS
 62
    16
100
AcDbLine
 10
-70.368057
 20
-125.043246
 30
0.0
 11
-70.756339
 21
-125.005139
 31
0.0
  0
ARC
  5
190
100
AcDbEntity
  8
0
  6
CONTINUOUS
 62
    16
100
AcDbCircle
 10
-70.379961
 20
-125.164538
 30
0.0
 40
0.121875
100
AcDbArc
 50
-90.0
 51
84.394877
  0
ARC
  5
191
100
AcDbEntity
  8
0
  6
CONTINUOUS
 62
    16
100
AcDbCircle
 10
-69.266207
 20
-125.164538
 30
0.0
 40
0.121875
100
AcDbArc
 50
95.806953
 51
-90.0
  0
LINE
  5
192
100
AcDbEntity
  8
0
  6
CONTINUOUS
 62
    16
100
AcDbLine
 10
-69.266207
 20
-125.286413
 30
0.0
 11
-67.072457
 21
-125.286413
 31
0.0
  0
LINE
  5
193
100
AcDbEntity
  8
0
  6
CONTINUOUS
 62
    16
100
AcDbLine
 10
-68.834603
 20
-124.794997
 30
0.0
 11
-69.747345
 21
-123.943104
 31
0.0
  0
LINE
  5
194
100
AcDbEntity
  8
0
  6
CONTINUOUS
 62
    16
100
AcDbLine
 10
-69.747345
 20
-123.943104
 30
0.0
 11
-70.81986
 21
-124.788115
 31
0.0
  0
LINE
  5
195
100
AcDbEntity
  8
0
  6
CONTINUOUS
 62
    16
100
AcDbLine
 10
-67.452173
 20
-124.818261
 30
0.0
 11
-69.011233
 21
-123.363138
 31
0.0
  0
ARC
  5
196
100
AcDbEntity
  8
0
  6
CONTINUOUS
 62
    16
100
AcDbCircle
 10
-70.744435
 20
-124.883847
 30
0.0
 40
0.121875
100
AcDbArc
 50
128.233797
 51
-95.605123
  0
LINE
  5
197
100
AcDbEntity
  8
0
  6
CONTINUOUS
 62
    16
100
AcDbLine
 10
-69.981721
 20
-123.724354
 30
0.0
 11
-71.169157
 21
-124.659908
 31
0.0
  0
LINE
  5
198
100
AcDbEntity
  8
0
  6
CONTINUOUS
 62
    15
100
AcDbLine
 10
-85.254071
 20
-130.605665
 30
0.0
 11
-84.448553
 21
-130.718126
 31
0.0
  0
LINE
  5
199
100
AcDbEntity
  8
0
  6
CONTINUOUS
 62
    15
100
AcDbLine
 10
-84.448553
 20
-130.718126
 30
0.0
 11
-83.632072
 21
-130.810516
 31
0.0
  0
LINE
  5
19A
100
AcDbEntity
  8
0
  6
CONTINUOUS
 62
    15
100
AcDbLine
 10
-83.632072
 20
-130.810516
 30
0.0
 11
-82.80678
 21
-130.882609
 31
0.0
  0
LINE
  5
19B
100
AcDbEntity
  8
0
  6
CONTINUOUS
 62
    15
100
AcDbLine
 10
-82.80678
 20
-130.882609
 30
0.0
 11
-81.974857
 21
-130.934231
 31
0.0
  0
LINE
  5
19C
100
AcDbEntity
  8
0
  6
CONTINUOUS
 62
    15
100
AcDbLine
 10
-81.974857
 20
-130.934231
 30
0.0
 11
-81.138502
 21
-130.965255
 31
0.0
  0
LINE
  5
19D
100
AcDbEntity
  8
0
  6
CONTINUOUS
 62
    15
100
AcDbLine
 10
-81.138502
 20
-130.965255
 30
0.0
 11
-80.299928
 21
-130.975605
 31
0.0
  0
LINE
  5
19E
100
AcDbEntity
  8
0
  6
CONTINUOUS
 62
    15
100
AcDbLine
 10
-80.299928
 20
-130.975605
 30
0.0
 11
-79.461354
 21
-130.965255
 31
0.0
  0
LINE
  5
19F
100
AcDbEntity
  8
0
  6
CONTINUOUS
 62
    15
100
AcDbLine
 10
-79.461354
 20
-130.965255
 30
0.0
 11
-78.624999
 21
-130.934231
 31
0.0
  0
LINE
  5
1A0
100
AcDbEntity
  8
0
  6
CONTINUOUS
 62
    15
100
AcDbLine
 10
-78.624999
 20
-130.934231
 30
0.0
 11
-77.793076
 21
-130.882609
 31
0.0
  0
LINE
  5
1A1
100
AcDbEntity
  8
0
  6
CONTINUOUS
 62
    15
100
AcDbLine
 10
-77.793076
 20
-130.882609
 30
0.0
 11
-76.967785
 21
-130.810516
 31
0.0
  0
LINE
  5
1A2
100
AcDbEntity
  8
0
  6
CONTINUOUS
 62
    15
100
AcDbLine
 10
-76.967785
 20
-130.810516
 30
0.0
 11
-76.151303
 21
-130.718126
 31
0.0
  0
LINE
  5
1A3
100
AcDbEntity
  8
0
  6
CONTINUOUS
 62
    15
100
AcDbLine
 10
-76.151303
 20
-130.718126
 30
0.0
 11
-75.345786
 21
-130.605665
 31
0.0
  0
LINE
  5
1A4
100
AcDbEntity
  8
0
  6
CONTINUOUS
 62
    15
100
AcDbLine
 10
-75.345786
 20
-130.605665
 30
0.0
 11
-74.553351
 21
-130.473403
 31
0.0
  0
LINE
  5
1A5
100
AcDbEntity
  8
0
  6
CONTINUOUS
 62
    15
100
AcDbLine
 10
-74.553351
 20
-130.473403
 30
0.0
 11
-73.776081
 21
-130.321657
 31
0.0
  0
LINE
  5
1A6
100
AcDbEntity
  8
0
  6
CONTINUOUS
 62
    15
100
AcDbLine
 10
-73.776081
 20
-130.321657
 30
0.0
 11
-73.01601
 21
-130.150784
 31
0.0
  0
LINE
  5
1A7
100
AcDbEntity
  8
0
  6
CONTINUOUS
 62
    15
100
AcDbLine
 10
-73.01601
 20
-130.150784
 30
0.0
 11
-72.275122
 21
-129.961183
 31
0.0
  0
LINE
  5
1A8
100
AcDbEntity
  8
0
  6
CONTINUOUS
 62
    15
100
AcDbLine
 10
-72.275122
 20
-129.961183
 30
0.0
 11
-71.555344
 21
-129.75329
 31
0.0
  0
LINE
  5
1A9
100
AcDbEntity
  8
0
  6
CONTINUOUS
 62
    15
100
AcDbLine
 10
-71.555344
 20
-129.75329
 30
0.0
 11
-70.858539
 21
-129.527571
 31
0.0
  0
LINE
  5
1AA
100
AcDbEntity
  8
0
  6
CONTINUOUS
 62
    15
100
AcDbLine
 10
-70.858539
 20
-129.527571
 30
0.0
 11
-70.186504
 21
-129.284521
 31
0.0
  0
LINE
  5
1AB
100
AcDbEntity
  8
0
  6
CONTINUOUS
 62
    15
100
AcDbLine
 10
-70.186504
 20
-129.284521
 30
0.0
 11
-69.540965
 21
-129.024659
 31
0.0
  0
LINE
  5
1AC
100
AcDbEntity
  8
0
  6
CONTINUOUS
 62
    15
100
AcDbLine
 10
-69.540965
 20
-129.024659
 30
0.0
 11
-68.923574
 21
-128.748517
 31
0.0
  0
LINE
  5
1AD
100
AcDbEntity
  8
0
  6
CONTINUOUS
 62
    15
100
AcDbLine
 10
-68.923574
 20
-128.748517
 30
0.0
 11
-68.335908
 21
-128.456637
 31
0.0
  0
LINE
  5
1AE
100
AcDbEntity
  8
0
  6
CONTINUOUS
 62
    15
100
AcDbLine
 10
-68.335908
 20
-128.456637
 30
0.0
 11
-67.779468
 21
-128.149564
 31
0.0
  0
LINE
  5
1AF
100
AcDbEntity
  8
0
  6
CONTINUOUS
 62
    15
100
AcDbLine
 10
-67.779468
 20
-128.149564
 30
0.0
 11
-67.255689
 21
-127.827835
 31
0.0
  0
LINE
  5
1B0
100
AcDbEntity
  8
0
  6
CONTINUOUS
 62
    15
100
AcDbLine
 10
-67.255689
 20
-127.827835
 30
0.0
 11
-66.765938
 21
-127.491971
 31
0.0
  0
LINE
  5
1B1
100
AcDbEntity
  8
0
  6
CONTINUOUS
 62
    15
100
AcDbLine
 10
-66.765938
 20
-127.491971
 30
0.0
 11
-66.31154
 21
-127.142477
 31
0.0
  0
LINE
  5
1B2
100
AcDbEntity
  8
0
  6
CONTINUOUS
 62
    15
100
AcDbLine
 10
-66.31154
 20
-127.142477
 30
0.0
 11
-65.893786
 21
-126.779834
 31
0.0
  0
LINE
  5
1B3
100
AcDbEntity
  8
0
  6
CONTINUOUS
 62
    15
100
AcDbLine
 10
-65.893786
 20
-126.779834
 30
0.0
 11
-65.513967
 21
-126.404514
 31
0.0
  0
LINE
  5
1B4
100
AcDbEntity
  8
0
  6
CONTINUOUS
 62
    15
100
AcDbLine
 10
-65.513967
 20
-126.404514
 30
0.0
 11
-65.173406
 21
-126.016995
 31
0.0
  0
LINE
  5
1B5
100
AcDbEntity
  8
0
  6
CONTINUOUS
 62
    15
100
AcDbLine
 10
-65.173406
 20
-126.016995
 30
0.0
 11
-64.873489
 21
-125.617808
 31
0.0
  0
LINE
  5
1B6
100
AcDbEntity
  8
0
  6
CONTINUOUS
 62
    15
100
AcDbLine
 10
-64.873489
 20
-125.617808
 30
0.0
 11
-64.61569
 21
-125.207606
 31
0.0
  0
LINE
  5
1B7
100
AcDbEntity
  8
0
  6
CONTINUOUS
 62
    15
100
AcDbLine
 10
-64.61569
 20
-125.207606
 30
0.0
 11
-64.401577
 21
-124.787254
 31
0.0
  0
LINE
  5
1B8
100
AcDbEntity
  8
0
  6
CONTINUOUS
 62
    15
100
AcDbLine
 10
-64.401577
 20
-124.787254
 30
0.0
 11
-64.232762
 21
-124.357949
 31
0.0
  0
LINE
  5
1B9
100
AcDbEntity
  8
0
  6
CONTINUOUS
 62
    15
100
AcDbLine
 10
-64.232762
 20
-124.357949
 30
0.0
 11
-64.110799
 21
-123.92131
 31
0.0
  0
LINE
  5
1BA
100
AcDbEntity
  8
0
  6
CONTINUOUS
 62
    15
100
AcDbLine
 10
-64.110799
 20
-123.92131
 30
0.0
 11
-64.037013
 21
-123.479425
 31
0.0
  0
LINE
  5
1BB
100
AcDbEntity
  8
0
  6
CONTINUOUS
 62
    15
100
AcDbLine
 10
-64.037013
 20
-123.479425
 30
0.0
 11
-64.012311
 21
-123.034796
 31
0.0
  0
LINE
  5
1BC
100
AcDbEntity
  8
0
  6
CONTINUOUS
 62
    15
100
AcDbLine
 10
-64.012311
 20
-123.034796
 30
0.0
 11
-64.037013
 21
-122.590167
 31
0.0
  0
LINE
  5
1BD
100
AcDbEntity
  8
0
  6
CONTINUOUS
 62
    15
100
AcDbLine
 10
-64.037013
 20
-122.590167
 30
0.0
 11
-64.110799
 21
-122.148282
 31
0.0
  0
LINE
  5
1BE
100
AcDbEntity
  8
0
  6
CONTINUOUS
 62
    15
100
AcDbLine
 10
-64.110799
 20
-122.148282
 30
0.0
 11
-64.232762
 21
-121.711643
 31
0.0
  0
LINE
  5
1BF
100
AcDbEntity
  8
0
  6
CONTINUOUS
 62
    15
100
AcDbLine
 10
-64.232762
 20
-121.711643
 30
0.0
 11
-64.401577
 21
-121.282338
 31
0.0
  0
LINE
  5
1C0
100
AcDbEntity
  8
0
  6
CONTINUOUS
 62
    15
100
AcDbLine
 10
-64.401577
 20
-121.282338
 30
0.0
 11
-64.61569
 21
-120.861987
 31
0.0
  0
LINE
  5
1C1
100
AcDbEntity
  8
0
  6
CONTINUOUS
 62
    15
100
AcDbLine
 10
-64.61569
 20
-120.861987
 30
0.0
 11
-64.873489
 21
-120.451784
 31
0.0
  0
LINE
  5
1C2
100
AcDbEntity
  8
0
  6
CONTINUOUS
 62
    15
100
AcDbLine
 10
-64.873489
 20
-120.451784
 30
0.0
 11
-65.173406
 21
-120.052597
 31
0.0
  0
LINE
  5
1C3
100
AcDbEntity
  8
0
  6
CONTINUOUS
 62
    15
100
AcDbLine
 10
-65.173406
 20
-120.052597
 30
0.0
 11
-65.513967
 21
-119.665078
 31
0.0
  0
LINE
  5
1C4
100
AcDbEntity
  8
0
  6
CONTINUOUS
 62
    15
100
AcDbLine
 10
-65.513967
 20
-119.665078
 30
0.0
 11
-65.893786
 21
-119.289758
 31
0.0
  0
LINE
  5
1C5
100
AcDbEntity
  8
0
  6
CONTINUOUS
 62
    15
100
AcDbLine
 10
-65.893786
 20
-119.289758
 30
0.0
 11
-66.31154
 21
-118.927115
 31
0.0
  0
LINE
  5
1C6
100
AcDbEntity
  8
0
  6
CONTINUOUS
 62
    15
100
AcDbLine
 10
-66.31154
 20
-118.927115
 30
0.0
 11
-66.765938
 21
-118.577621
 31
0.0
  0
LINE
  5
1C7
100
AcDbEntity
  8
0
  6
CONTINUOUS
 62
    15
100
AcDbLine
 10
-66.765938
 20
-118.577621
 30
0.0
 11
-67.255689
 21
-118.241757
 31
0.0
  0
LINE
  5
1C8
100
AcDbEntity
  8
0
  6
CONTINUOUS
 62
    15
100
AcDbLine
 10
-67.255689
 20
-118.241757
 30
0.0
 11
-67.779468
 21
-117.920028
 31
0.0
  0
LINE
  5
1C9
100
AcDbEntity
  8
0
  6
CONTINUOUS
 62
    15
100
AcDbLine
 10
-67.779468
 20
-117.920028
 30
0.0
 11
-68.335908
 21
-117.612955
 31
0.0
  0
LINE
  5
1CA
100
AcDbEntity
  8
0
  6
CONTINUOUS
 62
    15
100
AcDbLine
 10
-68.335908
 20
-117.612955
 30
0.0
 11
-68.923574
 21
-117.321075
 31
0.0
  0
LINE
  5
1CB
100
AcDbEntity
  8
0
  6
CONTINUOUS
 62
    15
100
AcDbLine
 10
-68.923574
 20
-117.321075
 30
0.0
 11
-69.540965
 21
-117.044933
 31
0.0
  0
LINE
  5
1CC
100
AcDbEntity
  8
0
  6
CONTINUOUS
 62
    15
100
AcDbLine
 10
-69.540965
 20
-117.044933
 30
0.0
 11
-70.186504
 21
-116.785071
 31
0.0
  0
LINE
  5
1CD
100
AcDbEntity
  8
0
  6
CONTINUOUS
 62
    15
100
AcDbLine
 10
-70.186504
 20
-116.785071
 30
0.0
 11
-70.858539
 21
-116.542021
 31
0.0
  0
LINE
  5
1CE
100
AcDbEntity
  8
0
  6
CONTINUOUS
 62
    15
100
AcDbLine
 10
-70.858539
 20
-116.542021
 30
0.0
 11
-71.555344
 21
-116.316302
 31
0.0
  0
LINE
  5
1CF
100
AcDbEntity
  8
0
  6
CONTINUOUS
 62
    15
100
AcDbLine
 10
-71.555344
 20
-116.316302
 30
0.0
 11
-72.275122
 21
-116.108409
 31
0.0
  0
LINE
  5
1D0
100
AcDbEntity
  8
0
  6
CONTINUOUS
 62
    15
100
AcDbLine
 10
-72.275122
 20
-116.108409
 30
0.0
 11
-73.01601
 21
-115.918808
 31
0.0
  0
LINE
  5
1D1
100
AcDbEntity
  8
0
  6
CONTINUOUS
 62
    15
100
AcDbLine
 10
-73.01601
 20
-115.918808
 30
0.0
 11
-73.776081
 21
-115.747935
 31
0.0
  0
LINE
  5
1D2
100
AcDbEntity
  8
0
  6
CONTINUOUS
 62
    15
100
AcDbLine
 10
-73.776081
 20
-115.747935
 30
0.0
 11
-74.553351
 21
-115.596189
 31
0.0
  0
LINE
  5
1D3
100
AcDbEntity
  8
0
  6
CONTINUOUS
 62
    15
100
AcDbLine
 10
-74.553351
 20
-115.596189
 30
0.0
 11
-75.345786
 21
-115.463927
 31
0.0
  0
LINE
  5
1D4
100
AcDbEntity
  8
0
  6
CONTINUOUS
 62
    15
100
AcDbLine
 10
-75.345786
 20
-115.463927
 30
0.0
 11
-76.151303
 21
-115.351466
 31
0.0
  0
LINE
  5
1D5
100
AcDbEntity
  8
0
  6
CONTINUOUS
 62
    15
100
AcDbLine
 10
-76.151303
 20
-115.351466
 30
0.0
 11
-76.967785
 21
-115.259076
 31
0.0
  0
LINE
  5
1D6
100
AcDbEntity
  8
0
  6
CONTINUOUS
 62
    15
100
AcDbLine
 10
-76.967785
 20
-115.259076
 30
0.0
 11
-77.793076
 21
-115.186983
 31
0.0
  0
LINE
  5
1D7
100
AcDbEntity
  8
0
  6
CONTINUOUS
 62
    15
100
AcDbLine
 10
-77.793076
 20
-115.186983
 30
0.0
 11
-78.624999
 21
-115.135361
 31
0.0
  0
LINE
  5
1D8
100
AcDbEntity
  8
0
  6
CONTINUOUS
 62
    15
100
AcDbLine
 10
-78.624999
 20
-115.135361
 30
0.0
 11
-79.461354
 21
-115.104337
 31
0.0
  0
LINE
  5
1D9
100
AcDbEntity
  8
0
  6
CONTINUOUS
 62
    15
100
AcDbLine
 10
-79.461354
 20
-115.104337
 30
0.0
 11
-80.299928
 21
-115.093987
 31
0.0
  0
LINE
  5
1DA
100
AcDbEntity
  8
0
  6
CONTINUOUS
 62
    15
100
AcDbLine
 10
-80.299928
 20
-115.093987
 30
0.0
 11
-81.138502
 21
-115.104337
 31
0.0
  0
LINE
  5
1DB
100
AcDbEntity
  8
0
  6
CONTINUOUS
 62
    15
100
AcDbLine
 10
-81.138502
 20
-115.104337
 30
0.0
 11
-81.974857
 21
-115.135361
 31
0.0
  0
LINE
  5
1DC
100
AcDbEntity
  8
0
  6
CONTINUOUS
 62
    15
100
AcDbLine
 10
-81.974857
 20
-115.135361
 30
0.0
 11
-82.80678
 21
-115.186983
 31
0.0
  0
LINE
  5
1DD
100
AcDbEntity
  8
0
  6
CONTINUOUS
 62
    15
100
AcDbLine
 10
-82.80678
 20
-115.186983
 30
0.0
 11
-83.632072
 21
-115.259076
 31
0.0
  0
LINE
  5
1DE
100
AcDbEntity
  8
0
  6
CONTINUOUS
 62
    15
100
AcDbLine
 10
-83.632072
 20
-115.259076
 30
0.0
 11
-84.448553
 21
-115.351466
 31
0.0
  0
LINE
  5
1DF
100
AcDbEntity
  8
0
  6
CONTINUOUS
 62
    15
100
AcDbLine
 10
-84.448553
 20
-115.351466
 30
0.0
 11
-85.254071
 21
-115.463927
 31
0.0
  0
LINE
  5
1E0
100
AcDbEntity
  8
0
  6
CONTINUOUS
 62
    15
100
AcDbLine
 10
-85.254071
 20
-115.463927
 30
0.0
 11
-86.046505
 21
-115.596189
 31
0.0
  0
LINE
  5
1E1
100
AcDbEntity
  8
0
  6
CONTINUOUS
 62
    15
100
AcDbLine
 10
-86.046505
 20
-115.596189
 30
0.0
 11
-86.823775
 21
-115.747935
 31
0.0
  0
LINE
  5
1E2
100
AcDbEntity
  8
0
  6
CONTINUOUS
 62
    15
100
AcDbLine
 10
-86.823775
 20
-115.747935
 30
0.0
 11
-87.583846
 21
-115.918808
 31
0.0
  0
LINE
  5
1E3
100
AcDbEntity
  8
0
  6
CONTINUOUS
 62
    15
100
AcDbLine
 10
-87.583846
 20
-115.918808
 30
0.0
 11
-88.324734
 21
-116.108409
 31
0.0
  0
LINE
  5
1E4
100
AcDbEntity
  8
0
  6
CONTINUOUS
 62
    15
100
AcDbLine
 10
-88.324734
 20
-116.108409
 30
0.0
 11
-89.044513
 21
-116.316302
 31
0.0
  0
LINE
  5
1E5
100
AcDbEntity
  8
0
  6
CONTINUOUS
 62
    15
100
AcDbLine
 10
-89.044513
 20
-116.316302
 30
0.0
 11
-89.741318
 21
-116.542021
 31
0.0
  0
LINE
  5
1E6
100
AcDbEntity
  8
0
  6
CONTINUOUS
 62
    15
100
AcDbLine
 10
-89.741318
 20
-116.542021
 30
0.0
 11
-90.413353
 21
-116.785071
 31
0.0
  0
LINE
  5
1E7
100
AcDbEntity
  8
0
  6
CONTINUOUS
 62
    15
100
AcDbLine
 10
-90.413353
 20
-116.785071
 30
0.0
 11
-91.058891
 21
-117.044933
 31
0.0
  0
LINE
  5
1E8
100
AcDbEntity
  8
0
  6
CONTINUOUS
 62
    15
100
AcDbLine
 10
-91.058891
 20
-117.044933
 30
0.0
 11
-91.676282
 21
-117.321075
 31
0.0
  0
LINE
  5
1E9
100
AcDbEntity
  8
0
  6
CONTINUOUS
 62
    15
100
AcDbLine
 10
-91.676282
 20
-117.321075
 30
0.0
 11
-92.263949
 21
-117.612955
 31
0.0
  0
LINE
  5
1EA
100
AcDbEntity
  8
0
  6
CONTINUOUS
 62
    15
100
AcDbLine
 10
-92.263949
 20
-117.612955
 30
0.0
 11
-92.820388
 21
-117.920028
 31
0.0
  0
LINE
  5
1EB
100
AcDbEntity
  8
0
  6
CONTINUOUS
 62
    15
100
AcDbLine
 10
-92.820388
 20
-117.920028
 30
0.0
 11
-93.344168
 21
-118.241757
 31
0.0
  0
LINE
  5
1EC
100
AcDbEntity
  8
0
  6
CONTINUOUS
 62
    15
100
AcDbLine
 10
-93.344168
 20
-118.241757
 30
0.0
 11
-93.833918
 21
-118.577621
 31
0.0
  0
LINE
  5
1ED
100
AcDbEntity
  8
0
  6
CONTINUOUS
 62
    15
100
AcDbLine
 10
-93.833918
 20
-118.577621
 30
0.0
 11
-94.288317
 21
-118.927115
 31
0.0
  0
LINE
  5
1EE
100
AcDbEntity
  8
0
  6
CONTINUOUS
 62
    15
100
AcDbLine
 10
-94.288317
 20
-118.927115
 30
0.0
 11
-94.706071
 21
-119.289758
 31
0.0
  0
LINE
  5
1EF
100
AcDbEntity
  8
0
  6
CONTINUOUS
 62
    15
100
AcDbLine
 10
-94.706071
 20
-119.289758
 30
0.0
 11
-95.085889
 21
-119.665078
 31
0.0
  0
LINE
  5
1F0
100
AcDbEntity
  8
0
  6
CONTINUOUS
 62
    15
100
AcDbLine
 10
-95.085889
 20
-119.665078
 30
0.0
 11
-95.42645
 21
-120.052597
 31
0.0
  0
LINE
  5
1F1
100
AcDbEntity
  8
0
  6
CONTINUOUS
 62
    15
100
AcDbLine
 10
-95.42645
 20
-120.052597
 30
0.0
 11
-95.726368
 21
-120.451784
 31
0.0
  0
LINE
  5
1F2
100
AcDbEntity
  8
0
  6
CONTINUOUS
 62
    15
100
AcDbLine
 10
-95.726368
 20
-120.451784
 30
0.0
 11
-95.984166
 21
-120.861987
 31
0.0
  0
LINE
  5
1F3
100
AcDbEntity
  8
0
  6
CONTINUOUS
 62
    15
100
AcDbLine
 10
-95.984166
 20
-120.861987
 30
0.0
 11
-96.198279
 21
-121.282338
 31
0.0
  0
LINE
  5
1F4
100
AcDbEntity
  8
0
  6
CONTINUOUS
 62
    15
100
AcDbLine
 10
-96.198279
 20
-121.282338
 30
0.0
 11
-96.367094
 21
-121.711643
 31
0.0
  0
LINE
  5
1F5
100
AcDbEntity
  8
0
  6
CONTINUOUS
 62
    15
100
AcDbLine
 10
-96.367094
 20
-121.711643
 30
0.0
 11
-96.489058
 21
-122.148282
 31
0.0
  0
LINE
  5
1F6
100
AcDbEntity
  8
0
  6
CONTINUOUS
 62
    15
100
AcDbLine
 10
-96.489058
 20
-122.148282
 30
0.0
 11
-96.562843
 21
-122.590167
 31
0.0
  0
LINE
  5
1F7
100
AcDbEntity
  8
0
  6
CONTINUOUS
 62
    15
100
AcDbLine
 10
-96.562843
 20
-122.590167
 30
0.0
 11
-96.587546
 21
-123.034796
 31
0.0
  0
LINE
  5
1F8
100
AcDbEntity
  8
0
  6
CONTINUOUS
 62
    15
100
AcDbLine
 10
-96.587546
 20
-123.034796
 30
0.0
 11
-96.562843
 21
-123.479425
 31
0.0
  0
LINE
  5
1F9
100
AcDbEntity
  8
0
  6
CONTINUOUS
 62
    15
100
AcDbLine
 10
-96.562843
 20
-123.479425
 30
0.0
 11
-96.489058
 21
-123.92131
 31
0.0
  0
LINE
  5
1FA
100
AcDbEntity
  8
0
  6
CONTINUOUS
 62
    15
100
AcDbLine
 10
-96.489058
 20
-123.92131
 30
0.0
 11
-96.367094
 21
-124.357949
 31
0.0
  0
LINE
  5
1FB
100
AcDbEntity
  8
0
  6
CONTINUOUS
 62
    15
100
AcDbLine
 10
-96.367094
 20
-124.357949
 30
0.0
 11
-96.198279
 21
-124.787254
 31
0.0
  0
LINE
  5
1FC
100
AcDbEntity
  8
0
  6
CONTINUOUS
 62
    15
100
AcDbLine
 10
-96.198279
 20
-124.787254
 30
0.0
 11
-95.984166
 21
-125.207606
 31
0.0
  0
LINE
  5
1FD
100
AcDbEntity
  8
0
  6
CONTINUOUS
 62
    15
100
AcDbLine
 10
-95.984166
 20
-125.207606
 30
0.0
 11
-95.726368
 21
-125.617808
 31
0.0
  0
LINE
  5
1FE
100
AcDbEntity
  8
0
  6
CONTINUOUS
 62
    15
100
AcDbLine
 10
-95.726368
 20
-125.617808
 30
0.0
 11
-95.42645
 21
-126.016995
 31
0.0
  0
LINE
  5
1FF
100
AcDbEntity
  8
0
  6
CONTINUOUS
 62
    15
100
AcDbLine
 10
-95.42645
 20
-126.016995
 30
0.0
 11
-95.085889
 21
-126.404514
 31
0.0
  0
LINE
  5
200
100
AcDbEntity
  8
0
  6
CONTINUOUS
 62
    15
100
AcDbLine
 10
-95.085889
 20
-126.404514
 30
0.0
 11
-94.706071
 21
-126.779834
 31
0.0
  0
LINE
  5
201
100
AcDbEntity
  8
0
  6
CONTINUOUS
 62
    15
100
AcDbLine
 10
-94.706071
 20
-126.779834
 30
0.0
 11
-94.288317
 21
-127.142477
 31
0.0
  0
LINE
  5
202
100
AcDbEntity
  8
0
  6
CONTINUOUS
 62
    15
100
AcDbLine
 10
-94.288317
 20
-127.142477
 30
0.0
 11
-93.833918
 21
-127.491971
 31
0.0
  0
LINE
  5
203
100
AcDbEntity
  8
0
  6
CONTINUOUS
 62
    15
100
AcDbLine
 10
-93.833918
 20
-127.491971
 30
0.0
 11
-93.344168
 21
-127.827835
 31
0.0
  0
LINE
  5
204
100
AcDbEntity
  8
0
  6
CONTINUOUS
 62
    15
100
AcDbLine
 10
-93.344168
 20
-127.827835
 30
0.0
 11
-92.820388
 21
-128.149564
 31
0.0
  0
LINE
  5
205
100
AcDbEntity
  8
0
  6
CONTINUOUS
 62
    15
100
AcDbLine
 10
-92.820388
 20
-128.149564
 30
0.0
 11
-92.263949
 21
-128.456637
 31
0.0
  0
LINE
  5
206
100
AcDbEntity
  8
0
  6
CONTINUOUS
 62
    15
100
AcDbLine
 10
-92.263949
 20
-128.456637
 30
0.0
 11
-91.676282
 21
-128.748517
 31
0.0
  0
LINE
  5
207
100
AcDbEntity
  8
0
  6
CONTINUOUS
 62
    15
100
AcDbLine
 10
-91.676282
 20
-128.748517
 30
0.0
 11
-91.058891
 21
-129.024659
 31
0.0
  0
LINE
  5
208
100
AcDbEntity
  8
0
  6
CONTINUOUS
 62
    15
100
AcDbLine
 10
-91.058891
 20
-129.024659
 30
0.0
 11
-90.413353
 21
-129.284521
 31
0.0
  0
LINE
  5
209
100
AcDbEntity
  8
0
  6
CONTINUOUS
 62
    15
100
AcDbLine
 10
-90.413353
 20
-129.284521
 30
0.0
 11
-89.741318
 21
-129.527571
 31
0.0
  0
LINE
  5
20A
100
AcDbEntity
  8
0
  6
CONTINUOUS
 62
    15
100
AcDbLine
 10
-89.741318
 20
-129.527571
 30
0.0
 11
-89.044513
 21
-129.75329
 31
0.0
  0
LINE
  5
20B
100
AcDbEntity
  8
0
  6
CONTINUOUS
 62
    15
100
AcDbLine
 10
-89.044513
 20
-129.75329
 30
0.0
 11
-88.324734
 21
-129.961183
 31
0.0
  0
LINE
  5
20C
100
AcDbEntity
  8
0
  6
CONTINUOUS
 62
    15
100
AcDbLine
 10
-88.324734
 20
-129.961183
 30
0.0
 11
-87.583846
 21
-130.150784
 31
0.0
  0
LINE
  5
20D
100
AcDbEntity
  8
0
  6
CONTINUOUS
 62
    15
100
AcDbLine
 10
-87.583846
 20
-130.150784
 30
0.0
 11
-86.823775
 21
-130.321657
 31
0.0
  0
LINE
  5
20E
100
AcDbEntity
  8
0
  6
CONTINUOUS
 62
    15
100
AcDbLine
 10
-86.823775
 20
-130.321657
 30
0.0
 11
-86.046505
 21
-130.473403
 31
0.0
  0
LINE
  5
20F
100
AcDbEntity
  8
0
  6
CONTINUOUS
 62
    15
100
AcDbLine
 10
-86.046505
 20
-130.473403
 30
0.0
 11
-85.254071
 21
-130.605665
 31
0.0
  0
LINE
  5
210
100
AcDbEntity
  8
0
  6
CONTINUOUS
 62
    16
100
AcDbLine
 10
100.083946
 20
-133.757103
 30
0.0
 11
100.083946
 21
144.302348
 31
0.0
  0
ENDBLK
  5
211
100
AcDbEntity
  8
0
100
AcDbBlockEnd
  0
BLOCK
  5
213
100
AcDbEntity
  8
0
100
AcDbBlockBegin
  2
PROTO
 70
     0
 10
0.0
 20
0.0
 30
0.0
  3
PROTO
  1

  0
TEXT
  5
215
100
AcDbEntity
  8
0
  6
CONTINUOUS
 62
    15
100
AcDbText
 10
-57.609935
 20
-125.135788
 30
0.0
 40
1.76
  1
Mountplesent, Dundalk, Ireland
  7
ARIAL
 11
-57.609935
 21
-125.135788
 31
0.0
100
AcDbText
 73
     1
  0
TEXT
  5
216
100
AcDbEntity
  8
0
  6
CONTINUOUS
 62
    15
100
AcDbText
 10
-56.130896
 20
-128.127788
 30
0.0
 40
1.76
  1
Telephone (353/42) 9371244
  7
ARIAL
 11
-56.130896
 21
-128.127788
 31
0.0
100
AcDbText
 73
     1
  0
TEXT
  5
217
100
AcDbEntity
  8
0
  6
CONTINUOUS
 62
    15
100
AcDbText
 10
-51.271194
 20
-131.119789
 30
0.0
 40
1.76
  1
Fax (353/42) 9371221
  7
ARIAL
 11
-51.271194
 21
-131.119789
 31
0.0
100
AcDbText
 73
     1
  0
TEXT
  5
218
100
AcDbEntity
  8
0
  6
CONTINUOUS
 62
    16
100
AcDbText
 10
-58.666392
 20
-120.182472
 30
0.0
 40
3.53
  1
EXITEX LTD
 11
-58.666392
 21
-120.182472
 31
0.0
100
AcDbText
 73
     1
  0
TEXT
  5
219
100
AcDbEntity
  8
0
  6
CONTINUOUS
 62
    15
100
AcDbText
 10
21.063932
 20
-126.735525
 30
0.0
 40
1.76
  1
DESCRIPTION
  7
ARIAL
 11
21.063932
 21
-126.735525
 31
0.0
100
AcDbText
 73
     1
  0
TEXT
  5
21A
100
AcDbEntity
  8
0
  6
CONTINUOUS
 62
    15
100
AcDbText
 10
21.063932
 20
-116.581251
 30
0.0
 40
1.76
  1
CODE
  7
ARIAL
 11
21.063932
 21
-116.581251
 31
0.0
100
AcDbText
 73
     1
  0
TEXT
  5
21B
100
AcDbEntity
  8
0
  6
CONTINUOUS
 62
    15
100
AcDbText
 10
7.871743
 20
-96.581251
 30
0.0
 40
1.76
  1
TOLERANCE
  7
ARIAL
 11
7.871743
 21
-96.581251
 31
0.0
100
AcDbText
 73
     1
  0
TEXT
  5
21C
100
AcDbEntity
  8
0
  6
CONTINUOUS
 62
    15
100
AcDbText
 10
7.871743
 20
-106.735525
 30
0.0
 40
1.76
  1
DRAWN
  7
ARIAL
 11
7.871743
 21
-106.735525
 31
0.0
100
AcDbText
 73
     1
  0
TEXT
  5
21D
100
AcDbEntity
  8
0
  6
CONTINUOUS
 62
    15
100
AcDbText
 10
39.574371
 20
-106.735525
 30
0.0
 40
1.76
  1
DRAWING No
  7
ARIAL
 11
39.574371
 21
-106.735525
 31
0.0
100
AcDbText
 73
     1
  0
TEXT
  5
21E
100
AcDbEntity
  8
0
  6
CONTINUOUS
 62
    15
100
AcDbText
 10
39.574371
 20
-96.581251
 30
0.0
 40
1.76
  1
SCALE
  7
ARIAL
 11
39.574371
 21
-96.581251
 31
0.0
100
AcDbText
 73
     1
  0
TEXT
  5
21F
100
AcDbEntity
  8
0
  6
CONTINUOUS
 62
    15
100
AcDbText
 10
70.625565
 20
-96.581251
 30
0.0
 40
1.76
  1
APPROVED
  7
ARIAL
 11
70.625565
 21
-96.581251
 31
0.0
100
AcDbText
 73
     1
  0
TEXT
  5
220
100
AcDbEntity
  8
0
  6
CONTINUOUS
 62
    15
100
AcDbText
 10
70.625565
 20
-106.735525
 30
0.0
 40
1.76
  1
DATE
  7
ARIAL
 11
70.625565
 21
-106.735525
 31
0.0
100
AcDbText
 73
     1
  0
TEXT
  5
221
100
AcDbEntity
  8
0
  6
CONTINUOUS
 62
    15
100
AcDbText
 10
24.083941
 20
141.272353
 30
0.0
 40
1.06
  1
DATE
  7
ARIAL
 11
24.083941
 21
141.272353
 31
0.0
100
AcDbText
 73
     1
  0
TEXT
  5
222
100
AcDbEntity
  8
0
  6
CONTINUOUS
 62
    15
100
AcDbText
 10
32.08395
 20
141.272353
 30
0.0
 40
1.06
  1
ISSUE
  7
ARIAL
 11
32.08395
 21
141.272353
 31
0.0
100
AcDbText
 73
     1
  0
TEXT
  5
223
100
AcDbEntity
  8
0
  6
CONTINUOUS
 62
    15
100
AcDbText
 10
55.403019
 20
141.272353
 30
0.0
 40
1.06
  1
CHANGE
  7
ARIAL
 11
55.403019
 21
141.272353
 31
0.0
100
AcDbText
 73
     1
  0
TEXT
  5
224
100
AcDbEntity
  8
0
  6
CONTINUOUS
 62
    15
100
AcDbText
 10
88.083939
 20
141.272353
 30
0.0
 40
1.06
  1
SIGNED
  7
ARIAL
 11
88.083939
 21
141.272353
 31
0.0
100
AcDbText
 73
     1
  0
TEXT
  5
225
100
AcDbEntity
  8
0
  6
CONTINUOUS
 62
    15
100
AcDbText
 10
-97.12085
 20
141.700011
 30
0.0
 40
1.06
  1
THIS DRAWING  IS  THE PROPERTY OF  EXITEX  LTD  AND  MUST
  7
ARIAL
 11
-97.12085
 21
141.700011
 31
0.0
100
AcDbText
 73
     1
  0
TEXT
  5
226
100
AcDbEntity
  8
0
  6
CONTINUOUS
 62
    15
100
AcDbText
 10
-97.12085
 20
139.898011
 30
0.0
 40
1.06
  1
NOT BE REPRODUCED IN WHOLE OR IN PART WITHOUT CONSENT
  7
ARIAL
 11
-97.12085
 21
139.898011
 31
0.0
100
AcDbText
 73
     1
  0
TEXT
  5
227
100
AcDbEntity
  8
0
  6
CONTINUOUS
 62
    15
100
AcDbText
 10
-97.12085
 20
138.096011
 30
0.0
 40
1.06
  1
C  COPYRIGHT EXITEX.
  7
ARIAL
 11
-97.12085
 21
138.096011
 31
0.0
100
AcDbText
 73
     1
  0
LINE
  5
228
100
AcDbEntity
  8
0
  6
CONTINUOUS
 62
     9
100
AcDbLine
 10
32.083946
 20
144.302348
 30
0.0
 11
32.083946
 21
130.221369
 31
0.0
  0
LINE
  5
229
100
AcDbEntity
  8
0
  6
CONTINUOUS
 62
     9
100
AcDbLine
 10
40.083946
 20
144.302348
 30
0.0
 11
40.083946
 21
130.221369
 31
0.0
  0
LINE
  5
22A
100
AcDbEntity
  8
0
  6
CONTINUOUS
 62
     9
100
AcDbLine
 10
88.083946
 20
144.302348
 30
0.0
 11
88.083946
 21
130.221369
 31
0.0
  0
LINE
  5
22B
100
AcDbEntity
  8
0
  6
CONTINUOUS
 62
     9
100
AcDbLine
 10
100.083946
 20
139.302348
 30
0.0
 11
24.083946
 21
139.302348
 31
0.0
  0
LINE
  5
22C
100
AcDbEntity
  8
0
  6
CONTINUOUS
 62
     9
100
AcDbLine
 10
24.083946
 20
144.302348
 30
0.0
 11
24.083946
 21
130.221369
 31
0.0
  0
CIRCLE
  5
22D
100
AcDbEntity
  8
0
  6
CONTINUOUS
 62
    15
100
AcDbCircle
 10
-96.350135
 20
138.597335
 30
0.0
 40
0.785832
  0
ENDBLK
  5
22E
100
AcDbEntity
  8
0
100
AcDbBlockEnd
  0
BLOCK
  5
230
100
AcDbEntity
  8
0
100
AcDbBlockBegin
  2
GEN_BLOCK00002
 70
     0
 10
0.0
 20
0.0
 30
0.0
  3
GEN_BLOCK00002
  1

  0
LINE
  5
232
100
AcDbEntity
  8
0
  6
CONTINUOUS
 62
    16
100
AcDbLine
 10
-98.936063
 20
-133.757103
 30
0.0
 11
-98.936063
 21
144.302348
 31
0.0
  0
LINE
  5
233
100
AcDbEntity
  8
0
  6
CONTINUOUS
 62
    16
100
AcDbLine
 10
-98.936063
 20
-133.757103
 30
0.0
 11
100.083946
 21
-133.757103
 31
0.0
  0
LINE
  5
234
100
AcDbEntity
  8
0
  6
CONTINUOUS
 62
    16
100
AcDbLine
 10
-98.936063
 20
144.302348
 30
0.0
 11
100.083946
 21
144.302348
 31
0.0
  0
LINE
  5
235
100
AcDbEntity
  8
0
  6
CONTINUOUS
 62
    16
100
AcDbLine
 10
-98.936063
 20
-113.757103
 30
0.0
 11
100.083946
 21
-113.757103
 31
0.0
  0
LINE
  5
236
100
AcDbEntity
  8
0
  6
CONTINUOUS
 62
    16
100
AcDbLine
 10
21.063937
 20
-113.757103
 30
0.0
 11
21.063937
 21
-133.757103
 31
0.0
  0
LINE
  5
237
100
AcDbEntity
  8
0
  6
CONTINUOUS
 62
    16
100
AcDbLine
 10
5.808994
 20
-93.757103
 30
0.0
 11
5.808994
 21
-113.757103
 31
0.0
  0
LINE
  5
238
100
AcDbEntity
  8
0
  6
CONTINUOUS
 62
    16
100
AcDbLine
 10
37.233978
 20
-113.757103
 30
0.0
 11
37.233978
 21
-93.757103
 31
0.0
  0
LINE
  5
239
100
AcDbEntity
  8
0
  6
CONTINUOUS
 62
    16
100
AcDbLine
 10
68.658962
 20
-113.757103
 30
0.0
 11
68.658962
 21
-93.757103
 31
0.0
  0
LINE
  5
23A
100
AcDbEntity
  8
0
  6
CONTINUOUS
 62
    16
100
AcDbLine
 10
21.063937
 20
-123.757103
 30
0.0
 11
100.083946
 21
-123.757103
 31
0.0
  0
LINE
  5
23B
100
AcDbEntity
  8
0
  6
CONTINUOUS
 62
    16
100
AcDbLine
 10
5.808994
 20
-93.757103
 30
0.0
 11
100.083946
 21
-93.757103
 31
0.0
  0
LINE
  5
23C
100
AcDbEntity
  8
0
  6
CONTINUOUS
 62
    16
100
AcDbLine
 10
5.808994
 20
-103.757103
 30
0.0
 11
100.083946
 21
-103.757103
 31
0.0
  0
ENDBLK
  5
23D
100
AcDbEntity
  8
0
100
AcDbBlockEnd
  0
BLOCK
  5
240
100
AcDbEntity
  8
1
100
AcDbBlockBegin
  2
GEN_BLOCK00003
 70
     0
 10
0.0
 20
0.0
 30
0.0
  3
GEN_BLOCK00003
  1

  0
LINE
  5
242
100
AcDbEntity
  8
1
  6
CONTINUOUS
 62
    15
100
AcDbLine
 10
49.582458
 20
-36.99526
 30
0.0
 11
49.582458
 21
-27.995259
 31
0.0
  0
LINE
  5
243
100
AcDbEntity
  8
1
  6
CONTINUOUS
 62
    15
100
AcDbLine
 10
49.582458
 20
-36.99526
 30
0.0
 11
49.582459
 21
-45.995261
 31
0.0
  0
LINE
  5
244
100
AcDbEntity
  8
1
  6
CONTINUOUS
 62
    15
100
AcDbLine
 10
48.832458
 20
-30.995259
 30
0.0
 11
49.582458
 21
-27.995259
 31
0.0
  0
LINE
  5
245
100
AcDbEntity
  8
1
  6
CONTINUOUS
 62
    15
100
AcDbLine
 10
49.582458
 20
-27.995259
 30
0.0
 11
50.332458
 21
-30.995259
 31
0.0
  0
LINE
  5
246
100
AcDbEntity
  8
1
  6
CONTINUOUS
 62
    15
100
AcDbLine
 10
50.332459
 20
-42.995261
 30
0.0
 11
49.582459
 21
-45.995261
 31
0.0
  0
LINE
  5
247
100
AcDbEntity
  8
1
  6
CONTINUOUS
 62
    15
100
AcDbLine
 10
49.582459
 20
-45.995261
 30
0.0
 11
48.832459
 21
-42.995261
 31
0.0
  0
LINE
  5
248
100
AcDbEntity
  8
1
  6
CONTINUOUS
 62
    15
100
AcDbLine
 10
28.420311
 20
-27.99526
 30
0.0
 11
52.182458
 21
-27.995259
 31
0.0
  0
LINE
  5
249
100
AcDbEntity
  8
1
  6
CONTINUOUS
 62
    15
100
AcDbLine
 10
28.420311
 20
-45.995262
 30
0.0
 11
52.182459
 21
-45.995261
 31
0.0
  0
TEXT
  5
24A
100
AcDbEntity
  8
1
  6
CONTINUOUS
 62
    15
100
AcDbText
 10
49.332427
 20
-41.201563
 30
0.0
 40
2.5
  1
18.0
 50
89.713524
 41
0.9
 11
49.332427
 21
-41.201563
 31
0.0
100
AcDbText
 73
     1
  0
TEXT
  5
24B
100
AcDbEntity
  8
1
  6
CONTINUOUS
 62
    15
100
AcDbText
 10
47.268562
 20
-102.060387
 30
0.0
 40
2.5
  1
1;1
 41
1.284
 11
47.268562
 21
-102.060387
 31
0.0
100
AcDbText
 73
     1
  0
TEXT
  5
24C
100
AcDbEntity
  8
1
  6
CONTINUOUS
 62
    15
100
AcDbText
 10
76.402138
 20
-102.652534
 30
0.0
 40
2.5
  1
PBA
 41
1.284
 11
76.402138
 21
-102.652534
 31
0.0
100
AcDbText
 73
     1
  0
TEXT
  5
24D
100
AcDbEntity
  8
1
  6
CONTINUOUS
 62
    15
100
AcDbText
 10
36.017792
 20
-121.245911
 30
0.0
 40
2.5
  1
SLT
 41
1.284
 11
36.017792
 21
-121.245911
 31
0.0
100
AcDbText
 73
     1
  0
TEXT
  5
24E
100
AcDbEntity
  8
1
  6
CONTINUOUS
 62
    15
100
AcDbText
 10
26.543459
 20
-132.37825
 30
0.0
 40
2.5
  1
SLIMLINE THRESHOLD
 41
1.284
 11
26.543459
 21
-132.37825
 31
0.0
100
AcDbText
 73
     1
  0
TEXT
  5
24F
100
AcDbEntity
  8
1
  6
CONTINUOUS
 62
    15
100
AcDbText
 10
37.064148
 20
36.997047
 30
0.0
 40
2.5
  1
44mm
 41
1.284
 11
37.064148
 21
36.997047
 31
0.0
100
AcDbText
 73
     1
  0
TEXT
  5
250
100
AcDbEntity
  8
1
  6
CONTINUOUS
 62
    15
100
AcDbText
 10
37.064148
 20
31.997047
 30
0.0
 40
2.5
  1
DOOR
 41
1.284
 11
37.064148
 21
31.997047
 31
0.0
100
AcDbText
 73
     1
  0
ENDBLK
  5
251
100
AcDbEntity
  8
0
100
AcDbBlockEnd
  0
BLOCK
  5
254
100
AcDbEntity
  8
GEN_LAYER
100
AcDbBlockBegin
  2
GEN_BLOCK00004
 70
     0
 10
0.0
 20
0.0
 30
0.0
  3
GEN_BLOCK00004
  1

  0
LINE
  5
256
100
AcDbEntity
  8
GEN_LAYER
  6
CONTINUOUS
 62
    15
100
AcDbLine
 10
16.063459
 20
-45.830648
 30
0.0
 11
15.280185
 21
-45.047374
 31
0.0
  0
LINE
  5
257
100
AcDbEntity
  8
GEN_LAYER
  6
CONTINUOUS
 62
    15
100
AcDbLine
 10
15.280185
 20
-45.047374
 30
0.0
 11
16.978713
 21
-43.348846
 31
0.0
  0
LINE
  5
258
100
AcDbEntity
  8
GEN_LAYER
  6
CONTINUOUS
 62
    15
100
AcDbLine
 10
16.978713
 20
-43.348846
 30
0.0
 11
20.228103
 21
-43.348846
 31
0.0
  0
ARC
  5
259
100
AcDbEntity
  8
GEN_LAYER
  6
CONTINUOUS
 62
    15
100
AcDbCircle
 10
20.228103
 20
-42.748846
 30
0.0
 40
0.6
100
AcDbArc
 50
-90.0
 51
90.0
  0
LINE
  5
25A
100
AcDbEntity
  8
GEN_LAYER
  6
CONTINUOUS
 62
    15
100
AcDbLine
 10
20.228103
 20
-42.148846
 30
0.0
 11
18.782266
 21
-42.148846
 31
0.0
  0
ARC
  5
25B
100
AcDbEntity
  8
GEN_LAYER
  6
CONTINUOUS
 62
    15
100
AcDbCircle
 10
18.782266
 20
-41.898846
 30
0.0
 40
0.25
100
AcDbArc
 50
135.0
 51
-90.0
  0
LINE
  5
25C
100
AcDbEntity
  8
GEN_LAYER
  6
CONTINUOUS
 62
    15
100
AcDbLine
 10
18.60549
 20
-41.722069
 30
0.0
 11
19.528713
 21
-40.798846
 31
0.0
  0
LINE
  5
25D
100
AcDbEntity
  8
GEN_LAYER
  6
CONTINUOUS
 62
    15
100
AcDbLine
 10
19.528713
 20
-40.798846
 30
0.0
 11
20.971489
 21
-40.798846
 31
0.0
  0
LINE
  5
25E
100
AcDbEntity
  8
GEN_LAYER
  6
CONTINUOUS
 62
    15
100
AcDbLine
 10
21.971488
 20
-41.797613
 30
0.0
 11
21.976621
 21
-45.961965
 31
0.0
  0
LINE
  5
25F
100
AcDbEntity
  8
GEN_LAYER
  6
CONTINUOUS
 62
    15
100
AcDbLine
 10
16.063459
 20
-45.830648
 30
0.0
 11
17.389969
 21
-47.157158
 31
0.0
  0
LINE
  5
260
100
AcDbEntity
  8
GEN_LAYER
  6
CONTINUOUS
 62
    15
100
AcDbLine
 10
17.189631
 20
-46.956821
 30
0.0
 11
20.974937
 21
-46.963196
 31
0.0
  0
ARC
  5
261
100
AcDbEntity
  8
GEN_LAYER
  6
CONTINUOUS
 62
    15
100
AcDbCircle
 10
20.971489
 20
-41.798846
 30
0.0
 40
1.0
100
AcDbArc
 50
0.0
 51
90.0
  0
ARC
  5
262
100
AcDbEntity
  8
GEN_LAYER
  6
CONTINUOUS
 62
    15
100
AcDbCircle
 10
20.976621
 20
-45.963197
 30
0.0
 40
1.0
100
AcDbArc
 50
-90.0
 51
0.0
  0
LINE
  5
263
100
AcDbEntity
  8
GEN_LAYER
  6
CONTINUOUS
 62
    15
100
AcDbLine
 10
17.643229
 20
-45.925255
 30
0.0
 11
17.244948
 21
-45.626544
 31
0.0
  0
LINE
  5
264
100
AcDbEntity
  8
GEN_LAYER
  6
CONTINUOUS
 62
    15
100
AcDbLine
 10
17.244948
 20
-45.626544
 30
0.0
 11
16.818217
 21
-45.38473
 31
0.0
  0
LINE
  5
265
100
AcDbEntity
  8
GEN_LAYER
  6
CONTINUOUS
 62
    15
100
AcDbLine
 10
16.818217
 20
-45.38473
 30
0.0
 11
16.633301
 21
-45.171365
 31
0.0
  0
LINE
  5
266
100
AcDbEntity
  8
GEN_LAYER
  6
CONTINUOUS
 62
    15
100
AcDbLine
 10
16.633301
 20
-45.171365
 30
0.0
 11
16.775544
 21
-45.000673
 31
0.0
  0
LINE
  5
267
100
AcDbEntity
  8
GEN_LAYER
  6
CONTINUOUS
 62
    15
100
AcDbLine
 10
16.775544
 20
-45.000673
 30
0.0
 11
17.330294
 21
-44.246783
 31
0.0
  0
LINE
  5
268
100
AcDbEntity
  8
GEN_LAYER
  6
CONTINUOUS
 62
    15
100
AcDbLine
 10
17.330294
 20
-44.246783
 30
0.0
 11
20.957501
 21
-44.20411
 31
0.0
  0
LINE
  5
269
100
AcDbEntity
  8
GEN_LAYER
  6
CONTINUOUS
 62
    15
100
AcDbLine
 10
20.957501
 20
-44.20411
 30
0.0
 11
21.128193
 21
-45.768787
 31
0.0
  0
LINE
  5
26A
100
AcDbEntity
  8
GEN_LAYER
  6
CONTINUOUS
 62
    15
100
AcDbLine
 10
21.128193
 20
-45.768787
 30
0.0
 11
20.85793
 21
-46.03905
 31
0.0
  0
LINE
  5
26B
100
AcDbEntity
  8
GEN_LAYER
  6
CONTINUOUS
 62
    15
100
AcDbLine
 10
20.85793
 20
-46.03905
 30
0.0
 11
20.573443
 21
-46.181293
 31
0.0
  0
LINE
  5
26C
100
AcDbEntity
  8
GEN_LAYER
  6
CONTINUOUS
 62
    15
100
AcDbLine
 10
20.573443
 20
-46.181293
 30
0.0
 11
20.33163
 21
-46.195518
 31
0.0
  0
LINE
  5
26D
100
AcDbEntity
  8
GEN_LAYER
  6
CONTINUOUS
 62
    15
100
AcDbLine
 10
20.33163
 20
-46.195518
 30
0.0
 11
19.976021
 21
-45.896806
 31
0.0
  0
LINE
  5
26E
100
AcDbEntity
  8
GEN_LAYER
  6
CONTINUOUS
 62
    15
100
AcDbLine
 10
19.976021
 20
-45.896806
 30
0.0
 11
19.563515
 21
-45.470076
 31
0.0
  0
LINE
  5
26F
100
AcDbEntity
  8
GEN_LAYER
  6
CONTINUOUS
 62
    15
100
AcDbLine
 10
19.563515
 20
-45.470076
 30
0.0
 11
19.008766
 21
-45.356281
 31
0.0
  0
LINE
  5
270
100
AcDbEntity
  8
GEN_LAYER
  6
CONTINUOUS
 62
    15
100
AcDbLine
 10
19.008766
 20
-45.356281
 30
0.0
 11
18.766952
 21
-45.512749
 31
0.0
  0
LINE
  5
271
100
AcDbEntity
  8
GEN_LAYER
  6
CONTINUOUS
 62
    15
100
AcDbLine
 10
18.766952
 20
-45.512749
 30
0.0
 11
18.49669
 21
-45.768787
 31
0.0
  0
LINE
  5
272
100
AcDbEntity
  8
GEN_LAYER
  6
CONTINUOUS
 62
    15
100
AcDbLine
 10
18.49669
 20
-45.768787
 30
0.0
 11
18.254876
 21
-45.939479
 31
0.0
  0
LINE
  5
273
100
AcDbEntity
  8
GEN_LAYER
  6
CONTINUOUS
 62
    15
100
AcDbLine
 10
18.254876
 20
-45.939479
 30
0.0
 11
17.956165
 21
-45.996377
 31
0.0
  0
LINE
  5
274
100
AcDbEntity
  8
GEN_LAYER
  6
CONTINUOUS
 62
    15
100
AcDbLine
 10
17.956165
 20
-45.996377
 30
0.0
 11
17.643229
 21
-45.967928
 31
0.0
  0
LINE
  5
275
100
AcDbEntity
  8
GEN_LAYER
  6
CONTINUOUS
 62
    15
100
AcDbLine
 10
17.643229
 20
-45.967928
 30
0.0
 11
17.643229
 21
-45.925255
 31
0.0
  0
LINE
  5
276
100
AcDbEntity
  8
GEN_LAYER
  6
CONTINUOUS
 62
    15
100
AcDbLine
 10
17.643229
 20
-45.925255
 30
0.0
 11
16.818217
 21
-45.38473
 31
0.0
  0
ENDBLK
  5
277
100
AcDbEntity
  8
0
100
AcDbBlockEnd
  0
BLOCK
  5
279
100
AcDbEntity
  8
1
100
AcDbBlockBegin
  2
GEN_BLOCK00005
 70
     0
 10
0.0
 20
0.0
 30
0.0
  3
GEN_BLOCK00005
  1

  0
LINE
  5
27B
100
AcDbEntity
  8
1
  6
DASHED
 62
    15
100
AcDbLine
 10
18.648526
 20
-27.99526
 30
0.0
 11
23.263667
 21
-23.380119
 31
0.0
  0
LINE
  5
27C
100
AcDbEntity
  8
1
  6
DASHED
 62
    15
100
AcDbLine
 10
12.991672
 20
-27.99526
 30
0.0
 11
23.263667
 21
-17.723265
 31
0.0
  0
LINE
  5
27D
100
AcDbEntity
  8
1
  6
DASHED
 62
    15
100
AcDbLine
 10
7.334818
 20
-27.99526
 30
0.0
 11
23.263667
 21
-12.066411
 31
0.0
  0
LINE
  5
27E
100
AcDbEntity
  8
1
  6
DASHED
 62
    15
100
AcDbLine
 10
1.677963
 20
-27.99526
 30
0.0
 11
23.263667
 21
-6.409557
 31
0.0
  0
LINE
  5
27F
100
AcDbEntity
  8
1
  6
DASHED
 62
    15
100
AcDbLine
 10
-3.978891
 20
-27.99526
 30
0.0
 11
23.263667
 21
-0.752702
 31
0.0
  0
LINE
  5
280
100
AcDbEntity
  8
1
  6
DASHED
 62
    15
100
AcDbLine
 10
-9.635745
 20
-27.99526
 30
0.0
 11
23.263667
 21
4.904152
 31
0.0
  0
LINE
  5
281
100
AcDbEntity
  8
1
  6
DASHED
 62
    15
100
AcDbLine
 10
-15.292599
 20
-27.99526
 30
0.0
 11
23.263667
 21
10.561006
 31
0.0
  0
LINE
  5
282
100
AcDbEntity
  8
1
  6
DASHED
 62
    15
100
AcDbLine
 10
-20.736333
 20
-27.78214
 30
0.0
 11
23.263667
 21
16.21786
 31
0.0
  0
LINE
  5
283
100
AcDbEntity
  8
1
  6
DASHED
 62
    15
100
AcDbLine
 10
-20.736333
 20
-22.125285
 30
0.0
 11
23.263667
 21
21.874715
 31
0.0
  0
LINE
  5
284
100
AcDbEntity
  8
1
  6
DASHED
 62
    15
100
AcDbLine
 10
-20.736333
 20
-16.468431
 30
0.0
 11
23.263667
 21
27.531569
 31
0.0
  0
LINE
  5
285
100
AcDbEntity
  8
1
  6
DASHED
 62
    15
100
AcDbLine
 10
-20.736333
 20
-10.811577
 30
0.0
 11
23.263667
 21
33.188423
 31
0.0
  0
LINE
  5
286
100
AcDbEntity
  8
1
  6
DASHED
 62
    15
100
AcDbLine
 10
-20.736333
 20
-5.154723
 30
0.0
 11
23.263667
 21
38.845277
 31
0.0
  0
LINE
  5
287
100
AcDbEntity
  8
1
  6
DASHED
 62
    15
100
AcDbLine
 10
-20.736333
 20
0.502132
 30
0.0
 11
23.263667
 21
44.502132
 31
0.0
  0
LINE
  5
288
100
AcDbEntity
  8
1
  6
DASHED
 62
    15
100
AcDbLine
 10
-20.736333
 20
6.158986
 30
0.0
 11
23.263667
 21
50.158986
 31
0.0
  0
LINE
  5
289
100
AcDbEntity
  8
1
  6
DASHED
 62
    15
100
AcDbLine
 10
-20.736333
 20
11.81584
 30
0.0
 11
23.263667
 21
55.81584
 31
0.0
  0
LINE
  5
28A
100
AcDbEntity
  8
1
  6
DASHED
 62
    15
100
AcDbLine
 10
-20.736333
 20
17.472694
 30
0.0
 11
23.263667
 21
61.472694
 31
0.0
  0
LINE
  5
28B
100
AcDbEntity
  8
1
  6
DASHED
 62
    15
100
AcDbLine
 10
-20.736333
 20
23.129549
 30
0.0
 11
23.263667
 21
67.129549
 31
0.0
  0
LINE
  5
28C
100
AcDbEntity
  8
1
  6
DASHED
 62
    15
100
AcDbLine
 10
-20.736333
 20
28.786403
 30
0.0
 11
22.482004
 21
72.00474
 31
0.0
  0
LINE
  5
28D
100
AcDbEntity
  8
1
  6
DASHED
 62
    15
100
AcDbLine
 10
-20.736333
 20
34.443257
 30
0.0
 11
16.82515
 21
72.00474
 31
0.0
  0
LINE
  5
28E
100
AcDbEntity
  8
1
  6
DASHED
 62
    15
100
AcDbLine
 10
-20.736333
 20
40.100111
 30
0.0
 11
11.168295
 21
72.00474
 31
0.0
  0
LINE
  5
28F
100
AcDbEntity
  8
1
  6
DASHED
 62
    15
100
AcDbLine
 10
-20.736333
 20
45.756966
 30
0.0
 11
5.511441
 21
72.00474
 31
0.0
  0
LINE
  5
290
100
AcDbEntity
  8
1
  6
DASHED
 62
    15
100
AcDbLine
 10
-20.736333
 20
51.41382
 30
0.0
 11
-0.145413
 21
72.00474
 31
0.0
  0
LINE
  5
291
100
AcDbEntity
  8
1
  6
DASHED
 62
    15
100
AcDbLine
 10
-20.736333
 20
57.070674
 30
0.0
 11
-5.802267
 21
72.00474
 31
0.0
  0
LINE
  5
292
100
AcDbEntity
  8
1
  6
DASHED
 62
    15
100
AcDbLine
 10
-20.736333
 20
62.727528
 30
0.0
 11
-11.459122
 21
72.00474
 31
0.0
  0
LINE
  5
293
100
AcDbEntity
  8
1
  6
DASHED
 62
    15
100
AcDbLine
 10
-20.736333
 20
68.384383
 30
0.0
 11
-17.115976
 21
72.00474
 31
0.0
  0
TEXT
  5
294
100
AcDbEntity
  8
1
  6
CONTINUOUS
 62
    15
100
AcDbText
 10
-27.444498
 20
-60.883171
 30
0.0
 40
2.5
  1
CILL OF WOOD-
 41
1.284
 11
-27.444498
 21
-60.883171
 31
0.0
100
AcDbText
 73
     1
  0
TEXT
  5
295
100
AcDbEntity
  8
1
  6
CONTINUOUS
 62
    15
100
AcDbText
 10
-27.444498
 20
-65.883171
 30
0.0
 40
2.5
  1
CONCRETE ETC
 41
1.284
 11
-27.444498
 21
-65.883171
 31
0.0
100
AcDbText
 73
     1
  0
LINE
  5
296
100
AcDbEntity
  8
1
  6
HIDDEN
 62
    15
100
AcDbLine
 10
-22.736333
 20
-46.626913
 30
0.0
 11
-22.736333
 21
75.332808
 31
0.0
  0
LINE
  5
297
100
AcDbEntity
  8
1
  6
CONTINUOUS
 62
    15
100
AcDbLine
 10
-20.736333
 20
-27.99526
 30
0.0
 11
-20.736333
 21
72.00474
 31
0.0
  0
LINE
  5
298
100
AcDbEntity
  8
1
  6
CONTINUOUS
 62
    15
100
AcDbLine
 10
-20.736333
 20
72.00474
 30
0.0
 11
23.263667
 21
72.00474
 31
0.0
  0
LINE
  5
299
100
AcDbEntity
  8
1
  6
CONTINUOUS
 62
    15
100
AcDbLine
 10
23.263667
 20
72.00474
 30
0.0
 11
23.263667
 21
-27.99526
 31
0.0
  0
LINE
  5
29A
100
AcDbEntity
  8
1
  6
CONTINUOUS
 62
    15
100
AcDbLine
 10
23.263667
 20
-27.99526
 30
0.0
 11
-20.736333
 21
-27.99526
 31
0.0
  0
LINE
  5
29B
100
AcDbEntity
  8
1
  6
CONTINUOUS
 62
    15
100
AcDbLine
 10
-4.236333
 20
-37.524966
 30
0.0
 11
-2.25261
 21
-36.80295
 31
0.0
  0
ARC
  5
29C
100
AcDbEntity
  8
1
  6
CONTINUOUS
 62
    15
100
AcDbCircle
 10
-1.996095
 20
-37.507719
 30
0.0
 40
0.75
100
AcDbArc
 50
-70.0
 51
110.0
  0
LINE
  5
29D
100
AcDbEntity
  8
1
  6
CONTINUOUS
 62
    15
100
AcDbLine
 10
-1.73958
 20
-38.212489
 30
0.0
 11
-1.857041
 21
-38.255241
 31
0.0
  0
ARC
  5
29E
100
AcDbEntity
  8
1
  6
CONTINUOUS
 62
    15
100
AcDbCircle
 10
-1.515021
 20
-39.194934
 30
0.0
 40
1.0
100
AcDbArc
 50
110.0
 51
-70.0
  0
LINE
  5
29F
100
AcDbEntity
  8
1
  6
CONTINUOUS
 62
    15
100
AcDbLine
 10
-1.173001
 20
-40.134627
 30
0.0
 11
2.58577
 21
-38.766546
 31
0.0
  0
ARC
  5
2A0
100
AcDbEntity
  8
1
  6
CONTINUOUS
 62
    15
100
AcDbCircle
 10
2.24375
 20
-37.826854
 30
0.0
 40
1.0
100
AcDbArc
 50
-70.0
 51
110.0
  0
LINE
  5
2A1
100
AcDbEntity
  8
1
  6
CONTINUOUS
 62
    15
100
AcDbLine
 10
1.901729
 20
-36.887161
 30
0.0
 11
1.784268
 21
-36.929913
 31
0.0
  0
ARC
  5
2A2
100
AcDbEntity
  8
1
  6
CONTINUOUS
 62
    15
100
AcDbCircle
 10
1.527753
 20
-36.225144
 30
0.0
 40
0.75
100
AcDbArc
 50
110.0
 51
-63.314938
  0
LINE
  5
2A3
100
AcDbEntity
  8
1
  6
CONTINUOUS
 62
    15
100
AcDbLine
 10
1.271238
 20
-35.520374
 30
0.0
 11
1.355213
 21
-35.49526
 31
0.0
  0
LINE
  5
2A4
100
AcDbEntity
  8
1
  6
CONTINUOUS
 62
    15
100
AcDbLine
 10
1.355213
 20
-35.49526
 30
0.0
 11
2.459297
 21
-35.49526
 31
0.0
  0
LINE
  5
2A5
100
AcDbEntity
  8
1
  6
CONTINUOUS
 62
    15
100
AcDbLine
 10
-8.019589
 20
-40.498226
 30
0.0
 11
-5.242848
 21
-39.487574
 31
0.0
  0
ARC
  5
2A6
100
AcDbEntity
  8
1
  6
CONTINUOUS
 62
    15
100
AcDbCircle
 10
-4.986333
 20
-40.192344
 30
0.0
 40
0.75
100
AcDbArc
 50
0.0
 51
110.0
  0
LINE
  5
2A7
100
AcDbEntity
  8
1
  6
CONTINUOUS
 62
    15
100
AcDbLine
 10
-4.236333
 20
-40.192344
 30
0.0
 11
-4.236333
 21
-45.99526
 31
0.0
  0
LINE
  5
2A8
100
AcDbEntity
  8
1
  6
CONTINUOUS
 62
    15
100
AcDbLine
 10
-4.236333
 20
-45.99526
 30
0.0
 11
-3.036333
 21
-45.99526
 31
0.0
  0
LINE
  5
2A9
100
AcDbEntity
  8
1
  6
CONTINUOUS
 62
    15
100
AcDbLine
 10
-3.036333
 20
-45.99526
 30
0.0
 11
-3.036333
 21
-41.051169
 31
0.0
  0
ARC
  5
2AA
100
AcDbEntity
  8
1
  6
CONTINUOUS
 62
    15
100
AcDbCircle
 10
-1.515021
 20
-39.194934
 30
0.0
 40
2.4
100
AcDbArc
 50
-129.336965
 51
-73.429445
  0
LINE
  5
2AB
100
AcDbEntity
  8
1
  6
CONTINUOUS
 62
    15
100
AcDbLine
 10
-0.830551
 20
-41.49526
 30
0.0
 11
3.064598
 21
-40.082116
 31
0.0
  0
ARC
  5
2AC
100
AcDbEntity
  8
1
  6
CONTINUOUS
 62
    15
100
AcDbCircle
 10
2.24375
 20
-37.826854
 30
0.0
 40
2.4
100
AcDbArc
 50
-70.0
 51
3.304856
  0
ARC
  5
2AD
100
AcDbEntity
  8
1
  6
CONTINUOUS
 62
    15
100
AcDbCircle
 10
5.388511
 20
-37.64526
 30
0.0
 40
0.75
100
AcDbArc
 50
90.0
 51
-176.695144
  0
LINE
  5
2AE
100
AcDbEntity
  8
1
  6
CONTINUOUS
 62
    15
100
AcDbLine
 10
-8.019589
 20
-40.498226
 30
0.0
 11
-19.716569
 21
-42.560719
 31
0.0
  0
ARC
  5
2AF
100
AcDbEntity
  8
1
  6
CONTINUOUS
 62
    15
100
AcDbCircle
 10
-19.586333
 20
-43.299325
 30
0.0
 40
0.75
100
AcDbArc
 50
100.0
 51
180.0
  0
LINE
  5
2B0
100
AcDbEntity
  8
1
  6
CONTINUOUS
 62
    15
100
AcDbLine
 10
-20.336333
 20
-43.299325
 30
0.0
 11
-20.336333
 21
-43.799577
 31
0.0
  0
ARC
  5
2B1
100
AcDbEntity
  8
1
  6
CONTINUOUS
 62
    15
100
AcDbCircle
 10
-19.586333
 20
-43.799577
 30
0.0
 40
0.75
100
AcDbArc
 50
180.0
 51
-105.46601
  0
ARC
  5
2B2
100
AcDbEntity
  8
1
  6
CONTINUOUS
 62
    15
100
AcDbCircle
 10
-19.586333
 20
-43.799577
 30
0.0
 40
0.75
100
AcDbArc
 50
180.0
 51
-105.46601
  0
ARC
  5
2B3
100
AcDbEntity
  8
1
  6
CONTINUOUS
 62
    15
100
AcDbCircle
 10
-19.986333
 20
-45.24526
 30
0.0
 40
0.75
100
AcDbArc
 50
-90.0
 51
74.53399
  0
LINE
  5
2B4
100
AcDbEntity
  8
1
  6
CONTINUOUS
 62
    15
100
AcDbLine
 10
-19.986333
 20
-45.99526
 30
0.0
 11
-21.736333
 21
-45.99526
 31
0.0
  0
LINE
  5
2B5
100
AcDbEntity
  8
1
  6
CONTINUOUS
 62
    15
100
AcDbLine
 10
-21.736333
 20
-45.99526
 30
0.0
 11
-21.736333
 21
-44.012559
 31
0.0
  0
ARC
  5
2B6
100
AcDbEntity
  8
1
  6
CONTINUOUS
 62
    15
100
AcDbCircle
 10
-18.736333
 20
-44.012559
 30
0.0
 40
3.0
100
AcDbArc
 50
100.0
 51
180.0
  0
LINE
  5
2B7
100
AcDbEntity
  8
1
  6
CONTINUOUS
 62
    15
100
AcDbLine
 10
-19.257277
 20
-41.058136
 30
0.0
 11
-8.950448
 21
-39.240764
 31
0.0
  0
LINE
  5
2B8
100
AcDbEntity
  8
1
  6
CONTINUOUS
 62
    15
100
AcDbLine
 10
-8.950448
 20
-39.240764
 30
0.0
 11
-3.036333
 21
-37.088202
 31
0.0
  0
LINE
  5
2B9
100
AcDbEntity
  8
1
  6
CONTINUOUS
 62
    15
100
AcDbLine
 10
21.863667
 20
-41.14526
 30
0.0
 11
21.863667
 21
-45.99526
 31
0.0
  0
LINE
  5
2BA
100
AcDbEntity
  8
1
  6
CONTINUOUS
 62
    15
100
AcDbLine
 10
21.863667
 20
-45.99526
 30
0.0
 11
23.263667
 21
-45.99526
 31
0.0
  0
LINE
  5
2BB
100
AcDbEntity
  8
1
  6
CONTINUOUS
 62
    15
100
AcDbLine
 10
23.263667
 20
-45.99526
 30
0.0
 11
23.263667
 21
-38.49526
 31
0.0
  0
LINE
  5
2BC
100
AcDbEntity
  8
1
  6
CONTINUOUS
 62
    15
100
AcDbLine
 10
5.388511
 20
-36.89526
 30
0.0
 11
20.053007
 21
-36.89526
 31
0.0
  0
ARC
  5
2BD
100
AcDbEntity
  8
1
  6
CONTINUOUS
 62
    15
100
AcDbCircle
 10
20.053007
 20
-37.64526
 30
0.0
 40
0.75
100
AcDbArc
 50
-45.0
 51
90.0
  0
LINE
  5
2BE
100
AcDbEntity
  8
1
  6
CONTINUOUS
 62
    15
100
AcDbLine
 10
20.583337
 20
-38.17559
 30
0.0
 11
12.763667
 21
-45.99526
 31
0.0
  0
LINE
  5
2BF
100
AcDbEntity
  8
1
  6
CONTINUOUS
 62
    15
100
AcDbLine
 10
12.763667
 20
-45.99526
 30
0.0
 11
14.460723
 21
-45.99526
 31
0.0
  0
LINE
  5
2C0
100
AcDbEntity
  8
1
  6
CONTINUOUS
 62
    15
100
AcDbLine
 10
14.460723
 20
-45.99526
 30
0.0
 11
15.804226
 21
-44.651757
 31
0.0
  0
ARC
  5
2C1
100
AcDbEntity
  8
1
  6
CONTINUOUS
 62
    15
100
AcDbCircle
 10
16.15778
 20
-44.298204
 30
0.0
 40
0.5
100
AcDbArc
 50
-135.0
 51
45.0
  0
LINE
  5
2C2
100
AcDbEntity
  8
1
  6
CONTINUOUS
 62
    15
100
AcDbLine
 10
16.511333
 20
-43.944651
 30
0.0
 11
17.710723
 21
-42.74526
 31
0.0
  0
LINE
  5
2C3
100
AcDbEntity
  8
1
  6
CONTINUOUS
 62
    15
100
AcDbLine
 10
17.710723
 20
-42.74526
 30
0.0
 11
19.713667
 21
-42.74526
 31
0.0
  0
LINE
  5
2C4
100
AcDbEntity
  8
1
  6
CONTINUOUS
 62
    15
100
AcDbLine
 10
19.713667
 20
-42.74526
 30
0.0
 11
19.713667
 21
-42.74526
 31
0.0
  0
ARC
  5
2C5
100
AcDbEntity
  8
1
  6
CONTINUOUS
 62
    15
100
AcDbCircle
 10
19.713667
 20
-42.29526
 30
0.0
 40
0.45
100
AcDbArc
 50
-90.0
 51
90.0
  0
LINE
  5
2C6
100
AcDbEntity
  8
1
  6
CONTINUOUS
 62
    15
100
AcDbLine
 10
19.713667
 20
-41.84526
 30
0.0
 11
18.610723
 21
-41.84526
 31
0.0
  0
LINE
  5
2C7
100
AcDbEntity
  8
1
  6
CONTINUOUS
 62
    15
100
AcDbLine
 10
18.610723
 20
-41.84526
 30
0.0
 11
19.664277
 21
-40.791707
 31
0.0
  0
ARC
  5
2C8
100
AcDbEntity
  8
1
  6
CONTINUOUS
 62
    15
100
AcDbCircle
 10
20.01783
 20
-41.14526
 30
0.0
 40
0.5
100
AcDbArc
 50
90.0
 51
135.0
  0
LINE
  5
2C9
100
AcDbEntity
  8
1
  6
CONTINUOUS
 62
    15
100
AcDbLine
 10
20.01783
 20
-40.64526
 30
0.0
 11
21.363667
 21
-40.64526
 31
0.0
  0
ARC
  5
2CA
100
AcDbEntity
  8
1
  6
CONTINUOUS
 62
    15
100
AcDbCircle
 10
21.363667
 20
-41.14526
 30
0.0
 40
0.5
100
AcDbArc
 50
0.0
 51
90.0
  0
LINE
  5
2CB
100
AcDbEntity
  8
1
  6
CONTINUOUS
 62
    15
100
AcDbLine
 10
6.263667
 20
-35.49526
 30
0.0
 11
6.763667
 21
-34.99526
 31
0.0
  0
LINE
  5
2CC
100
AcDbEntity
  8
1
  6
CONTINUOUS
 62
    15
100
AcDbLine
 10
6.763667
 20
-34.99526
 30
0.0
 11
7.263667
 21
-35.49526
 31
0.0
  0
LINE
  5
2CD
100
AcDbEntity
  8
1
  6
CONTINUOUS
 62
    15
100
AcDbLine
 10
7.263667
 20
-35.49526
 30
0.0
 11
7.763667
 21
-34.99526
 31
0.0
  0
LINE
  5
2CE
100
AcDbEntity
  8
1
  6
CONTINUOUS
 62
    15
100
AcDbLine
 10
7.763667
 20
-34.99526
 30
0.0
 11
8.263667
 21
-35.49526
 31
0.0
  0
LINE
  5
2CF
100
AcDbEntity
  8
1
  6
CONTINUOUS
 62
    15
100
AcDbLine
 10
8.263667
 20
-35.49526
 30
0.0
 11
8.763667
 21
-34.99526
 31
0.0
  0
LINE
  5
2D0
100
AcDbEntity
  8
1
  6
CONTINUOUS
 62
    15
100
AcDbLine
 10
8.763667
 20
-34.99526
 30
0.0
 11
9.263667
 21
-35.49526
 31
0.0
  0
LINE
  5
2D1
100
AcDbEntity
  8
1
  6
CONTINUOUS
 62
    15
100
AcDbLine
 10
9.263667
 20
-35.49526
 30
0.0
 11
9.763667
 21
-34.99526
 31
0.0
  0
LINE
  5
2D2
100
AcDbEntity
  8
1
  6
CONTINUOUS
 62
    15
100
AcDbLine
 10
9.763667
 20
-34.99526
 30
0.0
 11
10.263667
 21
-35.49526
 31
0.0
  0
LINE
  5
2D3
100
AcDbEntity
  8
1
  6
CONTINUOUS
 62
    15
100
AcDbLine
 10
10.263667
 20
-35.49526
 30
0.0
 11
10.763667
 21
-34.99526
 31
0.0
  0
LINE
  5
2D4
100
AcDbEntity
  8
1
  6
CONTINUOUS
 62
    15
100
AcDbLine
 10
10.763667
 20
-34.99526
 30
0.0
 11
11.263667
 21
-35.49526
 31
0.0
  0
LINE
  5
2D5
100
AcDbEntity
  8
1
  6
CONTINUOUS
 62
    15
100
AcDbLine
 10
11.263667
 20
-35.49526
 30
0.0
 11
11.763667
 21
-34.99526
 31
0.0
  0
LINE
  5
2D6
100
AcDbEntity
  8
1
  6
CONTINUOUS
 62
    15
100
AcDbLine
 10
11.763667
 20
-34.99526
 30
0.0
 11
12.263667
 21
-35.49526
 31
0.0
  0
LINE
  5
2D7
100
AcDbEntity
  8
1
  6
CONTINUOUS
 62
    15
100
AcDbLine
 10
12.263667
 20
-35.49526
 30
0.0
 11
12.763667
 21
-34.99526
 31
0.0
  0
LINE
  5
2D8
100
AcDbEntity
  8
1
  6
CONTINUOUS
 62
    15
100
AcDbLine
 10
12.763667
 20
-34.99526
 30
0.0
 11
13.263667
 21
-35.49526
 31
0.0
  0
LINE
  5
2D9
100
AcDbEntity
  8
1
  6
CONTINUOUS
 62
    15
100
AcDbLine
 10
13.263667
 20
-35.49526
 30
0.0
 11
13.763667
 21
-34.99526
 31
0.0
  0
LINE
  5
2DA
100
AcDbEntity
  8
1
  6
CONTINUOUS
 62
    15
100
AcDbLine
 10
13.763667
 20
-34.99526
 30
0.0
 11
14.263667
 21
-35.49526
 31
0.0
  0
LINE
  5
2DB
100
AcDbEntity
  8
1
  6
CONTINUOUS
 62
    15
100
AcDbLine
 10
14.263667
 20
-35.49526
 30
0.0
 11
14.763667
 21
-34.99526
 31
0.0
  0
LINE
  5
2DC
100
AcDbEntity
  8
1
  6
CONTINUOUS
 62
    15
100
AcDbLine
 10
14.763667
 20
-34.99526
 30
0.0
 11
15.263667
 21
-35.49526
 31
0.0
  0
LINE
  5
2DD
100
AcDbEntity
  8
1
  6
CONTINUOUS
 62
    15
100
AcDbLine
 10
15.263667
 20
-35.49526
 30
0.0
 11
15.763667
 21
-34.99526
 31
0.0
  0
LINE
  5
2DE
100
AcDbEntity
  8
1
  6
CONTINUOUS
 62
    15
100
AcDbLine
 10
15.763667
 20
-34.99526
 30
0.0
 11
16.263667
 21
-35.49526
 31
0.0
  0
LINE
  5
2DF
100
AcDbEntity
  8
1
  6
CONTINUOUS
 62
    15
100
AcDbLine
 10
16.263667
 20
-35.49526
 30
0.0
 11
16.763667
 21
-34.99526
 31
0.0
  0
LINE
  5
2E0
100
AcDbEntity
  8
1
  6
CONTINUOUS
 62
    15
100
AcDbLine
 10
16.763667
 20
-34.99526
 30
0.0
 11
17.263667
 21
-35.49526
 31
0.0
  0
LINE
  5
2E1
100
AcDbEntity
  8
1
  6
CONTINUOUS
 62
    15
100
AcDbLine
 10
17.263667
 20
-35.49526
 30
0.0
 11
17.763667
 21
-34.99526
 31
0.0
  0
LINE
  5
2E2
100
AcDbEntity
  8
1
  6
CONTINUOUS
 62
    15
100
AcDbLine
 10
17.763667
 20
-34.99526
 30
0.0
 11
18.263667
 21
-35.49526
 31
0.0
  0
LINE
  5
2E3
100
AcDbEntity
  8
1
  6
CONTINUOUS
 62
    15
100
AcDbLine
 10
18.263667
 20
-35.49526
 30
0.0
 11
18.763667
 21
-34.99526
 31
0.0
  0
LINE
  5
2E4
100
AcDbEntity
  8
1
  6
CONTINUOUS
 62
    15
100
AcDbLine
 10
18.763667
 20
-34.99526
 30
0.0
 11
19.263667
 21
-35.49526
 31
0.0
  0
LINE
  5
2E5
100
AcDbEntity
  8
1
  6
CONTINUOUS
 62
    15
100
AcDbLine
 10
19.263667
 20
-35.49526
 30
0.0
 11
19.763667
 21
-34.99526
 31
0.0
  0
LINE
  5
2E6
100
AcDbEntity
  8
1
  6
CONTINUOUS
 62
    15
100
AcDbLine
 10
19.763667
 20
-34.99526
 30
0.0
 11
20.263667
 21
-35.49526
 31
0.0
  0
LINE
  5
2E7
100
AcDbEntity
  8
1
  6
CONTINUOUS
 62
    15
100
AcDbLine
 10
6.263667
 20
-35.49526
 30
0.0
 11
1.355213
 21
-35.49526
 31
0.0
  0
ARC
  5
2E8
100
AcDbEntity
  8
1
  6
CONTINUOUS
 62
    15
100
AcDbCircle
 10
20.263667
 20
-38.49526
 30
0.0
 40
3.0
100
AcDbArc
 50
0.0
 51
90.0
  0
LINE
  5
2E9
100
AcDbEntity
  8
1
  6
DOT
 62
    15
100
AcDbLine
 10
-47.158852
 20
-69.457281
 30
0.0
 11
-47.158852
 21
-49.842198
 31
0.0
  0
LINE
  5
2EA
100
AcDbEntity
  8
1
  6
DOT
 62
    15
100
AcDbLine
 10
-47.158852
 20
-49.842198
 30
0.0
 11
-21.736333
 21
-46.49526
 31
0.0
  0
LINE
  5
2EB
100
AcDbEntity
  8
1
  6
DOT
 62
    15
100
AcDbLine
 10
-21.736333
 20
-46.49526
 30
0.0
 11
36.818569
 21
-46.49526
 31
0.0
  0
LINE
  5
2EC
100
AcDbEntity
  8
1
  6
DOT
 62
    15
100
AcDbLine
 10
36.818569
 20
-46.49526
 30
0.0
 11
36.818569
 21
-69.457281
 31
0.0
  0
LINE
  5
2ED
100
AcDbEntity
  8
1
  6
CONTINUOUS
 62
    15
100
AcDbLine
 10
-21.736333
 20
-45.99526
 30
0.0
 11
-21.736333
 21
-45.99526
 31
0.0
  0
LINE
  5
2EE
100
AcDbEntity
  8
1
  6
CONTINUOUS
 62
    15
100
AcDbLine
 10
-21.736333
 20
-45.99526
 30
0.0
 11
-21.736333
 21
-45.99526
 31
0.0
  0
LINE
  5
2EF
100
AcDbEntity
  8
1
  6
CONTINUOUS
 62
    15
100
AcDbLine
 10
-21.736333
 20
-45.99526
 30
0.0
 11
-21.736333
 21
-45.99526
 31
0.0
  0
LINE
  5
2F0
100
AcDbEntity
  8
1
  6
CONTINUOUS
 62
    15
100
AcDbLine
 10
-21.736333
 20
-45.99526
 30
0.0
 11
-21.736333
 21
-45.99526
 31
0.0
  0
LINE
  5
2F1
100
AcDbEntity
  8
1
  6
CONTINUOUS
 62
    15
100
AcDbLine
 10
22.263667
 20
-45.99526
 30
0.0
 11
22.263667
 21
-45.99526
 31
0.0
  0
ENDBLK
  5
2F2
100
AcDbEntity
  8
0
100
AcDbBlockEnd
  0
BLOCK
  5
2F4
100
AcDbEntity
  8
0
100
AcDbBlockBegin
  2
GEN_BLOCK00006
 70
     0
 10
0.0
 20
0.0
 30
0.0
  3
GEN_BLOCK00006
  1

  0
ARC
  5
2F6
100
AcDbEntity
  8
0
  6
CONTINUOUS
 62
    15
100
AcDbCircle
 10
1.401221
 20
-43.539833
 30
0.0
 40
8.177165
100
AcDbArc
 50
117.020927
 51
138.819499
  0
ARC
  5
2F7
100
AcDbEntity
  8
0
  6
CONTINUOUS
 62
    15
100
AcDbCircle
 10
2.817623
 20
-44.198502
 30
0.0
 40
9.31847
100
AcDbArc
 50
82.528829
 51
101.630745
  0
ARC
  5
2F8
100
AcDbEntity
  8
0
  6
CONTINUOUS
 62
    15
100
AcDbCircle
 10
0.966205
 20
-35.820872
 30
0.0
 40
0.75
100
AcDbArc
 50
92.079787
 51
110.0
  0
ARC
  5
2F9
100
AcDbEntity
  8
0
  6
CONTINUOUS
 62
    15
100
AcDbCircle
 10
0.966205
 20
-35.820872
 30
0.0
 40
0.75
100
AcDbArc
 50
110.0
 51
-160.0
  0
LINE
  5
2FA
100
AcDbEntity
  8
0
  6
CONTINUOUS
 62
    15
100
AcDbLine
 10
0.261436
 20
-36.077387
 30
0.0
 11
0.620557
 21
-37.064064
 31
0.0
  0
ARC
  5
2FB
100
AcDbEntity
  8
0
  6
CONTINUOUS
 62
    15
100
AcDbCircle
 10
0.996434
 20
-36.927256
 30
0.0
 40
0.4
100
AcDbArc
 50
-160.0
 51
-70.0
  0
LINE
  5
2FC
100
AcDbEntity
  8
0
  6
CONTINUOUS
 62
    15
100
AcDbLine
 10
1.133242
 20
-37.303133
 30
0.0
 11
1.884996
 21
-37.029517
 31
0.0
  0
ARC
  5
2FD
100
AcDbEntity
  8
0
  6
CONTINUOUS
 62
    15
100
AcDbCircle
 10
2.141511
 20
-37.734286
 30
0.0
 40
0.75
100
AcDbArc
 50
20.0
 51
110.0
  0
LINE
  5
2FE
100
AcDbEntity
  8
0
  6
CONTINUOUS
 62
    15
100
AcDbLine
 10
2.84628
 20
-37.477771
 30
0.0
 11
2.983089
 21
-37.853648
 31
0.0
  0
ARC
  5
2FF
100
AcDbEntity
  8
0
  6
CONTINUOUS
 62
    15
100
AcDbCircle
 10
2.278319
 20
-38.110164
 30
0.0
 40
0.75
100
AcDbArc
 50
-70.0
 51
20.0
  0
LINE
  5
300
100
AcDbEntity
  8
0
  6
CONTINUOUS
 62
    15
100
AcDbLine
 10
2.534834
 20
-38.814933
 30
0.0
 11
-1.129967
 21
-40.148812
 31
0.0
  0
ARC
  5
301
100
AcDbEntity
  8
0
  6
CONTINUOUS
 62
    15
100
AcDbCircle
 10
-1.386482
 20
-39.444042
 30
0.0
 40
0.75
100
AcDbArc
 50
-160.0
 51
-70.0
  0
ARC
  5
302
100
AcDbEntity
  8
0
  6
CONTINUOUS
 62
    15
100
AcDbCircle
 10
-1.386482
 20
-39.444042
 30
0.0
 40
0.75
100
AcDbArc
 50
-160.0
 51
-70.0
  0
LINE
  5
303
100
AcDbEntity
  8
0
  6
CONTINUOUS
 62
    15
100
AcDbLine
 10
-2.091252
 20
-39.700557
 30
0.0
 11
-2.22806
 21
-39.32468
 31
0.0
  0
ARC
  5
304
100
AcDbEntity
  8
0
  6
CONTINUOUS
 62
    15
100
AcDbCircle
 10
-1.52329
 20
-39.068165
 30
0.0
 40
0.75
100
AcDbArc
 50
110.0
 51
-160.0
  0
LINE
  5
305
100
AcDbEntity
  8
0
  6
CONTINUOUS
 62
    15
100
AcDbLine
 10
-1.779805
 20
-38.363396
 30
0.0
 11
-1.028051
 21
-38.089779
 31
0.0
  0
ARC
  5
306
100
AcDbEntity
  8
0
  6
CONTINUOUS
 62
    15
100
AcDbCircle
 10
-1.164859
 20
-37.713902
 30
0.0
 40
0.4
100
AcDbArc
 50
-70.0
 51
20.0
  0
LINE
  5
307
100
AcDbEntity
  8
0
  6
CONTINUOUS
 62
    15
100
AcDbLine
 10
-0.788982
 20
-37.577094
 30
0.0
 11
-1.148103
 21
-36.590417
 31
0.0
  0
ARC
  5
308
100
AcDbEntity
  8
0
  6
CONTINUOUS
 62
    15
100
AcDbCircle
 10
-1.852873
 20
-36.846932
 30
0.0
 40
0.75
100
AcDbArc
 50
20.0
 51
110.0
  0
LINE
  5
309
100
AcDbEntity
  8
0
  6
CONTINUOUS
 62
    15
100
AcDbLine
 10
-2.109388
 20
-36.142163
 30
0.0
 11
-2.313795
 21
-36.255282
 31
0.0
  0
ARC
  5
30A
100
AcDbEntity
  8
0
  6
CONTINUOUS
 62
    15
100
AcDbCircle
 10
-4.906874
 20
-37.958498
 30
0.0
 40
0.25
100
AcDbArc
 50
-70.0
 51
-41.502061
  0
ARC
  5
30B
100
AcDbEntity
  8
0
  6
CONTINUOUS
 62
    15
100
AcDbCircle
 10
-4.906874
 20
-37.958498
 30
0.0
 40
0.25
100
AcDbArc
 50
-160.0
 51
-70.0
  0
ARC
  5
30C
100
AcDbEntity
  8
0
  6
CONTINUOUS
 62
    15
100
AcDbCircle
 10
-4.906874
 20
-37.958498
 30
0.0
 40
0.25
100
AcDbArc
 50
145.056802
 51
-160.0
  0
ARC
  5
30D
100
AcDbEntity
  8
0
  6
CONTINUOUS
 62
    15
100
AcDbCircle
 10
1.871107
 20
-42.694484
 30
0.0
 40
8.518628
100
AcDbArc
 50
117.963213
 51
145.056802
  0
ARC
  5
30E
100
AcDbEntity
  8
0
  6
CONTINUOUS
 62
    15
100
AcDbCircle
 10
-2.357769
 20
-34.728791
 30
0.0
 40
0.5
100
AcDbArc
 50
-62.036787
 51
20.0
  0
LINE
  5
30F
100
AcDbEntity
  8
0
  6
CONTINUOUS
 62
    15
100
AcDbLine
 10
-1.887922
 20
-34.557781
 30
0.0
 11
-2.048639
 21
-34.116216
 31
0.0
  0
ARC
  5
310
100
AcDbEntity
  8
0
  6
CONTINUOUS
 62
    15
100
AcDbCircle
 10
-1.578793
 20
-33.945206
 30
0.0
 40
0.5
100
AcDbArc
 50
132.106271
 51
-160.0
  0
LINE
  5
311
100
AcDbEntity
  8
0
  6
CONTINUOUS
 62
    15
100
AcDbLine
 10
-1.914047
 20
-33.574254
 30
0.0
 11
-0.11266
 21
-31.946219
 31
0.0
  0
ARC
  5
312
100
AcDbEntity
  8
0
  6
CONTINUOUS
 62
    15
100
AcDbCircle
 10
-2.368491
 20
-26.658869
 30
0.0
 40
0.5
100
AcDbArc
 50
110.0
 51
-169.209396
  0
ARC
  5
313
100
AcDbEntity
  8
0
  6
CONTINUOUS
 62
    15
100
AcDbCircle
 10
-2.368491
 20
-26.658869
 30
0.0
 40
0.5
100
AcDbArc
 50
10.790604
 51
110.0
  0
ARC
  5
314
100
AcDbEntity
  8
0
  6
CONTINUOUS
 62
    15
100
AcDbCircle
 10
6.963529
 20
-24.880277
 30
0.0
 40
9.0
100
AcDbArc
 50
-169.209396
 51
-131.86596
  0
ARC
  5
315
100
AcDbEntity
  8
0
  6
CONTINUOUS
 62
    15
100
AcDbCircle
 10
0.623322
 20
-31.955004
 30
0.0
 40
0.5
100
AcDbArc
 50
-47.893729
 51
48.13404
  0
ARC
  5
316
100
AcDbEntity
  8
0
  6
CONTINUOUS
 62
    15
100
AcDbCircle
 10
0.623322
 20
-31.955004
 30
0.0
 40
0.5
100
AcDbArc
 50
-47.893729
 51
48.13404
  0
LINE
  5
317
100
AcDbEntity
  8
0
  6
CONTINUOUS
 62
    15
100
AcDbLine
 10
0.958576
 20
-32.325956
 30
0.0
 11
-0.343735
 21
-33.502943
 31
0.0
  0
ARC
  5
318
100
AcDbEntity
  8
0
  6
CONTINUOUS
 62
    15
100
AcDbCircle
 10
-0.008481
 20
-33.873894
 30
0.0
 40
0.5
100
AcDbArc
 50
132.106271
 51
-77.970704
  0
ARC
  5
319
100
AcDbEntity
  8
0
  6
CONTINUOUS
 62
    15
100
AcDbCircle
 10
4.020206
 20
-34.709306
 30
0.0
 40
0.25
100
AcDbArc
 50
-97.222694
 51
-70.0
  0
ARC
  5
31A
100
AcDbEntity
  8
0
  6
CONTINUOUS
 62
    15
100
AcDbCircle
 10
4.020206
 20
-34.709306
 30
0.0
 40
0.25
100
AcDbArc
 50
-70.0
 51
74.936576
  0
ARC
  5
31B
100
AcDbEntity
  8
0
  6
CONTINUOUS
 62
    15
100
AcDbCircle
 10
1.871107
 20
-42.694484
 30
0.0
 40
8.518628
100
AcDbArc
 50
74.936576
 51
102.029296
  0
ARC
  5
31C
100
AcDbEntity
  8
0
  6
CONTINUOUS
 62
    15
100
AcDbCircle
 10
6.963529
 20
-24.880277
 30
0.0
 40
10.0
100
AcDbArc
 50
-169.209396
 51
-135.041517
  0
ENDBLK
  5
31D
100
AcDbEntity
  8
0
100
AcDbBlockEnd
  0
ENDSEC
  0
SECTION
  2
ENTITIES
  0
INSERT
  5
28
100
AcDbEntity
  8
0
100
AcDbBlockReference
  2
GEN_BLOCK
 10
0.0
 20
0.0
 30
0.0
  0
INSERT
  5
214
100
AcDbEntity
  8
0
100
AcDbBlockReference
  2
PROTO
 10
0.0
 20
0.0
 30
0.0
  0
INSERT
  5
231
100
AcDbEntity
  8
0
100
AcDbBlockReference
  2
GEN_BLOCK00002
 10
0.0
 20
0.0
 30
0.0
  0
INSERT
  5
241
100
AcDbEntity
  8
1
100
AcDbBlockReference
  2
GEN_BLOCK00003
 10
0.0
 20
0.0
 30
0.0
  0
INSERT
  5
255
100
AcDbEntity
  8
GEN_LAYER
100
AcDbBlockReference
  2
GEN_BLOCK00004
 10
0.0
 20
0.0
 30
0.0
  0
INSERT
  5
27A
100
AcDbEntity
  8
1
100
AcDbBlockReference
  2
GEN_BLOCK00005
 10
0.0
 20
0.0
 30
0.0
  0
INSERT
  5
2F5
100
AcDbEntity
  8
0
100
AcDbBlockReference
  2
GEN_BLOCK00006
 10
0.0
 20
0.0
 30
0.0
  0
ENDSEC
  0
SECTION
  2
OBJECTS
  0
DICTIONARY
  5
19
100
AcDbDictionary
  3
ACAD_GROUP
350
1A
  3
ACAD_MLINESTYLE
350
1B
  0
DICTIONARY
  5
1A
102
{ACAD_REACTORS
330
19
102
}
100
AcDbDictionary
  0
DICTIONARY
  5
1B
102
{ACAD_REACTORS
330
19
102
}
100
AcDbDictionary
  3
STANDARD
350
1C
  0
MLINESTYLE
  5
1C
102
{ACAD_REACTORS
330
1B
102
}
100
AcDbMlineStyle
  2
STANDARD
 70
     0
  3

 62
     0
 51
90.0
 52
90.0
 71
     2
 49
0.5
 62
   256
  6
BYLAYER
 49
-0.5
 62
   256
  6
BYLAYER
  0
ENDSEC
  0
EOF
